ISO-10303-21;
HEADER;
FILE_DESCRIPTION (( 'STEP AP203' ),
    '1' );
FILE_NAME ('sone3D.STEP',
    '2015-08-11T10:21:32',
    ( '' ),
    ( '' ),
    'SwSTEP 2.0',
    'SolidWorks 2012',
    '' );
FILE_SCHEMA (( 'CONFIG_CONTROL_DESIGN' ));
ENDSEC;

DATA;
#1 = ORIENTED_EDGE ( 'NONE', *, *, #221, .T. ) ;
#2 = ORIENTED_EDGE ( 'NONE', *, *, #222, .T. ) ;
#3 = ORIENTED_EDGE ( 'NONE', *, *, #212, .T. ) ;
#4 = ORIENTED_EDGE ( 'NONE', *, *, #216, .T. ) ;
#5 = ORIENTED_EDGE ( 'NONE', *, *, #236, .F. ) ;
#6 = ORIENTED_EDGE ( 'NONE', *, *, #225, .F. ) ;
#7 = ORIENTED_EDGE ( 'NONE', *, *, #206, .T. ) ;
#8 = ORIENTED_EDGE ( 'NONE', *, *, #207, .F. ) ;
#9 = ORIENTED_EDGE ( 'NONE', *, *, #205, .T. ) ;
#10 = ORIENTED_EDGE ( 'NONE', *, *, #225, .T. ) ;
#11 = ORIENTED_EDGE ( 'NONE', *, *, #236, .T. ) ;
#12 = ORIENTED_EDGE ( 'NONE', *, *, #221, .F. ) ;
#13 = ORIENTED_EDGE ( 'NONE', *, *, #213, .F. ) ;
#14 = ORIENTED_EDGE ( 'NONE', *, *, #212, .F. ) ;
#15 = ORIENTED_EDGE ( 'NONE', *, *, #218, .F. ) ;
#16 = ORIENTED_EDGE ( 'NONE', *, *, #222, .F. ) ;
#17 = ORIENTED_EDGE ( 'NONE', *, *, #207, .T. ) ;
#18 = ORIENTED_EDGE ( 'NONE', *, *, #213, .T. ) ;
#19 = ORIENTED_EDGE ( 'NONE', *, *, #228, .T. ) ;
#20 = ORIENTED_EDGE ( 'NONE', *, *, #228, .F. ) ;
#21 = ORIENTED_EDGE ( 'NONE', *, *, #205, .F. ) ;
#22 = ORIENTED_EDGE ( 'NONE', *, *, #216, .F. ) ;
#23 = ORIENTED_EDGE ( 'NONE', *, *, #218, .T. ) ;
#24 = ORIENTED_EDGE ( 'NONE', *, *, #206, .F. ) ;
#25 = CARTESIAN_POINT ( 'NONE',  ( -7.499999999999997300, -4.999999999999999100, -500.0000000000000000 ) ) ;
#26 = CARTESIAN_POINT ( 'NONE',  ( 7.500000000000000000, 5.000000000000000900, -500.0000000000000000 ) ) ;
#27 = CARTESIAN_POINT ( 'NONE',  ( -7.499999999999999100, 5.000000000000000900, -500.0000000000000000 ) ) ;
#28 = CARTESIAN_POINT ( 'NONE',  ( -7.499999999999999100, 5.000000000000000900, 500.0000000000000000 ) ) ;
#29 = CARTESIAN_POINT ( 'NONE',  ( 7.500000000000000900, -4.999999999999999100, 500.0000000000000000 ) ) ;
#30 = CARTESIAN_POINT ( 'NONE',  ( -7.499999999999997300, -4.999999999999999100, 500.0000000000000000 ) ) ;
#31 = CARTESIAN_POINT ( 'NONE',  ( 7.500000000000000000, 5.000000000000000900, 500.0000000000000000 ) ) ;
#32 = CARTESIAN_POINT ( 'NONE',  ( 7.500000000000000900, -4.999999999999999100, -500.0000000000000000 ) ) ;
#33 = LINE ( 'NONE', #34, #169 ) ;
#34 = CARTESIAN_POINT ( 'NONE',  ( -7.499999999999999100, 5.000000000000000900, 500.0000000000000000 ) ) ;
#35 = DIRECTION ( 'NONE',  ( -0.0000000000000000000, -0.0000000000000000000, -1.000000000000000000 ) ) ;
#36 = PLANE ( 'NONE',  #174 ) ;
#37 = LINE ( 'NONE', #38, #196 ) ;
#38 = CARTESIAN_POINT ( 'NONE',  ( -7.499999999999999100, 5.000000000000000900, -500.0000000000000000 ) ) ;
#39 = DIRECTION ( 'NONE',  ( 1.734723475976807100E-016, -1.000000000000000000, 0.0000000000000000000 ) ) ;
#40 = LINE ( 'NONE', #41, #176 ) ;
#41 = CARTESIAN_POINT ( 'NONE',  ( -7.499999999999999100, 5.000000000000000900, 500.0000000000000000 ) ) ;
#42 = DIRECTION ( 'NONE',  ( 1.734723475976807100E-016, -1.000000000000000000, 0.0000000000000000000 ) ) ;
#43 = CARTESIAN_POINT ( 'NONE',  ( 0.0000000000000000000, 0.0000000000000000000, 500.0000000000000000 ) ) ;
#44 = DIRECTION ( 'NONE',  ( -0.0000000000000000000, 0.0000000000000000000, 1.000000000000000000 ) ) ;
#45 = DIRECTION ( 'NONE',  ( 1.000000000000000000, 0.0000000000000000000, 0.0000000000000000000 ) ) ;
#46 = PLANE ( 'NONE',  #190 ) ;
#47 = CARTESIAN_POINT ( 'NONE',  ( -7.499999999999999100, 5.000000000000000900, 500.0000000000000000 ) ) ;
#48 = DIRECTION ( 'NONE',  ( 0.0000000000000000000, -1.000000000000000000, 0.0000000000000000000 ) ) ;
#49 = DIRECTION ( 'NONE',  ( 0.0000000000000000000, -0.0000000000000000000, -1.000000000000000000 ) ) ;
#50 = LINE ( 'NONE', #51, #154 ) ;
#51 = CARTESIAN_POINT ( 'NONE',  ( 7.500000000000000000, 5.000000000000000900, -500.0000000000000000 ) ) ;
#52 = DIRECTION ( 'NONE',  ( -8.673617379884035500E-017, 1.000000000000000000, -0.0000000000000000000 ) ) ;
#53 = PLANE ( 'NONE',  #175 ) ;
#54 = LINE ( 'NONE', #62, #179 ) ;
#55 = CARTESIAN_POINT ( 'NONE',  ( -7.499999999999997300, -4.999999999999999100, 500.0000000000000000 ) ) ;
#56 = CARTESIAN_POINT ( 'NONE',  ( -7.499999999999999100, 5.000000000000000900, -500.0000000000000000 ) ) ;
#57 = DIRECTION ( 'NONE',  ( -1.000000000000000000, -0.0000000000000000000, -0.0000000000000000000 ) ) ;
#58 = DIRECTION ( 'NONE',  ( -0.0000000000000000000, -0.0000000000000000000, -1.000000000000000000 ) ) ;
#59 = LINE ( 'NONE', #56, #171 ) ;
#60 = DIRECTION ( 'NONE',  ( -1.000000000000000000, -0.0000000000000000000, -0.0000000000000000000 ) ) ;
#61 = LINE ( 'NONE', #55, #188 ) ;
#62 = CARTESIAN_POINT ( 'NONE',  ( -7.499999999999999100, 5.000000000000000900, 500.0000000000000000 ) ) ;
#63 = CARTESIAN_POINT ( 'NONE',  ( -7.499999999999997300, -4.999999999999999100, -500.0000000000000000 ) ) ;
#64 = DIRECTION ( 'NONE',  ( 0.0000000000000000000, 1.000000000000000000, 0.0000000000000000000 ) ) ;
#65 = LINE ( 'NONE', #63, #197 ) ;
#66 = DIRECTION ( 'NONE',  ( 1.000000000000000000, 0.0000000000000000000, 0.0000000000000000000 ) ) ;
#67 = LINE ( 'NONE', #69, #186 ) ;
#68 = DIRECTION ( 'NONE',  ( 0.0000000000000000000, -0.0000000000000000000, 1.000000000000000000 ) ) ;
#69 = CARTESIAN_POINT ( 'NONE',  ( 7.500000000000000000, 5.000000000000000900, 500.0000000000000000 ) ) ;
#70 = CARTESIAN_POINT ( 'NONE',  ( -7.499999999999997300, -4.999999999999999100, 500.0000000000000000 ) ) ;
#71 = DIRECTION ( 'NONE',  ( -8.673617379884035500E-017, 1.000000000000000000, -0.0000000000000000000 ) ) ;
#72 = VERTEX_POINT ( 'NONE', #25 ) ;
#73 = VERTEX_POINT ( 'NONE', #26 ) ;
#74 = VERTEX_POINT ( 'NONE', #27 ) ;
#75 = VERTEX_POINT ( 'NONE', #28 ) ;
#76 = VERTEX_POINT ( 'NONE', #29 ) ;
#77 = VERTEX_POINT ( 'NONE', #30 ) ;
#78 = VERTEX_POINT ( 'NONE', #31 ) ;
#79 = VERTEX_POINT ( 'NONE', #32 ) ;
#80 = EDGE_LOOP ( 'NONE', ( #1, #5, #6, #4 ) ) ;
#81 = EDGE_LOOP ( 'NONE', ( #3, #20, #16, #11 ) ) ;
#82 = EDGE_LOOP ( 'NONE', ( #7, #22, #8, #9 ) ) ;
#83 = EDGE_LOOP ( 'NONE', ( #23, #21, #13, #19 ) ) ;
#84 = EDGE_LOOP ( 'NONE', ( #17, #10, #2, #18 ) ) ;
#85 = EDGE_LOOP ( 'NONE', ( #24, #15, #14, #12 ) ) ;
#86 = CARTESIAN_POINT ( 'NONE',  ( 0.0000000000000000000, 0.0000000000000000000, -500.0000000000000000 ) ) ;
#87 = PLANE ( 'NONE',  #163 ) ;
#88 = DIRECTION ( 'NONE',  ( -0.0000000000000000000, 0.0000000000000000000, 1.000000000000000000 ) ) ;
#89 = DIRECTION ( 'NONE',  ( 1.000000000000000000, 0.0000000000000000000, 0.0000000000000000000 ) ) ;
#90 = LINE ( 'NONE', #91, #168 ) ;
#91 = CARTESIAN_POINT ( 'NONE',  ( -7.499999999999997300, -4.999999999999999100, 500.0000000000000000 ) ) ;
#92 = DIRECTION ( 'NONE',  ( 1.000000000000000000, 0.0000000000000000000, 0.0000000000000000000 ) ) ;
#93 = PLANE ( 'NONE',  #193 ) ;
#94 = LINE ( 'NONE', #95, #162 ) ;
#95 = CARTESIAN_POINT ( 'NONE',  ( 7.500000000000000000, 5.000000000000000900, 500.0000000000000000 ) ) ;
#96 = DIRECTION ( 'NONE',  ( -0.0000000000000000000, -0.0000000000000000000, -1.000000000000000000 ) ) ;
#97 = CARTESIAN_POINT ( 'NONE',  ( -7.499999999999999100, 5.000000000000000900, 500.0000000000000000 ) ) ;
#98 = DIRECTION ( 'NONE',  ( 1.000000000000000000, 1.734723475976807100E-016, -0.0000000000000000000 ) ) ;
#99 = DIRECTION ( 'NONE',  ( -1.734723475976807100E-016, 1.000000000000000000, 0.0000000000000000000 ) ) ;
#100 = PLANE ( 'NONE',  #164 ) ;
#101 = CARTESIAN_POINT ( 'NONE',  ( 7.500000000000000000, 5.000000000000000900, 500.0000000000000000 ) ) ;
#102 = DIRECTION ( 'NONE',  ( -1.000000000000000000, -8.673617379884035500E-017, 0.0000000000000000000 ) ) ;
#103 = DIRECTION ( 'NONE',  ( 8.673617379884035500E-017, -1.000000000000000000, 0.0000000000000000000 ) ) ;
#104 = LINE ( 'NONE', #105, #195 ) ;
#105 = CARTESIAN_POINT ( 'NONE',  ( 7.500000000000000900, -4.999999999999999100, 500.0000000000000000 ) ) ;
#106 = DIRECTION ( 'NONE',  ( -0.0000000000000000000, -0.0000000000000000000, -1.000000000000000000 ) ) ;
#107 =( LENGTH_UNIT ( ) NAMED_UNIT ( * ) SI_UNIT ( .MILLI., .METRE. ) );
#108 =( NAMED_UNIT ( * ) PLANE_ANGLE_UNIT ( ) SI_UNIT ( $, .RADIAN. ) );
#109 =( NAMED_UNIT ( * ) SI_UNIT ( $, .STERADIAN. ) SOLID_ANGLE_UNIT ( ) );
#110 = APPLICATION_PROTOCOL_DEFINITION ( 'international standard', 'config_control_design', 1994, #148 ) ;
#111 = CARTESIAN_POINT ( 'NONE',  ( 0.0000000000000000000, 0.0000000000000000000, 0.0000000000000000000 ) ) ;
#112 = DIRECTION ( 'NONE',  ( 0.0000000000000000000, 0.0000000000000000000, 1.000000000000000000 ) ) ;
#113 = DIRECTION ( 'NONE',  ( 1.000000000000000000, 0.0000000000000000000, 0.0000000000000000000 ) ) ;
#114 = SHAPE_DEFINITION_REPRESENTATION ( #151, #200 ) ;
#115 = MECHANICAL_CONTEXT ( 'NONE', #148, 'mechanical' ) ;
#116 = PERSON_AND_ORGANIZATION ( #198, #173 ) ;
#117 = PERSON_AND_ORGANIZATION_ROLE ( 'design_owner' ) ;
#118 = APPLICATION_PROTOCOL_DEFINITION ( 'international standard', 'config_control_design', 1994, #147 ) ;
#119 = PERSON_AND_ORGANIZATION ( #198, #173 ) ;
#120 = APPROVAL_STATUS ( 'not_yet_approved' ) ;
#121 = APPROVAL_ROLE ( '' ) ;
#122 = DATE_AND_TIME ( #194, #214 ) ;
#123 = APPROVAL_DATE_TIME ( #122, #233 ) ;
#124 = PERSON_AND_ORGANIZATION ( #198, #173 ) ;
#125 = PERSON_AND_ORGANIZATION_ROLE ( 'creator' ) ;
#126 = DATE_AND_TIME ( #166, #231 ) ;
#127 = DATE_TIME_ROLE ( 'creation_date' ) ;
#128 = PERSON_AND_ORGANIZATION ( #198, #173 ) ;
#129 = APPROVAL_STATUS ( 'not_yet_approved' ) ;
#130 = APPROVAL_ROLE ( '' ) ;
#131 = DATE_AND_TIME ( #184, #215 ) ;
#132 = APPROVAL_DATE_TIME ( #131, #227 ) ;
#133 = PERSON_AND_ORGANIZATION ( #198, #173 ) ;
#134 = PERSON_AND_ORGANIZATION_ROLE ( 'creator' ) ;
#135 = PERSON_AND_ORGANIZATION ( #198, #173 ) ;
#136 = PERSON_AND_ORGANIZATION_ROLE ( 'design_supplier' ) ;
#137 = SECURITY_CLASSIFICATION_LEVEL ( 'unclassified' ) ;
#138 = PERSON_AND_ORGANIZATION ( #198, #173 ) ;
#139 = PERSON_AND_ORGANIZATION_ROLE ( 'classification_officer' ) ;
#140 = DATE_AND_TIME ( #155, #219 ) ;
#141 = DATE_TIME_ROLE ( 'classification_date' ) ;
#142 = PERSON_AND_ORGANIZATION ( #198, #173 ) ;
#143 = APPROVAL_STATUS ( 'not_yet_approved' ) ;
#144 = APPROVAL_ROLE ( '' ) ;
#145 = DATE_AND_TIME ( #158, #229 ) ;
#146 = APPROVAL_DATE_TIME ( #145, #209 ) ;
#147 = APPLICATION_CONTEXT ( 'configuration controlled 3d designs of mechanical parts and assemblies' ) ;
#148 = APPLICATION_CONTEXT ( 'configuration controlled 3d designs of mechanical parts and assemblies' ) ;
#149 = MANIFOLD_SOLID_BREP ( 'ÎÞ½ - µoµ1', #159 ) ;
#150 = DESIGN_CONTEXT ( 'detailed design', #147, 'design' ) ;
#151 = PRODUCT_DEFINITION_SHAPE ( 'NONE', 'NONE',  #217 ) ;
#152 = FACE_OUTER_BOUND ( 'NONE', #82, .T. ) ;
#153 = CC_DESIGN_APPROVAL ( #209, ( #170 ) ) ;
#154 = VECTOR ( 'NONE', #52, 1000.000000000000000 ) ;
#155 = CALENDAR_DATE ( 2015, 11, 8 ) ;
#156 = COORDINATED_UNIVERSAL_TIME_OFFSET ( 9, 0, .AHEAD. ) ;
#157 = COORDINATED_UNIVERSAL_TIME_OFFSET ( 9, 0, .AHEAD. ) ;
#158 = CALENDAR_DATE ( 2015, 11, 8 ) ;
#159 = CLOSED_SHELL ( 'NONE', ( #234, #223, #235, #211, #210, #224 ) ) ;
#160 = APPROVAL_PERSON_ORGANIZATION ( #128, #227, #130 ) ;
#161 = FACE_OUTER_BOUND ( 'NONE', #81, .T. ) ;
#162 = VECTOR ( 'NONE', #96, 1000.000000000000000 ) ;
#163 = AXIS2_PLACEMENT_3D ( 'NONE', #86, #88, #89 ) ;
#164 = AXIS2_PLACEMENT_3D ( 'NONE', #101, #102, #103 ) ;
#165 = CC_DESIGN_APPROVAL ( #227, ( #189 ) ) ;
#166 = CALENDAR_DATE ( 2015, 11, 8 ) ;
#167 = APPROVAL_PERSON_ORGANIZATION ( #142, #209, #144 ) ;
#168 = VECTOR ( 'NONE', #92, 1000.000000000000000 ) ;
#169 = VECTOR ( 'NONE', #35, 1000.000000000000000 ) ;
#170 = SECURITY_CLASSIFICATION ( '', '', #137 ) ;
#171 = VECTOR ( 'NONE', #57, 1000.000000000000000 ) ;
#172 = CC_DESIGN_APPROVAL ( #233, ( #217 ) ) ;
#173 = ORGANIZATION ( 'UNSPECIFIED', 'UNSPECIFIED', '' ) ;
#174 = AXIS2_PLACEMENT_3D ( 'NONE', #43, #44, #45 ) ;
#175 = AXIS2_PLACEMENT_3D ( 'NONE', #70, #64, #68 ) ;
#176 = VECTOR ( 'NONE', #42, 1000.000000000000000 ) ;
#177 = AXIS2_PLACEMENT_3D ( 'NONE', #111, #112, #113 ) ;
#178 = FACE_OUTER_BOUND ( 'NONE', #85, .T. ) ;
#179 = VECTOR ( 'NONE', #60, 1000.000000000000000 ) ;
#180 = FACE_OUTER_BOUND ( 'NONE', #84, .T. ) ;
#181 = FACE_OUTER_BOUND ( 'NONE', #80, .T. ) ;
#182 = COORDINATED_UNIVERSAL_TIME_OFFSET ( 9, 0, .AHEAD. ) ;
#183 = COORDINATED_UNIVERSAL_TIME_OFFSET ( 9, 0, .AHEAD. ) ;
#184 = CALENDAR_DATE ( 2015, 11, 8 ) ;
#185 = CC_DESIGN_SECURITY_CLASSIFICATION ( #170, ( #189 ) ) ;
#186 = VECTOR ( 'NONE', #71, 1000.000000000000000 ) ;
#187 = COORDINATED_UNIVERSAL_TIME_OFFSET ( 9, 0, .AHEAD. ) ;
#188 = VECTOR ( 'NONE', #58, 1000.000000000000000 ) ;
#189 = PRODUCT_DEFINITION_FORMATION_WITH_SPECIFIED_SOURCE ( 'ANY', '', #201, .NOT_KNOWN. ) ;
#190 = AXIS2_PLACEMENT_3D ( 'NONE', #47, #48, #49 ) ;
#191 = APPROVAL_PERSON_ORGANIZATION ( #119, #233, #121 ) ;
#192 = FACE_OUTER_BOUND ( 'NONE', #83, .T. ) ;
#193 = AXIS2_PLACEMENT_3D ( 'NONE', #97, #98, #99 ) ;
#194 = CALENDAR_DATE ( 2015, 11, 8 ) ;
#195 = VECTOR ( 'NONE', #106, 1000.000000000000000 ) ;
#196 = VECTOR ( 'NONE', #39, 1000.000000000000000 ) ;
#197 = VECTOR ( 'NONE', #66, 1000.000000000000000 ) ;
#198 = PERSON ( 'UNSPECIFIED', 'UNSPECIFIED', 'UNSPECIFIED', ('UNSPECIFIED'), ('UNSPECIFIED'), ('UNSPECIFIED') ) ;
#199 = UNCERTAINTY_MEASURE_WITH_UNIT (LENGTH_MEASURE( 1.000000000000000100E-005 ), #107, 'distance_accuracy_value', 'NONE');
#200 = ADVANCED_BREP_SHAPE_REPRESENTATION ( 'sone3D', ( #149, #177 ), #237 ) ;
#201 = PRODUCT ( 'sone3D', 'sone3D', '', ( #115 ) ) ;
#202 = CC_DESIGN_PERSON_AND_ORGANIZATION_ASSIGNMENT ( #116, #117, ( #201 ) ) ;
#203 = CC_DESIGN_PERSON_AND_ORGANIZATION_ASSIGNMENT ( #133, #134, ( #189 ) ) ;
#204 = CC_DESIGN_PERSON_AND_ORGANIZATION_ASSIGNMENT ( #135, #136, ( #189 ) ) ;
#205 = EDGE_CURVE ( 'NONE', #75, #74, #33, .T. ) ;
#206 = EDGE_CURVE ( 'NONE', #74, #72, #37, .T. ) ;
#207 = EDGE_CURVE ( 'NONE', #75, #77, #40, .T. ) ;
#208 = PRODUCT_RELATED_PRODUCT_CATEGORY ( 'detail', '', ( #201 ) ) ;
#209 = APPROVAL ( #143, 'UNSPECIFIED' ) ;
#210 = ADVANCED_FACE ( 'NONE', ( #180 ), #36, .T. ) ;
#211 = ADVANCED_FACE ( 'NONE', ( #192 ), #46, .F. ) ;
#212 = EDGE_CURVE ( 'NONE', #79, #73, #50, .T. ) ;
#213 = EDGE_CURVE ( 'NONE', #78, #75, #54, .T. ) ;
#214 = LOCAL_TIME ( 19, 21, 32.00000000000000000, #157 ) ;
#215 = LOCAL_TIME ( 19, 21, 32.00000000000000000, #187 ) ;
#216 = EDGE_CURVE ( 'NONE', #77, #72, #61, .T. ) ;
#217 = PRODUCT_DEFINITION ( 'UNKNOWN', '', #189, #150 ) ;
#218 = EDGE_CURVE ( 'NONE', #73, #74, #59, .T. ) ;
#219 = LOCAL_TIME ( 19, 21, 32.00000000000000000, #156 ) ;
#220 = CC_DESIGN_PERSON_AND_ORGANIZATION_ASSIGNMENT ( #138, #139, ( #170 ) ) ;
#221 = EDGE_CURVE ( 'NONE', #72, #79, #65, .T. ) ;
#222 = EDGE_CURVE ( 'NONE', #76, #78, #67, .T. ) ;
#223 = ADVANCED_FACE ( 'NONE', ( #181 ), #53, .F. ) ;
#224 = ADVANCED_FACE ( 'NONE', ( #178 ), #87, .F. ) ;
#225 = EDGE_CURVE ( 'NONE', #77, #76, #90, .T. ) ;
#226 = CC_DESIGN_DATE_AND_TIME_ASSIGNMENT ( #126, #127, ( #217 ) ) ;
#227 = APPROVAL ( #129, 'UNSPECIFIED' ) ;
#228 = EDGE_CURVE ( 'NONE', #78, #73, #94, .T. ) ;
#229 = LOCAL_TIME ( 19, 21, 32.00000000000000000, #182 ) ;
#230 = CC_DESIGN_DATE_AND_TIME_ASSIGNMENT ( #140, #141, ( #170 ) ) ;
#231 = LOCAL_TIME ( 19, 21, 32.00000000000000000, #183 ) ;
#232 = CC_DESIGN_PERSON_AND_ORGANIZATION_ASSIGNMENT ( #124, #125, ( #217 ) ) ;
#233 = APPROVAL ( #120, 'UNSPECIFIED' ) ;
#234 = ADVANCED_FACE ( 'NONE', ( #152 ), #93, .F. ) ;
#235 = ADVANCED_FACE ( 'NONE', ( #161 ), #100, .F. ) ;
#236 = EDGE_CURVE ( 'NONE', #76, #79, #104, .T. ) ;
#237 =( GEOMETRIC_REPRESENTATION_CONTEXT ( 3 ) GLOBAL_UNCERTAINTY_ASSIGNED_CONTEXT ( ( #199 ) ) GLOBAL_UNIT_ASSIGNED_CONTEXT ( ( #107, #108, #109 ) ) REPRESENTATION_CONTEXT ( 'NONE', 'WORKASPACE' ) );
ENDSEC;
END-ISO-10303-21;
