ISO-10303-21;
HEADER;
FILE_DESCRIPTION (( 'STEP AP203' ),
    '1' );
FILE_NAME ('sone3D.STEP',
    '2015-08-11T10:21:16',
    ( '' ),
    ( '' ),
    'SwSTEP 2.0',
    'SolidWorks 2012',
    '' );
FILE_SCHEMA (( 'CONFIG_CONTROL_DESIGN' ));
ENDSEC;

DATA;
#1 = DESIGN_CONTEXT ( 'detailed design', #197, 'design' ) ;
#2 = MANIFOLD_SOLID_BREP ( 'ÎÞ½ - µoµ1', #36 ) ;
#3 = PRODUCT_DEFINITION_SHAPE ( 'NONE', 'NONE',  #222 ) ;
#4 = AXIS2_PLACEMENT_3D ( 'NONE', #141, #142, #143 ) ;
#5 = AXIS2_PLACEMENT_3D ( 'NONE', #137, #138, #139 ) ;
#6 = CALENDAR_DATE ( 2015, 11, 8 ) ;
#7 = CALENDAR_DATE ( 2015, 11, 8 ) ;
#8 = VECTOR ( 'NONE', #121, 1000.000000000000000 ) ;
#9 = COORDINATED_UNIVERSAL_TIME_OFFSET ( 9, 0, .AHEAD. ) ;
#10 = CC_DESIGN_SECURITY_CLASSIFICATION ( #30, ( #18 ) ) ;
#11 = ORGANIZATION ( 'UNSPECIFIED', 'UNSPECIFIED', '' ) ;
#12 = VECTOR ( 'NONE', #98, 1000.000000000000000 ) ;
#13 = VECTOR ( 'NONE', #117, 1000.000000000000000 ) ;
#14 = VECTOR ( 'NONE', #136, 1000.000000000000000 ) ;
#15 = FACE_OUTER_BOUND ( 'NONE', #50, .T. ) ;
#16 = CC_DESIGN_APPROVAL ( #227, ( #222 ) ) ;
#17 = APPROVAL_PERSON_ORGANIZATION ( #168, #227, #170 ) ;
#18 = PRODUCT_DEFINITION_FORMATION_WITH_SPECIFIED_SOURCE ( 'ANY', '', #201, .NOT_KNOWN. ) ;
#19 = COORDINATED_UNIVERSAL_TIME_OFFSET ( 9, 0, .AHEAD. ) ;
#20 = FACE_OUTER_BOUND ( 'NONE', #52, .T. ) ;
#21 = VECTOR ( 'NONE', #149, 1000.000000000000000 ) ;
#22 = CALENDAR_DATE ( 2015, 11, 8 ) ;
#23 = CC_DESIGN_APPROVAL ( #216, ( #30 ) ) ;
#24 = COORDINATED_UNIVERSAL_TIME_OFFSET ( 9, 0, .AHEAD. ) ;
#25 = COORDINATED_UNIVERSAL_TIME_OFFSET ( 9, 0, .AHEAD. ) ;
#26 = CALENDAR_DATE ( 2015, 11, 8 ) ;
#27 = AXIS2_PLACEMENT_3D ( 'NONE', #128, #127, #129 ) ;
#28 = VECTOR ( 'NONE', #114, 1000.000000000000000 ) ;
#29 = AXIS2_PLACEMENT_3D ( 'NONE', #108, #130, #134 ) ;
#30 = SECURITY_CLASSIFICATION ( '', '', #186 ) ;
#31 = AXIS2_PLACEMENT_3D ( 'NONE', #160, #161, #162 ) ;
#32 = VECTOR ( 'NONE', #155, 1000.000000000000000 ) ;
#33 = APPROVAL_PERSON_ORGANIZATION ( #191, #216, #193 ) ;
#34 = APPROVAL_PERSON_ORGANIZATION ( #177, #234, #179 ) ;
#35 = VECTOR ( 'NONE', #113, 1000.000000000000000 ) ;
#36 = CLOSED_SHELL ( 'NONE', ( #224, #226, #228, #203, #204, #213 ) ) ;
#37 = FACE_OUTER_BOUND ( 'NONE', #51, .T. ) ;
#38 = FACE_OUTER_BOUND ( 'NONE', #55, .T. ) ;
#39 = CC_DESIGN_APPROVAL ( #234, ( #18 ) ) ;
#40 = VECTOR ( 'NONE', #146, 1000.000000000000000 ) ;
#41 = VECTOR ( 'NONE', #110, 1000.000000000000000 ) ;
#42 = FACE_OUTER_BOUND ( 'NONE', #53, .T. ) ;
#43 = AXIS2_PLACEMENT_3D ( 'NONE', #100, #101, #102 ) ;
#44 = COORDINATED_UNIVERSAL_TIME_OFFSET ( 9, 0, .AHEAD. ) ;
#45 = FACE_OUTER_BOUND ( 'NONE', #54, .T. ) ;
#46 = AXIS2_PLACEMENT_3D ( 'NONE', #104, #105, #106 ) ;
#47 = VECTOR ( 'NONE', #152, 1000.000000000000000 ) ;
#48 = CALENDAR_DATE ( 2015, 11, 8 ) ;
#49 = VECTOR ( 'NONE', #125, 1000.000000000000000 ) ;
#50 = EDGE_LOOP ( 'NONE', ( #73, #76, #77, #75 ) ) ;
#51 = EDGE_LOOP ( 'NONE', ( #74, #70, #69, #68 ) ) ;
#52 = EDGE_LOOP ( 'NONE', ( #80, #79, #72, #86 ) ) ;
#53 = EDGE_LOOP ( 'NONE', ( #67, #65, #66, #71 ) ) ;
#54 = EDGE_LOOP ( 'NONE', ( #78, #87, #84, #64 ) ) ;
#55 = EDGE_LOOP ( 'NONE', ( #81, #82, #85, #83 ) ) ;
#56 = VERTEX_POINT ( 'NONE', #88 ) ;
#57 = VERTEX_POINT ( 'NONE', #89 ) ;
#58 = VERTEX_POINT ( 'NONE', #90 ) ;
#59 = VERTEX_POINT ( 'NONE', #91 ) ;
#60 = VERTEX_POINT ( 'NONE', #92 ) ;
#61 = VERTEX_POINT ( 'NONE', #93 ) ;
#62 = VERTEX_POINT ( 'NONE', #94 ) ;
#63 = VERTEX_POINT ( 'NONE', #95 ) ;
#64 = ORIENTED_EDGE ( 'NONE', *, *, #209, .T. ) ;
#65 = ORIENTED_EDGE ( 'NONE', *, *, #233, .F. ) ;
#66 = ORIENTED_EDGE ( 'NONE', *, *, #209, .F. ) ;
#67 = ORIENTED_EDGE ( 'NONE', *, *, #202, .T. ) ;
#68 = ORIENTED_EDGE ( 'NONE', *, *, #211, .T. ) ;
#69 = ORIENTED_EDGE ( 'NONE', *, *, #231, .F. ) ;
#70 = ORIENTED_EDGE ( 'NONE', *, *, #207, .F. ) ;
#71 = ORIENTED_EDGE ( 'NONE', *, *, #207, .T. ) ;
#72 = ORIENTED_EDGE ( 'NONE', *, *, #212, .F. ) ;
#73 = ORIENTED_EDGE ( 'NONE', *, *, #229, .T. ) ;
#74 = ORIENTED_EDGE ( 'NONE', *, *, #236, .T. ) ;
#75 = ORIENTED_EDGE ( 'NONE', *, *, #208, .T. ) ;
#76 = ORIENTED_EDGE ( 'NONE', *, *, #211, .F. ) ;
#77 = ORIENTED_EDGE ( 'NONE', *, *, #210, .F. ) ;
#78 = ORIENTED_EDGE ( 'NONE', *, *, #212, .T. ) ;
#79 = ORIENTED_EDGE ( 'NONE', *, *, #208, .F. ) ;
#80 = ORIENTED_EDGE ( 'NONE', *, *, #225, .T. ) ;
#81 = ORIENTED_EDGE ( 'NONE', *, *, #225, .F. ) ;
#82 = ORIENTED_EDGE ( 'NONE', *, *, #202, .F. ) ;
#83 = ORIENTED_EDGE ( 'NONE', *, *, #229, .F. ) ;
#84 = ORIENTED_EDGE ( 'NONE', *, *, #231, .T. ) ;
#85 = ORIENTED_EDGE ( 'NONE', *, *, #236, .F. ) ;
#86 = ORIENTED_EDGE ( 'NONE', *, *, #233, .T. ) ;
#87 = ORIENTED_EDGE ( 'NONE', *, *, #210, .T. ) ;
#88 = CARTESIAN_POINT ( 'NONE',  ( -5.000000000000000000, 4.999999999999999100, -500.0000000000000000 ) ) ;
#89 = CARTESIAN_POINT ( 'NONE',  ( -4.999999999999999100, -5.000000000000000900, 500.0000000000000000 ) ) ;
#90 = CARTESIAN_POINT ( 'NONE',  ( 5.000000000000000000, 4.999999999999999100, 500.0000000000000000 ) ) ;
#91 = CARTESIAN_POINT ( 'NONE',  ( -5.000000000000000000, 4.999999999999999100, 500.0000000000000000 ) ) ;
#92 = CARTESIAN_POINT ( 'NONE',  ( 5.000000000000000900, -5.000000000000000900, 500.0000000000000000 ) ) ;
#93 = CARTESIAN_POINT ( 'NONE',  ( 5.000000000000000000, 4.999999999999999100, -500.0000000000000000 ) ) ;
#94 = CARTESIAN_POINT ( 'NONE',  ( 5.000000000000000900, -5.000000000000000900, -500.0000000000000000 ) ) ;
#95 = CARTESIAN_POINT ( 'NONE',  ( -4.999999999999999100, -5.000000000000000900, -500.0000000000000000 ) ) ;
#96 = LINE ( 'NONE', #97, #12 ) ;
#97 = CARTESIAN_POINT ( 'NONE',  ( -5.000000000000000000, 4.999999999999999100, -500.0000000000000000 ) ) ;
#98 = DIRECTION ( 'NONE',  ( -1.000000000000000000, -0.0000000000000000000, -0.0000000000000000000 ) ) ;
#99 = PLANE ( 'NONE',  #43 ) ;
#100 = CARTESIAN_POINT ( 'NONE',  ( -5.000000000000000000, 4.999999999999999100, 500.0000000000000000 ) ) ;
#101 = DIRECTION ( 'NONE',  ( 0.0000000000000000000, -1.000000000000000000, 0.0000000000000000000 ) ) ;
#102 = DIRECTION ( 'NONE',  ( 0.0000000000000000000, -0.0000000000000000000, -1.000000000000000000 ) ) ;
#103 = PLANE ( 'NONE',  #46 ) ;
#104 = CARTESIAN_POINT ( 'NONE',  ( 0.0000000000000000000, 0.0000000000000000000, 500.0000000000000000 ) ) ;
#105 = DIRECTION ( 'NONE',  ( -0.0000000000000000000, 0.0000000000000000000, 1.000000000000000000 ) ) ;
#106 = DIRECTION ( 'NONE',  ( 1.000000000000000000, 0.0000000000000000000, 0.0000000000000000000 ) ) ;
#107 = LINE ( 'NONE', #115, #13 ) ;
#108 = CARTESIAN_POINT ( 'NONE',  ( -5.000000000000000000, 4.999999999999999100, 500.0000000000000000 ) ) ;
#109 = CARTESIAN_POINT ( 'NONE',  ( 5.000000000000000900, -5.000000000000000900, 500.0000000000000000 ) ) ;
#110 = DIRECTION ( 'NONE',  ( -0.0000000000000000000, -0.0000000000000000000, -1.000000000000000000 ) ) ;
#111 = LINE ( 'NONE', #123, #28 ) ;
#112 = LINE ( 'NONE', #120, #35 ) ;
#113 = DIRECTION ( 'NONE',  ( -1.000000000000000000, -0.0000000000000000000, -0.0000000000000000000 ) ) ;
#114 = DIRECTION ( 'NONE',  ( 1.000000000000000000, 0.0000000000000000000, 0.0000000000000000000 ) ) ;
#115 = CARTESIAN_POINT ( 'NONE',  ( 5.000000000000000000, 4.999999999999999100, 500.0000000000000000 ) ) ;
#116 = LINE ( 'NONE', #109, #41 ) ;
#117 = DIRECTION ( 'NONE',  ( -0.0000000000000000000, -0.0000000000000000000, -1.000000000000000000 ) ) ;
#118 = PLANE ( 'NONE',  #27 ) ;
#119 = LINE ( 'NONE', #122, #8 ) ;
#120 = CARTESIAN_POINT ( 'NONE',  ( -5.000000000000000000, 4.999999999999999100, 500.0000000000000000 ) ) ;
#121 = DIRECTION ( 'NONE',  ( -0.0000000000000000000, -0.0000000000000000000, -1.000000000000000000 ) ) ;
#122 = CARTESIAN_POINT ( 'NONE',  ( -4.999999999999999100, -5.000000000000000900, 500.0000000000000000 ) ) ;
#123 = CARTESIAN_POINT ( 'NONE',  ( -4.999999999999999100, -5.000000000000000900, 500.0000000000000000 ) ) ;
#124 = PLANE ( 'NONE',  #29 ) ;
#125 = DIRECTION ( 'NONE',  ( 8.673617379884035500E-017, -1.000000000000000000, 0.0000000000000000000 ) ) ;
#126 = CARTESIAN_POINT ( 'NONE',  ( -5.000000000000000000, 4.999999999999999100, 500.0000000000000000 ) ) ;
#127 = DIRECTION ( 'NONE',  ( -0.0000000000000000000, 0.0000000000000000000, 1.000000000000000000 ) ) ;
#128 = CARTESIAN_POINT ( 'NONE',  ( 0.0000000000000000000, 0.0000000000000000000, -500.0000000000000000 ) ) ;
#129 = DIRECTION ( 'NONE',  ( 1.000000000000000000, 0.0000000000000000000, 0.0000000000000000000 ) ) ;
#130 = DIRECTION ( 'NONE',  ( 1.000000000000000000, 8.673617379884035500E-017, -0.0000000000000000000 ) ) ;
#131 = LINE ( 'NONE', #132, #14 ) ;
#132 = CARTESIAN_POINT ( 'NONE',  ( -5.000000000000000000, 4.999999999999999100, -500.0000000000000000 ) ) ;
#133 = LINE ( 'NONE', #126, #49 ) ;
#134 = DIRECTION ( 'NONE',  ( -8.673617379884035500E-017, 1.000000000000000000, 0.0000000000000000000 ) ) ;
#135 = PLANE ( 'NONE',  #5 ) ;
#136 = DIRECTION ( 'NONE',  ( 8.673617379884035500E-017, -1.000000000000000000, 0.0000000000000000000 ) ) ;
#137 = CARTESIAN_POINT ( 'NONE',  ( -4.999999999999999100, -5.000000000000000900, 500.0000000000000000 ) ) ;
#138 = DIRECTION ( 'NONE',  ( 0.0000000000000000000, 1.000000000000000000, 0.0000000000000000000 ) ) ;
#139 = DIRECTION ( 'NONE',  ( 0.0000000000000000000, -0.0000000000000000000, 1.000000000000000000 ) ) ;
#140 = PLANE ( 'NONE',  #4 ) ;
#141 = CARTESIAN_POINT ( 'NONE',  ( 5.000000000000000000, 4.999999999999999100, 500.0000000000000000 ) ) ;
#142 = DIRECTION ( 'NONE',  ( -1.000000000000000000, -8.673617379884035500E-017, 0.0000000000000000000 ) ) ;
#143 = DIRECTION ( 'NONE',  ( 8.673617379884035500E-017, -1.000000000000000000, 0.0000000000000000000 ) ) ;
#144 = LINE ( 'NONE', #145, #40 ) ;
#145 = CARTESIAN_POINT ( 'NONE',  ( -4.999999999999999100, -5.000000000000000900, -500.0000000000000000 ) ) ;
#146 = DIRECTION ( 'NONE',  ( 1.000000000000000000, 0.0000000000000000000, 0.0000000000000000000 ) ) ;
#147 = LINE ( 'NONE', #148, #21 ) ;
#148 = CARTESIAN_POINT ( 'NONE',  ( 5.000000000000000000, 4.999999999999999100, 500.0000000000000000 ) ) ;
#149 = DIRECTION ( 'NONE',  ( -8.673617379884035500E-017, 1.000000000000000000, -0.0000000000000000000 ) ) ;
#150 = LINE ( 'NONE', #151, #47 ) ;
#151 = CARTESIAN_POINT ( 'NONE',  ( -5.000000000000000000, 4.999999999999999100, 500.0000000000000000 ) ) ;
#152 = DIRECTION ( 'NONE',  ( -0.0000000000000000000, -0.0000000000000000000, -1.000000000000000000 ) ) ;
#153 = LINE ( 'NONE', #154, #32 ) ;
#154 = CARTESIAN_POINT ( 'NONE',  ( 5.000000000000000000, 4.999999999999999100, -500.0000000000000000 ) ) ;
#155 = DIRECTION ( 'NONE',  ( -8.673617379884035500E-017, 1.000000000000000000, -0.0000000000000000000 ) ) ;
#156 =( LENGTH_UNIT ( ) NAMED_UNIT ( * ) SI_UNIT ( .MILLI., .METRE. ) );
#157 =( NAMED_UNIT ( * ) PLANE_ANGLE_UNIT ( ) SI_UNIT ( $, .RADIAN. ) );
#158 =( NAMED_UNIT ( * ) SI_UNIT ( $, .STERADIAN. ) SOLID_ANGLE_UNIT ( ) );
#159 = APPLICATION_PROTOCOL_DEFINITION ( 'international standard', 'config_control_design', 1994, #196 ) ;
#160 = CARTESIAN_POINT ( 'NONE',  ( 0.0000000000000000000, 0.0000000000000000000, 0.0000000000000000000 ) ) ;
#161 = DIRECTION ( 'NONE',  ( 0.0000000000000000000, 0.0000000000000000000, 1.000000000000000000 ) ) ;
#162 = DIRECTION ( 'NONE',  ( 1.000000000000000000, 0.0000000000000000000, 0.0000000000000000000 ) ) ;
#163 = SHAPE_DEFINITION_REPRESENTATION ( #3, #199 ) ;
#164 = MECHANICAL_CONTEXT ( 'NONE', #196, 'mechanical' ) ;
#165 = PERSON_AND_ORGANIZATION ( #200, #11 ) ;
#166 = PERSON_AND_ORGANIZATION_ROLE ( 'design_owner' ) ;
#167 = APPLICATION_PROTOCOL_DEFINITION ( 'international standard', 'config_control_design', 1994, #197 ) ;
#168 = PERSON_AND_ORGANIZATION ( #200, #11 ) ;
#169 = APPROVAL_STATUS ( 'not_yet_approved' ) ;
#170 = APPROVAL_ROLE ( '' ) ;
#171 = DATE_AND_TIME ( #22, #206 ) ;
#172 = APPROVAL_DATE_TIME ( #171, #227 ) ;
#173 = PERSON_AND_ORGANIZATION ( #200, #11 ) ;
#174 = PERSON_AND_ORGANIZATION_ROLE ( 'creator' ) ;
#175 = DATE_AND_TIME ( #6, #218 ) ;
#176 = DATE_TIME_ROLE ( 'creation_date' ) ;
#177 = PERSON_AND_ORGANIZATION ( #200, #11 ) ;
#178 = APPROVAL_STATUS ( 'not_yet_approved' ) ;
#179 = APPROVAL_ROLE ( '' ) ;
#180 = DATE_AND_TIME ( #26, #223 ) ;
#181 = APPROVAL_DATE_TIME ( #180, #234 ) ;
#182 = PERSON_AND_ORGANIZATION ( #200, #11 ) ;
#183 = PERSON_AND_ORGANIZATION_ROLE ( 'creator' ) ;
#184 = PERSON_AND_ORGANIZATION ( #200, #11 ) ;
#185 = PERSON_AND_ORGANIZATION_ROLE ( 'design_supplier' ) ;
#186 = SECURITY_CLASSIFICATION_LEVEL ( 'unclassified' ) ;
#187 = PERSON_AND_ORGANIZATION ( #200, #11 ) ;
#188 = PERSON_AND_ORGANIZATION_ROLE ( 'classification_officer' ) ;
#189 = DATE_AND_TIME ( #7, #232 ) ;
#190 = DATE_TIME_ROLE ( 'classification_date' ) ;
#191 = PERSON_AND_ORGANIZATION ( #200, #11 ) ;
#192 = APPROVAL_STATUS ( 'not_yet_approved' ) ;
#193 = APPROVAL_ROLE ( '' ) ;
#194 = DATE_AND_TIME ( #48, #215 ) ;
#195 = APPROVAL_DATE_TIME ( #194, #216 ) ;
#196 = APPLICATION_CONTEXT ( 'configuration controlled 3d designs of mechanical parts and assemblies' ) ;
#197 = APPLICATION_CONTEXT ( 'configuration controlled 3d designs of mechanical parts and assemblies' ) ;
#198 = UNCERTAINTY_MEASURE_WITH_UNIT (LENGTH_MEASURE( 1.000000000000000100E-005 ), #156, 'distance_accuracy_value', 'NONE');
#199 = ADVANCED_BREP_SHAPE_REPRESENTATION ( 'sone3D', ( #2, #31 ), #237 ) ;
#200 = PERSON ( 'UNSPECIFIED', 'UNSPECIFIED', 'UNSPECIFIED', ('UNSPECIFIED'), ('UNSPECIFIED'), ('UNSPECIFIED') ) ;
#201 = PRODUCT ( 'sone3D', 'sone3D', '', ( #164 ) ) ;
#202 = EDGE_CURVE ( 'NONE', #61, #56, #96, .T. ) ;
#203 = ADVANCED_FACE ( 'NONE', ( #42 ), #99, .F. ) ;
#204 = ADVANCED_FACE ( 'NONE', ( #45 ), #103, .T. ) ;
#205 = CC_DESIGN_PERSON_AND_ORGANIZATION_ASSIGNMENT ( #187, #188, ( #30 ) ) ;
#206 = LOCAL_TIME ( 19, 21, 16.00000000000000000, #25 ) ;
#207 = EDGE_CURVE ( 'NONE', #58, #61, #107, .T. ) ;
#208 = EDGE_CURVE ( 'NONE', #57, #63, #119, .T. ) ;
#209 = EDGE_CURVE ( 'NONE', #58, #59, #112, .T. ) ;
#210 = EDGE_CURVE ( 'NONE', #57, #60, #111, .T. ) ;
#211 = EDGE_CURVE ( 'NONE', #60, #62, #116, .T. ) ;
#212 = EDGE_CURVE ( 'NONE', #59, #57, #133, .T. ) ;
#213 = ADVANCED_FACE ( 'NONE', ( #38 ), #118, .F. ) ;
#214 = PRODUCT_RELATED_PRODUCT_CATEGORY ( 'detail', '', ( #201 ) ) ;
#215 = LOCAL_TIME ( 19, 21, 16.00000000000000000, #9 ) ;
#216 = APPROVAL ( #192, 'UNSPECIFIED' ) ;
#217 = CC_DESIGN_DATE_AND_TIME_ASSIGNMENT ( #189, #190, ( #30 ) ) ;
#218 = LOCAL_TIME ( 19, 21, 16.00000000000000000, #19 ) ;
#219 = CC_DESIGN_PERSON_AND_ORGANIZATION_ASSIGNMENT ( #173, #174, ( #222 ) ) ;
#220 = CC_DESIGN_PERSON_AND_ORGANIZATION_ASSIGNMENT ( #182, #183, ( #18 ) ) ;
#221 = CC_DESIGN_PERSON_AND_ORGANIZATION_ASSIGNMENT ( #184, #185, ( #18 ) ) ;
#222 = PRODUCT_DEFINITION ( 'UNKNOWN', '', #18, #1 ) ;
#223 = LOCAL_TIME ( 19, 21, 16.00000000000000000, #44 ) ;
#224 = ADVANCED_FACE ( 'NONE', ( #20 ), #124, .F. ) ;
#225 = EDGE_CURVE ( 'NONE', #56, #63, #131, .T. ) ;
#226 = ADVANCED_FACE ( 'NONE', ( #15 ), #135, .F. ) ;
#227 = APPROVAL ( #169, 'UNSPECIFIED' ) ;
#228 = ADVANCED_FACE ( 'NONE', ( #37 ), #140, .F. ) ;
#229 = EDGE_CURVE ( 'NONE', #63, #62, #144, .T. ) ;
#230 = CC_DESIGN_PERSON_AND_ORGANIZATION_ASSIGNMENT ( #165, #166, ( #201 ) ) ;
#231 = EDGE_CURVE ( 'NONE', #60, #58, #147, .T. ) ;
#232 = LOCAL_TIME ( 19, 21, 16.00000000000000000, #24 ) ;
#233 = EDGE_CURVE ( 'NONE', #59, #56, #150, .T. ) ;
#234 = APPROVAL ( #178, 'UNSPECIFIED' ) ;
#235 = CC_DESIGN_DATE_AND_TIME_ASSIGNMENT ( #175, #176, ( #222 ) ) ;
#236 = EDGE_CURVE ( 'NONE', #62, #61, #153, .T. ) ;
#237 =( GEOMETRIC_REPRESENTATION_CONTEXT ( 3 ) GLOBAL_UNCERTAINTY_ASSIGNED_CONTEXT ( ( #198 ) ) GLOBAL_UNIT_ASSIGNED_CONTEXT ( ( #156, #157, #158 ) ) REPRESENTATION_CONTEXT ( 'NONE', 'WORKASPACE' ) );
ENDSEC;
END-ISO-10303-21;
