ISO-10303-21;
HEADER;
FILE_DESCRIPTION (( 'STEP AP203' ),
    '1' );
FILE_NAME ('sone3D.STEP',
    '2015-08-11T09:40:07',
    ( '' ),
    ( '' ),
    'SwSTEP 2.0',
    'SolidWorks 2012',
    '' );
FILE_SCHEMA (( 'CONFIG_CONTROL_DESIGN' ));
ENDSEC;

DATA;
#1 = DATE_AND_TIME ( #55, #85 ) ;
#2 = PERSON_AND_ORGANIZATION_ROLE ( 'creator' ) ;
#3 = PERSON_AND_ORGANIZATION ( #36, #64 ) ;
#4 = APPROVAL_DATE_TIME ( #7, #93 ) ;
#5 = APPROVAL_ROLE ( '' ) ;
#6 = PERSON_AND_ORGANIZATION ( #36, #64 ) ;
#7 = DATE_AND_TIME ( #58, #88 ) ;
#8 = DATE_TIME_ROLE ( 'creation_date' ) ;
#9 = PERSON_AND_ORGANIZATION ( #36, #64 ) ;
#10 = APPROVAL_STATUS ( 'not_yet_approved' ) ;
#11 = APPROVAL_ROLE ( '' ) ;
#12 = DATE_AND_TIME ( #69, #89 ) ;
#13 = APPROVAL_DATE_TIME ( #12, #94 ) ;
#14 = PERSON_AND_ORGANIZATION ( #36, #64 ) ;
#15 = PERSON_AND_ORGANIZATION_ROLE ( 'creator' ) ;
#16 = PERSON_AND_ORGANIZATION ( #36, #64 ) ;
#17 = PERSON_AND_ORGANIZATION_ROLE ( 'design_supplier' ) ;
#18 = SECURITY_CLASSIFICATION_LEVEL ( 'unclassified' ) ;
#19 = PERSON_AND_ORGANIZATION ( #36, #64 ) ;
#20 = APPLICATION_PROTOCOL_DEFINITION ( 'international standard', 'config_control_design', 1994, #108 ) ;
#21 = APPROVAL_STATUS ( 'not_yet_approved' ) ;
#22 = PERSON_AND_ORGANIZATION ( #36, #64 ) ;
#23 = PERSON_AND_ORGANIZATION_ROLE ( 'design_owner' ) ;
#24 = SHAPE_DEFINITION_REPRESENTATION ( #110, #37 ) ;
#25 = APPLICATION_PROTOCOL_DEFINITION ( 'international standard', 'config_control_design', 1994, #107 ) ;
#26 = MECHANICAL_CONTEXT ( 'NONE', #107, 'mechanical' ) ;
#27 = DATE_AND_TIME ( #63, #102 ) ;
#28 = APPROVAL_DATE_TIME ( #27, #76 ) ;
#29 = DATE_TIME_ROLE ( 'classification_date' ) ;
#30 = PERSON_AND_ORGANIZATION ( #36, #64 ) ;
#31 = APPROVAL_STATUS ( 'not_yet_approved' ) ;
#32 = APPROVAL_ROLE ( '' ) ;
#33 = PERSON_AND_ORGANIZATION_ROLE ( 'classification_officer' ) ;
#34 = DATE_AND_TIME ( #51, #80 ) ;
#35 = UNCERTAINTY_MEASURE_WITH_UNIT (LENGTH_MEASURE( 1.000000000000000100E-005 ), #147, 'distance_accuracy_value', 'NONE');
#36 = PERSON ( 'UNSPECIFIED', 'UNSPECIFIED', 'UNSPECIFIED', ('UNSPECIFIED'), ('UNSPECIFIED'), ('UNSPECIFIED') ) ;
#37 = ADVANCED_BREP_SHAPE_REPRESENTATION ( 'sone3D', ( #112, #73 ), #109 ) ;
#38 = CC_DESIGN_APPROVAL ( #93, ( #104 ) ) ;
#39 = VECTOR ( 'NONE', #123, 1000.000000000000000 ) ;
#40 = AXIS2_PLACEMENT_3D ( 'NONE', #169, #172, #159 ) ;
#41 = AXIS2_PLACEMENT_3D ( 'NONE', #171, #134, #139 ) ;
#42 = APPROVAL_PERSON_ORGANIZATION ( #30, #76, #32 ) ;
#43 = FACE_OUTER_BOUND ( 'NONE', #125, .T. ) ;
#44 = COORDINATED_UNIVERSAL_TIME_OFFSET ( 9, 0, .AHEAD. ) ;
#45 = COORDINATED_UNIVERSAL_TIME_OFFSET ( 9, 0, .AHEAD. ) ;
#46 = COORDINATED_UNIVERSAL_TIME_OFFSET ( 9, 0, .AHEAD. ) ;
#47 = FACE_OUTER_BOUND ( 'NONE', #144, .T. ) ;
#48 = SECURITY_CLASSIFICATION ( '', '', #18 ) ;
#49 = CC_DESIGN_SECURITY_CLASSIFICATION ( #48, ( #57 ) ) ;
#50 = COORDINATED_UNIVERSAL_TIME_OFFSET ( 9, 0, .AHEAD. ) ;
#51 = CALENDAR_DATE ( 2015, 11, 8 ) ;
#52 = COORDINATED_UNIVERSAL_TIME_OFFSET ( 9, 0, .AHEAD. ) ;
#53 = CLOSED_SHELL ( 'NONE', ( #106, #90, #95, #97 ) ) ;
#54 = APPROVAL_PERSON_ORGANIZATION ( #6, #93, #5 ) ;
#55 = CALENDAR_DATE ( 2015, 11, 8 ) ;
#56 = AXIS2_PLACEMENT_3D ( 'NONE', #170, #115, #164 ) ;
#57 = PRODUCT_DEFINITION_FORMATION_WITH_SPECIFIED_SOURCE ( 'ANY', '', #113, .NOT_KNOWN. ) ;
#58 = CALENDAR_DATE ( 2015, 11, 8 ) ;
#59 = AXIS2_PLACEMENT_3D ( 'NONE', #133, #149, #154 ) ;
#60 = VECTOR ( 'NONE', #167, 1000.000000000000000 ) ;
#61 = FACE_OUTER_BOUND ( 'NONE', #165, .T. ) ;
#62 = AXIS2_PLACEMENT_3D ( 'NONE', #161, #136, #152 ) ;
#63 = CALENDAR_DATE ( 2015, 11, 8 ) ;
#64 = ORGANIZATION ( 'UNSPECIFIED', 'UNSPECIFIED', '' ) ;
#65 = AXIS2_PLACEMENT_3D ( 'NONE', #137, #114, #128 ) ;
#66 = CYLINDRICAL_SURFACE ( 'NONE', #56, 4.500000000000000000 ) ;
#67 = APPROVAL_PERSON_ORGANIZATION ( #9, #94, #11 ) ;
#68 = AXIS2_PLACEMENT_3D ( 'NONE', #145, #121, #124 ) ;
#69 = CALENDAR_DATE ( 2015, 11, 8 ) ;
#70 = FACE_OUTER_BOUND ( 'NONE', #142, .T. ) ;
#71 = AXIS2_PLACEMENT_3D ( 'NONE', #117, #126, #141 ) ;
#72 = CYLINDRICAL_SURFACE ( 'NONE', #68, 4.500000000000000000 ) ;
#73 = AXIS2_PLACEMENT_3D ( 'NONE', #127, #120, #130 ) ;
#74 = CC_DESIGN_APPROVAL ( #76, ( #48 ) ) ;
#75 = CC_DESIGN_APPROVAL ( #94, ( #57 ) ) ;
#76 = APPROVAL ( #31, 'UNSPECIFIED' ) ;
#77 = CIRCLE ( 'NONE', #40, 4.500000000000000000 ) ;
#78 = PRODUCT_RELATED_PRODUCT_CATEGORY ( 'detail', '', ( #113 ) ) ;
#79 = CC_DESIGN_DATE_AND_TIME_ASSIGNMENT ( #34, #29, ( #48 ) ) ;
#80 = LOCAL_TIME ( 18, 40, 7.000000000000000000, #45 ) ;
#81 = CC_DESIGN_PERSON_AND_ORGANIZATION_ASSIGNMENT ( #19, #33, ( #48 ) ) ;
#82 = CIRCLE ( 'NONE', #65, 4.500000000000000000 ) ;
#83 = CC_DESIGN_PERSON_AND_ORGANIZATION_ASSIGNMENT ( #16, #17, ( #57 ) ) ;
#84 = CC_DESIGN_PERSON_AND_ORGANIZATION_ASSIGNMENT ( #14, #15, ( #57 ) ) ;
#85 = LOCAL_TIME ( 18, 40, 7.000000000000000000, #50 ) ;
#86 = CC_DESIGN_DATE_AND_TIME_ASSIGNMENT ( #1, #8, ( #104 ) ) ;
#87 = EDGE_CURVE ( 'NONE', #129, #138, #96, .T. ) ;
#88 = LOCAL_TIME ( 18, 40, 7.000000000000000000, #46 ) ;
#89 = LOCAL_TIME ( 18, 40, 7.000000000000000000, #44 ) ;
#90 = ADVANCED_FACE ( 'NONE', ( #70 ), #66, .T. ) ;
#91 = EDGE_CURVE ( 'NONE', #143, #157, #103, .T. ) ;
#92 = EDGE_CURVE ( 'NONE', #157, #143, #82, .T. ) ;
#93 = APPROVAL ( #21, 'UNSPECIFIED' ) ;
#94 = APPROVAL ( #10, 'UNSPECIFIED' ) ;
#95 = ADVANCED_FACE ( 'NONE', ( #43 ), #158, .T. ) ;
#96 = CIRCLE ( 'NONE', #59, 4.500000000000000000 ) ;
#97 = ADVANCED_FACE ( 'NONE', ( #47 ), #155, .F. ) ;
#98 = EDGE_CURVE ( 'NONE', #138, #157, #131, .T. ) ;
#99 = EDGE_CURVE ( 'NONE', #138, #129, #77, .T. ) ;
#100 = EDGE_CURVE ( 'NONE', #129, #143, #146, .T. ) ;
#101 = CC_DESIGN_PERSON_AND_ORGANIZATION_ASSIGNMENT ( #3, #2, ( #104 ) ) ;
#102 = LOCAL_TIME ( 18, 40, 7.000000000000000000, #52 ) ;
#103 = CIRCLE ( 'NONE', #41, 4.500000000000000000 ) ;
#104 = PRODUCT_DEFINITION ( 'UNKNOWN', '', #57, #111 ) ;
#105 = CC_DESIGN_PERSON_AND_ORGANIZATION_ASSIGNMENT ( #22, #23, ( #113 ) ) ;
#106 = ADVANCED_FACE ( 'NONE', ( #61 ), #72, .T. ) ;
#107 = APPLICATION_CONTEXT ( 'configuration controlled 3d designs of mechanical parts and assemblies' ) ;
#108 = APPLICATION_CONTEXT ( 'configuration controlled 3d designs of mechanical parts and assemblies' ) ;
#109 =( GEOMETRIC_REPRESENTATION_CONTEXT ( 3 ) GLOBAL_UNCERTAINTY_ASSIGNED_CONTEXT ( ( #35 ) ) GLOBAL_UNIT_ASSIGNED_CONTEXT ( ( #147, #122, #119 ) ) REPRESENTATION_CONTEXT ( 'NONE', 'WORKASPACE' ) );
#110 = PRODUCT_DEFINITION_SHAPE ( 'NONE', 'NONE',  #104 ) ;
#111 = DESIGN_CONTEXT ( 'detailed design', #108, 'design' ) ;
#112 = MANIFOLD_SOLID_BREP ( 'ÎÞ½ - µoµ1', #53 ) ;
#113 = PRODUCT ( 'sone3D', 'sone3D', '', ( #26 ) ) ;
#114 = DIRECTION ( 'NONE',  ( 0.0000000000000000000, 0.0000000000000000000, 1.000000000000000000 ) ) ;
#115 = DIRECTION ( 'NONE',  ( -0.0000000000000000000, -0.0000000000000000000, -1.000000000000000000 ) ) ;
#116 = ORIENTED_EDGE ( 'NONE', *, *, #87, .F. ) ;
#117 = CARTESIAN_POINT ( 'NONE',  ( 0.0000000000000000000, 0.0000000000000000000, -500.0000000000000000 ) ) ;
#118 = CARTESIAN_POINT ( 'NONE',  ( 4.500000000000000000, 5.510910596163088600E-016, -500.0000000000000000 ) ) ;
#119 =( NAMED_UNIT ( * ) SI_UNIT ( $, .STERADIAN. ) SOLID_ANGLE_UNIT ( ) );
#120 = DIRECTION ( 'NONE',  ( 0.0000000000000000000, 0.0000000000000000000, 1.000000000000000000 ) ) ;
#121 = DIRECTION ( 'NONE',  ( -0.0000000000000000000, -0.0000000000000000000, -1.000000000000000000 ) ) ;
#122 =( NAMED_UNIT ( * ) PLANE_ANGLE_UNIT ( ) SI_UNIT ( $, .RADIAN. ) );
#123 = DIRECTION ( 'NONE',  ( -0.0000000000000000000, -0.0000000000000000000, -1.000000000000000000 ) ) ;
#124 = DIRECTION ( 'NONE',  ( -1.000000000000000000, 0.0000000000000000000, 0.0000000000000000000 ) ) ;
#125 = EDGE_LOOP ( 'NONE', ( #151, #173 ) ) ;
#126 = DIRECTION ( 'NONE',  ( 0.0000000000000000000, 0.0000000000000000000, 1.000000000000000000 ) ) ;
#127 = CARTESIAN_POINT ( 'NONE',  ( 0.0000000000000000000, 0.0000000000000000000, 0.0000000000000000000 ) ) ;
#128 = DIRECTION ( 'NONE',  ( 1.000000000000000000, 0.0000000000000000000, 0.0000000000000000000 ) ) ;
#129 = VERTEX_POINT ( 'NONE', #150 ) ;
#130 = DIRECTION ( 'NONE',  ( 1.000000000000000000, 0.0000000000000000000, 0.0000000000000000000 ) ) ;
#131 = LINE ( 'NONE', #132, #60 ) ;
#132 = CARTESIAN_POINT ( 'NONE',  ( -4.500000000000000000, 0.0000000000000000000, 500.0000000000000000 ) ) ;
#133 = CARTESIAN_POINT ( 'NONE',  ( 0.0000000000000000000, 0.0000000000000000000, 500.0000000000000000 ) ) ;
#134 = DIRECTION ( 'NONE',  ( 0.0000000000000000000, 0.0000000000000000000, 1.000000000000000000 ) ) ;
#135 = CARTESIAN_POINT ( 'NONE',  ( 4.500000000000000000, 5.510910596163088600E-016, 500.0000000000000000 ) ) ;
#136 = DIRECTION ( 'NONE',  ( 0.0000000000000000000, 0.0000000000000000000, 1.000000000000000000 ) ) ;
#137 = CARTESIAN_POINT ( 'NONE',  ( 0.0000000000000000000, 0.0000000000000000000, -500.0000000000000000 ) ) ;
#138 = VERTEX_POINT ( 'NONE', #156 ) ;
#139 = DIRECTION ( 'NONE',  ( 1.000000000000000000, 0.0000000000000000000, 0.0000000000000000000 ) ) ;
#140 = ORIENTED_EDGE ( 'NONE', *, *, #100, .T. ) ;
#141 = DIRECTION ( 'NONE',  ( 1.000000000000000000, 0.0000000000000000000, -0.0000000000000000000 ) ) ;
#142 = EDGE_LOOP ( 'NONE', ( #163, #160, #174, #166 ) ) ;
#143 = VERTEX_POINT ( 'NONE', #118 ) ;
#144 = EDGE_LOOP ( 'NONE', ( #162, #148 ) ) ;
#145 = CARTESIAN_POINT ( 'NONE',  ( 0.0000000000000000000, 0.0000000000000000000, 500.0000000000000000 ) ) ;
#146 = LINE ( 'NONE', #135, #39 ) ;
#147 =( LENGTH_UNIT ( ) NAMED_UNIT ( * ) SI_UNIT ( .MILLI., .METRE. ) );
#148 = ORIENTED_EDGE ( 'NONE', *, *, #91, .F. ) ;
#149 = DIRECTION ( 'NONE',  ( 0.0000000000000000000, 0.0000000000000000000, 1.000000000000000000 ) ) ;
#150 = CARTESIAN_POINT ( 'NONE',  ( 4.500000000000000000, 5.510910596163088600E-016, 500.0000000000000000 ) ) ;
#151 = ORIENTED_EDGE ( 'NONE', *, *, #99, .T. ) ;
#152 = DIRECTION ( 'NONE',  ( 1.000000000000000000, 0.0000000000000000000, -0.0000000000000000000 ) ) ;
#153 = ORIENTED_EDGE ( 'NONE', *, *, #91, .T. ) ;
#154 = DIRECTION ( 'NONE',  ( 1.000000000000000000, 0.0000000000000000000, 0.0000000000000000000 ) ) ;
#155 = PLANE ( 'NONE',  #71 ) ;
#156 = CARTESIAN_POINT ( 'NONE',  ( -4.500000000000000000, 0.0000000000000000000, 500.0000000000000000 ) ) ;
#157 = VERTEX_POINT ( 'NONE', #168 ) ;
#158 = PLANE ( 'NONE',  #62 ) ;
#159 = DIRECTION ( 'NONE',  ( 1.000000000000000000, 0.0000000000000000000, 0.0000000000000000000 ) ) ;
#160 = ORIENTED_EDGE ( 'NONE', *, *, #99, .F. ) ;
#161 = CARTESIAN_POINT ( 'NONE',  ( 0.0000000000000000000, 0.0000000000000000000, 500.0000000000000000 ) ) ;
#162 = ORIENTED_EDGE ( 'NONE', *, *, #92, .F. ) ;
#163 = ORIENTED_EDGE ( 'NONE', *, *, #100, .F. ) ;
#164 = DIRECTION ( 'NONE',  ( -1.000000000000000000, 0.0000000000000000000, 0.0000000000000000000 ) ) ;
#165 = EDGE_LOOP ( 'NONE', ( #116, #140, #153, #175 ) ) ;
#166 = ORIENTED_EDGE ( 'NONE', *, *, #92, .T. ) ;
#167 = DIRECTION ( 'NONE',  ( -0.0000000000000000000, -0.0000000000000000000, -1.000000000000000000 ) ) ;
#168 = CARTESIAN_POINT ( 'NONE',  ( -4.500000000000000000, 0.0000000000000000000, -500.0000000000000000 ) ) ;
#169 = CARTESIAN_POINT ( 'NONE',  ( 0.0000000000000000000, 0.0000000000000000000, 500.0000000000000000 ) ) ;
#170 = CARTESIAN_POINT ( 'NONE',  ( 0.0000000000000000000, 0.0000000000000000000, 500.0000000000000000 ) ) ;
#171 = CARTESIAN_POINT ( 'NONE',  ( 0.0000000000000000000, 0.0000000000000000000, -500.0000000000000000 ) ) ;
#172 = DIRECTION ( 'NONE',  ( 0.0000000000000000000, 0.0000000000000000000, 1.000000000000000000 ) ) ;
#173 = ORIENTED_EDGE ( 'NONE', *, *, #87, .T. ) ;
#174 = ORIENTED_EDGE ( 'NONE', *, *, #98, .T. ) ;
#175 = ORIENTED_EDGE ( 'NONE', *, *, #98, .F. ) ;
ENDSEC;
END-ISO-10303-21;
