ISO-10303-21;
HEADER;
FILE_DESCRIPTION (( 'STEP AP203' ),
    '1' );
FILE_NAME ('sone3D.STEP',
    '2015-08-11T09:39:41',
    ( '' ),
    ( '' ),
    'SwSTEP 2.0',
    'SolidWorks 2012',
    '' );
FILE_SCHEMA (( 'CONFIG_CONTROL_DESIGN' ));
ENDSEC;

DATA;
#1 = APPLICATION_CONTEXT ( 'configuration controlled 3d designs of mechanical parts and assemblies' ) ;
#2 = APPLICATION_CONTEXT ( 'configuration controlled 3d designs of mechanical parts and assemblies' ) ;
#3 = PERSON_AND_ORGANIZATION ( #108, #61 ) ;
#4 = DATE_TIME_ROLE ( 'classification_date' ) ;
#5 = DATE_AND_TIME ( #71, #78 ) ;
#6 = PERSON_AND_ORGANIZATION_ROLE ( 'classification_officer' ) ;
#7 = PERSON_AND_ORGANIZATION ( #108, #61 ) ;
#8 = SECURITY_CLASSIFICATION_LEVEL ( 'unclassified' ) ;
#9 = PERSON_AND_ORGANIZATION_ROLE ( 'design_supplier' ) ;
#10 = PERSON_AND_ORGANIZATION ( #108, #61 ) ;
#11 = PERSON_AND_ORGANIZATION ( #108, #61 ) ;
#12 = PERSON_AND_ORGANIZATION_ROLE ( 'creator' ) ;
#13 = APPROVAL_ROLE ( '' ) ;
#14 = PERSON_AND_ORGANIZATION ( #108, #61 ) ;
#15 = APPROVAL_DATE_TIME ( #16, #82 ) ;
#16 = DATE_AND_TIME ( #68, #89 ) ;
#17 = APPROVAL_ROLE ( '' ) ;
#18 = APPROVAL_STATUS ( 'not_yet_approved' ) ;
#19 = DATE_TIME_ROLE ( 'creation_date' ) ;
#20 = DATE_AND_TIME ( #50, #86 ) ;
#21 = PERSON_AND_ORGANIZATION_ROLE ( 'creator' ) ;
#22 = APPROVAL_DATE_TIME ( #29, #92 ) ;
#23 = PERSON_AND_ORGANIZATION ( #108, #61 ) ;
#24 = APPROVAL_STATUS ( 'not_yet_approved' ) ;
#25 = APPROVAL_ROLE ( '' ) ;
#26 = APPROVAL_DATE_TIME ( #27, #75 ) ;
#27 = DATE_AND_TIME ( #60, #74 ) ;
#28 = PERSON_AND_ORGANIZATION ( #108, #61 ) ;
#29 = DATE_AND_TIME ( #42, #100 ) ;
#30 = APPLICATION_PROTOCOL_DEFINITION ( 'international standard', 'config_control_design', 1994, #1 ) ;
#31 = PERSON_AND_ORGANIZATION_ROLE ( 'design_owner' ) ;
#32 = APPLICATION_PROTOCOL_DEFINITION ( 'international standard', 'config_control_design', 1994, #2 ) ;
#33 = APPROVAL_STATUS ( 'not_yet_approved' ) ;
#34 = MECHANICAL_CONTEXT ( 'NONE', #1, 'mechanical' ) ;
#35 = PERSON_AND_ORGANIZATION ( #108, #61 ) ;
#36 = COORDINATED_UNIVERSAL_TIME_OFFSET ( 9, 0, .AHEAD. ) ;
#37 = FACE_OUTER_BOUND ( 'NONE', #117, .T. ) ;
#38 = FACE_OUTER_BOUND ( 'NONE', #175, .T. ) ;
#39 = AXIS2_PLACEMENT_3D ( 'NONE', #132, #165, #154 ) ;
#40 = CC_DESIGN_APPROVAL ( #92, ( #101 ) ) ;
#41 = SECURITY_CLASSIFICATION ( '', '', #8 ) ;
#42 = CALENDAR_DATE ( 2015, 11, 8 ) ;
#43 = APPROVAL_PERSON_ORGANIZATION ( #3, #75, #25 ) ;
#44 = AXIS2_PLACEMENT_3D ( 'NONE', #136, #135, #163 ) ;
#45 = FACE_OUTER_BOUND ( 'NONE', #145, .T. ) ;
#46 = CC_DESIGN_SECURITY_CLASSIFICATION ( #41, ( #54 ) ) ;
#47 = AXIS2_PLACEMENT_3D ( 'NONE', #125, #115, #137 ) ;
#48 = COORDINATED_UNIVERSAL_TIME_OFFSET ( 9, 0, .AHEAD. ) ;
#49 = CLOSED_SHELL ( 'NONE', ( #98, #99, #102, #94 ) ) ;
#50 = CALENDAR_DATE ( 2015, 11, 8 ) ;
#51 = APPROVAL_PERSON_ORGANIZATION ( #28, #92, #13 ) ;
#52 = CYLINDRICAL_SURFACE ( 'NONE', #65, 4.000000000000000000 ) ;
#53 = VECTOR ( 'NONE', #133, 1000.000000000000000 ) ;
#54 = PRODUCT_DEFINITION_FORMATION_WITH_SPECIFIED_SOURCE ( 'ANY', '', #112, .NOT_KNOWN. ) ;
#55 = APPROVAL_PERSON_ORGANIZATION ( #10, #82, #17 ) ;
#56 = CYLINDRICAL_SURFACE ( 'NONE', #72, 4.000000000000000000 ) ;
#57 = VECTOR ( 'NONE', #151, 1000.000000000000000 ) ;
#58 = AXIS2_PLACEMENT_3D ( 'NONE', #153, #119, #114 ) ;
#59 = COORDINATED_UNIVERSAL_TIME_OFFSET ( 9, 0, .AHEAD. ) ;
#60 = CALENDAR_DATE ( 2015, 11, 8 ) ;
#61 = ORGANIZATION ( 'UNSPECIFIED', 'UNSPECIFIED', '' ) ;
#62 = FACE_OUTER_BOUND ( 'NONE', #174, .T. ) ;
#63 = CC_DESIGN_APPROVAL ( #82, ( #54 ) ) ;
#64 = AXIS2_PLACEMENT_3D ( 'NONE', #173, #168, #156 ) ;
#65 = AXIS2_PLACEMENT_3D ( 'NONE', #162, #152, #139 ) ;
#66 = AXIS2_PLACEMENT_3D ( 'NONE', #134, #155, #138 ) ;
#67 = CC_DESIGN_APPROVAL ( #75, ( #41 ) ) ;
#68 = CALENDAR_DATE ( 2015, 11, 8 ) ;
#69 = COORDINATED_UNIVERSAL_TIME_OFFSET ( 9, 0, .AHEAD. ) ;
#70 = AXIS2_PLACEMENT_3D ( 'NONE', #160, #113, #121 ) ;
#71 = CALENDAR_DATE ( 2015, 11, 8 ) ;
#72 = AXIS2_PLACEMENT_3D ( 'NONE', #131, #159, #140 ) ;
#73 = COORDINATED_UNIVERSAL_TIME_OFFSET ( 9, 0, .AHEAD. ) ;
#74 = LOCAL_TIME ( 18, 39, 40.00000000000000000, #48 ) ;
#75 = APPROVAL ( #24, 'UNSPECIFIED' ) ;
#76 = CC_DESIGN_PERSON_AND_ORGANIZATION_ASSIGNMENT ( #35, #31, ( #112 ) ) ;
#77 = CC_DESIGN_DATE_AND_TIME_ASSIGNMENT ( #5, #4, ( #41 ) ) ;
#78 = LOCAL_TIME ( 18, 39, 40.00000000000000000, #36 ) ;
#79 = CC_DESIGN_PERSON_AND_ORGANIZATION_ASSIGNMENT ( #7, #6, ( #41 ) ) ;
#80 = CC_DESIGN_PERSON_AND_ORGANIZATION_ASSIGNMENT ( #11, #9, ( #54 ) ) ;
#81 = CC_DESIGN_DATE_AND_TIME_ASSIGNMENT ( #20, #19, ( #101 ) ) ;
#82 = APPROVAL ( #18, 'UNSPECIFIED' ) ;
#83 = CC_DESIGN_PERSON_AND_ORGANIZATION_ASSIGNMENT ( #14, #12, ( #54 ) ) ;
#84 = EDGE_CURVE ( 'NONE', #144, #128, #87, .T. ) ;
#85 = PRODUCT_RELATED_PRODUCT_CATEGORY ( 'detail', '', ( #112 ) ) ;
#86 = LOCAL_TIME ( 18, 39, 40.00000000000000000, #69 ) ;
#87 = CIRCLE ( 'NONE', #39, 4.000000000000000000 ) ;
#88 = EDGE_CURVE ( 'NONE', #128, #144, #90, .T. ) ;
#89 = LOCAL_TIME ( 18, 39, 40.00000000000000000, #73 ) ;
#90 = CIRCLE ( 'NONE', #44, 4.000000000000000000 ) ;
#91 = EDGE_CURVE ( 'NONE', #146, #170, #93, .T. ) ;
#92 = APPROVAL ( #33, 'UNSPECIFIED' ) ;
#93 = CIRCLE ( 'NONE', #64, 4.000000000000000000 ) ;
#94 = ADVANCED_FACE ( 'NONE', ( #45 ), #161, .F. ) ;
#95 = EDGE_CURVE ( 'NONE', #170, #144, #129, .T. ) ;
#96 = EDGE_CURVE ( 'NONE', #170, #146, #103, .T. ) ;
#97 = EDGE_CURVE ( 'NONE', #146, #128, #150, .T. ) ;
#98 = ADVANCED_FACE ( 'NONE', ( #62 ), #52, .T. ) ;
#99 = ADVANCED_FACE ( 'NONE', ( #38 ), #56, .T. ) ;
#100 = LOCAL_TIME ( 18, 39, 40.00000000000000000, #59 ) ;
#101 = PRODUCT_DEFINITION ( 'UNKNOWN', '', #54, #110 ) ;
#102 = ADVANCED_FACE ( 'NONE', ( #37 ), #126, .T. ) ;
#103 = CIRCLE ( 'NONE', #70, 4.000000000000000000 ) ;
#104 = CC_DESIGN_PERSON_AND_ORGANIZATION_ASSIGNMENT ( #23, #21, ( #101 ) ) ;
#105 =( GEOMETRIC_REPRESENTATION_CONTEXT ( 3 ) GLOBAL_UNCERTAINTY_ASSIGNED_CONTEXT ( ( #107 ) ) GLOBAL_UNIT_ASSIGNED_CONTEXT ( ( #172, #127, #166 ) ) REPRESENTATION_CONTEXT ( 'NONE', 'WORKASPACE' ) );
#106 = ADVANCED_BREP_SHAPE_REPRESENTATION ( 'sone3D', ( #109, #58 ), #105 ) ;
#107 = UNCERTAINTY_MEASURE_WITH_UNIT (LENGTH_MEASURE( 1.000000000000000100E-005 ), #172, 'distance_accuracy_value', 'NONE');
#108 = PERSON ( 'UNSPECIFIED', 'UNSPECIFIED', 'UNSPECIFIED', ('UNSPECIFIED'), ('UNSPECIFIED'), ('UNSPECIFIED') ) ;
#109 = MANIFOLD_SOLID_BREP ( 'ÎÞ½ - µoµ1', #49 ) ;
#110 = DESIGN_CONTEXT ( 'detailed design', #2, 'design' ) ;
#111 = PRODUCT_DEFINITION_SHAPE ( 'NONE', 'NONE',  #101 ) ;
#112 = PRODUCT ( 'sone3D', 'sone3D', '', ( #34 ) ) ;
#113 = DIRECTION ( 'NONE',  ( 0.0000000000000000000, 0.0000000000000000000, 1.000000000000000000 ) ) ;
#114 = DIRECTION ( 'NONE',  ( 1.000000000000000000, 0.0000000000000000000, 0.0000000000000000000 ) ) ;
#115 = DIRECTION ( 'NONE',  ( 0.0000000000000000000, 0.0000000000000000000, 1.000000000000000000 ) ) ;
#116 = ORIENTED_EDGE ( 'NONE', *, *, #84, .T. ) ;
#117 = EDGE_LOOP ( 'NONE', ( #141, #171 ) ) ;
#118 = ORIENTED_EDGE ( 'NONE', *, *, #96, .F. ) ;
#119 = DIRECTION ( 'NONE',  ( 0.0000000000000000000, 0.0000000000000000000, 1.000000000000000000 ) ) ;
#120 = ORIENTED_EDGE ( 'NONE', *, *, #97, .F. ) ;
#121 = DIRECTION ( 'NONE',  ( 1.000000000000000000, 0.0000000000000000000, 0.0000000000000000000 ) ) ;
#122 = ORIENTED_EDGE ( 'NONE', *, *, #84, .F. ) ;
#123 = ORIENTED_EDGE ( 'NONE', *, *, #95, .T. ) ;
#124 = CARTESIAN_POINT ( 'NONE',  ( 4.000000000000000000, 4.898587196589412800E-016, 500.0000000000000000 ) ) ;
#125 = CARTESIAN_POINT ( 'NONE',  ( 0.0000000000000000000, 0.0000000000000000000, 500.0000000000000000 ) ) ;
#126 = PLANE ( 'NONE',  #47 ) ;
#127 =( NAMED_UNIT ( * ) PLANE_ANGLE_UNIT ( ) SI_UNIT ( $, .RADIAN. ) );
#128 = VERTEX_POINT ( 'NONE', #158 ) ;
#129 = LINE ( 'NONE', #149, #57 ) ;
#130 = CARTESIAN_POINT ( 'NONE',  ( -4.000000000000000000, 0.0000000000000000000, 500.0000000000000000 ) ) ;
#131 = CARTESIAN_POINT ( 'NONE',  ( 0.0000000000000000000, 0.0000000000000000000, 500.0000000000000000 ) ) ;
#132 = CARTESIAN_POINT ( 'NONE',  ( 0.0000000000000000000, 0.0000000000000000000, -500.0000000000000000 ) ) ;
#133 = DIRECTION ( 'NONE',  ( -0.0000000000000000000, -0.0000000000000000000, -1.000000000000000000 ) ) ;
#134 = CARTESIAN_POINT ( 'NONE',  ( 0.0000000000000000000, 0.0000000000000000000, -500.0000000000000000 ) ) ;
#135 = DIRECTION ( 'NONE',  ( 0.0000000000000000000, 0.0000000000000000000, 1.000000000000000000 ) ) ;
#136 = CARTESIAN_POINT ( 'NONE',  ( 0.0000000000000000000, 0.0000000000000000000, -500.0000000000000000 ) ) ;
#137 = DIRECTION ( 'NONE',  ( 1.000000000000000000, 0.0000000000000000000, -0.0000000000000000000 ) ) ;
#138 = DIRECTION ( 'NONE',  ( 1.000000000000000000, 0.0000000000000000000, -0.0000000000000000000 ) ) ;
#139 = DIRECTION ( 'NONE',  ( -1.000000000000000000, 0.0000000000000000000, 0.0000000000000000000 ) ) ;
#140 = DIRECTION ( 'NONE',  ( -1.000000000000000000, 0.0000000000000000000, 0.0000000000000000000 ) ) ;
#141 = ORIENTED_EDGE ( 'NONE', *, *, #96, .T. ) ;
#142 = ORIENTED_EDGE ( 'NONE', *, *, #91, .F. ) ;
#143 = ORIENTED_EDGE ( 'NONE', *, *, #95, .F. ) ;
#144 = VERTEX_POINT ( 'NONE', #164 ) ;
#145 = EDGE_LOOP ( 'NONE', ( #122, #169 ) ) ;
#146 = VERTEX_POINT ( 'NONE', #124 ) ;
#147 = SHAPE_DEFINITION_REPRESENTATION ( #111, #106 ) ;
#148 = ORIENTED_EDGE ( 'NONE', *, *, #97, .T. ) ;
#149 = CARTESIAN_POINT ( 'NONE',  ( -4.000000000000000000, 0.0000000000000000000, 500.0000000000000000 ) ) ;
#150 = LINE ( 'NONE', #167, #53 ) ;
#151 = DIRECTION ( 'NONE',  ( -0.0000000000000000000, -0.0000000000000000000, -1.000000000000000000 ) ) ;
#152 = DIRECTION ( 'NONE',  ( -0.0000000000000000000, -0.0000000000000000000, -1.000000000000000000 ) ) ;
#153 = CARTESIAN_POINT ( 'NONE',  ( 0.0000000000000000000, 0.0000000000000000000, 0.0000000000000000000 ) ) ;
#154 = DIRECTION ( 'NONE',  ( 1.000000000000000000, 0.0000000000000000000, 0.0000000000000000000 ) ) ;
#155 = DIRECTION ( 'NONE',  ( 0.0000000000000000000, 0.0000000000000000000, 1.000000000000000000 ) ) ;
#156 = DIRECTION ( 'NONE',  ( 1.000000000000000000, 0.0000000000000000000, 0.0000000000000000000 ) ) ;
#157 = ORIENTED_EDGE ( 'NONE', *, *, #88, .T. ) ;
#158 = CARTESIAN_POINT ( 'NONE',  ( 4.000000000000000000, 4.898587196589412800E-016, -500.0000000000000000 ) ) ;
#159 = DIRECTION ( 'NONE',  ( -0.0000000000000000000, -0.0000000000000000000, -1.000000000000000000 ) ) ;
#160 = CARTESIAN_POINT ( 'NONE',  ( 0.0000000000000000000, 0.0000000000000000000, 500.0000000000000000 ) ) ;
#161 = PLANE ( 'NONE',  #66 ) ;
#162 = CARTESIAN_POINT ( 'NONE',  ( 0.0000000000000000000, 0.0000000000000000000, 500.0000000000000000 ) ) ;
#163 = DIRECTION ( 'NONE',  ( 1.000000000000000000, 0.0000000000000000000, 0.0000000000000000000 ) ) ;
#164 = CARTESIAN_POINT ( 'NONE',  ( -4.000000000000000000, 0.0000000000000000000, -500.0000000000000000 ) ) ;
#165 = DIRECTION ( 'NONE',  ( 0.0000000000000000000, 0.0000000000000000000, 1.000000000000000000 ) ) ;
#166 =( NAMED_UNIT ( * ) SI_UNIT ( $, .STERADIAN. ) SOLID_ANGLE_UNIT ( ) );
#167 = CARTESIAN_POINT ( 'NONE',  ( 4.000000000000000000, 4.898587196589412800E-016, 500.0000000000000000 ) ) ;
#168 = DIRECTION ( 'NONE',  ( 0.0000000000000000000, 0.0000000000000000000, 1.000000000000000000 ) ) ;
#169 = ORIENTED_EDGE ( 'NONE', *, *, #88, .F. ) ;
#170 = VERTEX_POINT ( 'NONE', #130 ) ;
#171 = ORIENTED_EDGE ( 'NONE', *, *, #91, .T. ) ;
#172 =( LENGTH_UNIT ( ) NAMED_UNIT ( * ) SI_UNIT ( .MILLI., .METRE. ) );
#173 = CARTESIAN_POINT ( 'NONE',  ( 0.0000000000000000000, 0.0000000000000000000, 500.0000000000000000 ) ) ;
#174 = EDGE_LOOP ( 'NONE', ( #142, #148, #157, #143 ) ) ;
#175 = EDGE_LOOP ( 'NONE', ( #120, #118, #123, #116 ) ) ;
ENDSEC;
END-ISO-10303-21;
