ISO-10303-21;
HEADER;
FILE_DESCRIPTION (( 'STEP AP203' ),
    '1' );
FILE_NAME ('sone3D.STEP',
    '2015-08-11T09:39:03',
    ( '' ),
    ( '' ),
    'SwSTEP 2.0',
    'SolidWorks 2012',
    '' );
FILE_SCHEMA (( 'CONFIG_CONTROL_DESIGN' ));
ENDSEC;

DATA;
#1 = APPLICATION_CONTEXT ( 'configuration controlled 3d designs of mechanical parts and assemblies' ) ;
#2 = APPLICATION_CONTEXT ( 'configuration controlled 3d designs of mechanical parts and assemblies' ) ;
#3 = APPROVAL_DATE_TIME ( #10, #80 ) ;
#4 = SECURITY_CLASSIFICATION_LEVEL ( 'unclassified' ) ;
#5 = APPROVAL_STATUS ( 'not_yet_approved' ) ;
#6 = DATE_AND_TIME ( #44, #64 ) ;
#7 = PERSON_AND_ORGANIZATION_ROLE ( 'classification_officer' ) ;
#8 = PERSON_AND_ORGANIZATION ( #97, #59 ) ;
#9 = PERSON_AND_ORGANIZATION ( #97, #59 ) ;
#10 = DATE_AND_TIME ( #50, #72 ) ;
#11 = DATE_TIME_ROLE ( 'classification_date' ) ;
#12 = PERSON_AND_ORGANIZATION_ROLE ( 'design_supplier' ) ;
#13 = PERSON_AND_ORGANIZATION ( #97, #59 ) ;
#14 = APPROVAL_ROLE ( '' ) ;
#15 = PERSON_AND_ORGANIZATION ( #97, #59 ) ;
#16 = PERSON_AND_ORGANIZATION_ROLE ( 'creator' ) ;
#17 = APPROVAL_DATE_TIME ( #18, #77 ) ;
#18 = DATE_AND_TIME ( #45, #74 ) ;
#19 = APPROVAL_ROLE ( '' ) ;
#20 = APPROVAL_STATUS ( 'not_yet_approved' ) ;
#21 = PERSON_AND_ORGANIZATION ( #97, #59 ) ;
#22 = DATE_AND_TIME ( #32, #70 ) ;
#23 = PERSON_AND_ORGANIZATION_ROLE ( 'creator' ) ;
#24 = DATE_TIME_ROLE ( 'creation_date' ) ;
#25 = AXIS2_PLACEMENT_3D ( 'NONE', #155, #123, #144 ) ;
#26 = CC_DESIGN_SECURITY_CLASSIFICATION ( #34, ( #39 ) ) ;
#27 = CC_DESIGN_APPROVAL ( #77, ( #39 ) ) ;
#28 = CC_DESIGN_APPROVAL ( #80, ( #34 ) ) ;
#29 = APPROVAL_PERSON_ORGANIZATION ( #21, #77, #19 ) ;
#30 = APPROVAL_PERSON_ORGANIZATION ( #9, #80, #14 ) ;
#31 = AXIS2_PLACEMENT_3D ( 'NONE', #146, #130, #148 ) ;
#32 = CALENDAR_DATE ( 2015, 11, 8 ) ;
#33 = AXIS2_PLACEMENT_3D ( 'NONE', #163, #162, #140 ) ;
#34 = SECURITY_CLASSIFICATION ( '', '', #4 ) ;
#35 = CALENDAR_DATE ( 2015, 11, 8 ) ;
#36 = AXIS2_PLACEMENT_3D ( 'NONE', #172, #160, #122 ) ;
#37 = COORDINATED_UNIVERSAL_TIME_OFFSET ( 9, 0, .AHEAD. ) ;
#38 = AXIS2_PLACEMENT_3D ( 'NONE', #168, #156, #124 ) ;
#39 = PRODUCT_DEFINITION_FORMATION_WITH_SPECIFIED_SOURCE ( 'ANY', '', #101, .NOT_KNOWN. ) ;
#40 = CLOSED_SHELL ( 'NONE', ( #87, #84, #65, #68 ) ) ;
#41 = AXIS2_PLACEMENT_3D ( 'NONE', #170, #117, #158 ) ;
#42 = AXIS2_PLACEMENT_3D ( 'NONE', #132, #108, #154 ) ;
#43 = COORDINATED_UNIVERSAL_TIME_OFFSET ( 9, 0, .AHEAD. ) ;
#44 = CALENDAR_DATE ( 2015, 11, 8 ) ;
#45 = CALENDAR_DATE ( 2015, 11, 8 ) ;
#46 = FACE_OUTER_BOUND ( 'NONE', #142, .T. ) ;
#47 = CYLINDRICAL_SURFACE ( 'NONE', #42, 3.000000000000000400 ) ;
#48 = CYLINDRICAL_SURFACE ( 'NONE', #33, 3.000000000000000400 ) ;
#49 = AXIS2_PLACEMENT_3D ( 'NONE', #119, #151, #145 ) ;
#50 = CALENDAR_DATE ( 2015, 11, 8 ) ;
#51 = AXIS2_PLACEMENT_3D ( 'NONE', #139, #174, #115 ) ;
#52 = FACE_OUTER_BOUND ( 'NONE', #141, .T. ) ;
#53 = VECTOR ( 'NONE', #143, 1000.000000000000000 ) ;
#54 = COORDINATED_UNIVERSAL_TIME_OFFSET ( 9, 0, .AHEAD. ) ;
#55 = COORDINATED_UNIVERSAL_TIME_OFFSET ( 9, 0, .AHEAD. ) ;
#56 = COORDINATED_UNIVERSAL_TIME_OFFSET ( 9, 0, .AHEAD. ) ;
#57 = VECTOR ( 'NONE', #149, 1000.000000000000000 ) ;
#58 = CC_DESIGN_APPROVAL ( #88, ( #90 ) ) ;
#59 = ORGANIZATION ( 'UNSPECIFIED', 'UNSPECIFIED', '' ) ;
#60 = FACE_OUTER_BOUND ( 'NONE', #134, .T. ) ;
#61 = APPROVAL_PERSON_ORGANIZATION ( #157, #88, #125 ) ;
#62 = FACE_OUTER_BOUND ( 'NONE', #112, .T. ) ;
#63 = CC_DESIGN_DATE_AND_TIME_ASSIGNMENT ( #6, #11, ( #34 ) ) ;
#64 = LOCAL_TIME ( 18, 39, 3.000000000000000000, #55 ) ;
#65 = ADVANCED_FACE ( 'NONE', ( #60 ), #118, .T. ) ;
#66 = CC_DESIGN_PERSON_AND_ORGANIZATION_ASSIGNMENT ( #8, #7, ( #34 ) ) ;
#67 = CC_DESIGN_PERSON_AND_ORGANIZATION_ASSIGNMENT ( #13, #12, ( #39 ) ) ;
#68 = ADVANCED_FACE ( 'NONE', ( #46 ), #159, .F. ) ;
#69 = CC_DESIGN_PERSON_AND_ORGANIZATION_ASSIGNMENT ( #15, #16, ( #39 ) ) ;
#70 = LOCAL_TIME ( 18, 39, 3.000000000000000000, #54 ) ;
#71 = PRODUCT_RELATED_PRODUCT_CATEGORY ( 'detail', '', ( #101 ) ) ;
#72 = LOCAL_TIME ( 18, 39, 3.000000000000000000, #37 ) ;
#73 = CC_DESIGN_DATE_AND_TIME_ASSIGNMENT ( #22, #24, ( #90 ) ) ;
#74 = LOCAL_TIME ( 18, 39, 3.000000000000000000, #56 ) ;
#75 = EDGE_CURVE ( 'NONE', #121, #120, #79, .T. ) ;
#76 = EDGE_CURVE ( 'NONE', #152, #120, #133, .T. ) ;
#77 = APPROVAL ( #20, 'UNSPECIFIED' ) ;
#78 = EDGE_CURVE ( 'NONE', #120, #121, #82, .T. ) ;
#79 = CIRCLE ( 'NONE', #49, 3.000000000000000400 ) ;
#80 = APPROVAL ( #5, 'UNSPECIFIED' ) ;
#81 = CC_DESIGN_PERSON_AND_ORGANIZATION_ASSIGNMENT ( #113, #23, ( #90 ) ) ;
#82 = CIRCLE ( 'NONE', #31, 3.000000000000000400 ) ;
#83 = EDGE_CURVE ( 'NONE', #147, #152, #92, .T. ) ;
#84 = ADVANCED_FACE ( 'NONE', ( #52 ), #47, .T. ) ;
#85 = LOCAL_TIME ( 18, 39, 3.000000000000000000, #43 ) ;
#86 = EDGE_CURVE ( 'NONE', #147, #121, #114, .T. ) ;
#87 = ADVANCED_FACE ( 'NONE', ( #62 ), #48, .T. ) ;
#88 = APPROVAL ( #135, 'UNSPECIFIED' ) ;
#89 = EDGE_CURVE ( 'NONE', #152, #147, #93, .T. ) ;
#90 = PRODUCT_DEFINITION ( 'UNKNOWN', '', #39, #100 ) ;
#91 = CC_DESIGN_PERSON_AND_ORGANIZATION_ASSIGNMENT ( #150, #153, ( #101 ) ) ;
#92 = CIRCLE ( 'NONE', #38, 3.000000000000000400 ) ;
#93 = CIRCLE ( 'NONE', #41, 3.000000000000000400 ) ;
#94 =( GEOMETRIC_REPRESENTATION_CONTEXT ( 3 ) GLOBAL_UNCERTAINTY_ASSIGNED_CONTEXT ( ( #96 ) ) GLOBAL_UNIT_ASSIGNED_CONTEXT ( ( #169, #106, #128 ) ) REPRESENTATION_CONTEXT ( 'NONE', 'WORKASPACE' ) );
#95 = ADVANCED_BREP_SHAPE_REPRESENTATION ( 'sone3D', ( #98, #36 ), #94 ) ;
#96 = UNCERTAINTY_MEASURE_WITH_UNIT (LENGTH_MEASURE( 1.000000000000000100E-005 ), #169, 'distance_accuracy_value', 'NONE');
#97 = PERSON ( 'UNSPECIFIED', 'UNSPECIFIED', 'UNSPECIFIED', ('UNSPECIFIED'), ('UNSPECIFIED'), ('UNSPECIFIED') ) ;
#98 = MANIFOLD_SOLID_BREP ( 'ÎÞ½ - µoµ1', #40 ) ;
#99 = PRODUCT_DEFINITION_SHAPE ( 'NONE', 'NONE',  #90 ) ;
#100 = DESIGN_CONTEXT ( 'detailed design', #2, 'design' ) ;
#101 = PRODUCT ( 'sone3D', 'sone3D', '', ( #104 ) ) ;
#102 = ORIENTED_EDGE ( 'NONE', *, *, #78, .T. ) ;
#103 = ORIENTED_EDGE ( 'NONE', *, *, #86, .F. ) ;
#104 = MECHANICAL_CONTEXT ( 'NONE', #1, 'mechanical' ) ;
#105 = ORIENTED_EDGE ( 'NONE', *, *, #76, .F. ) ;
#106 =( NAMED_UNIT ( * ) PLANE_ANGLE_UNIT ( ) SI_UNIT ( $, .RADIAN. ) );
#107 = DATE_AND_TIME ( #35, #85 ) ;
#108 = DIRECTION ( 'NONE',  ( -0.0000000000000000000, -0.0000000000000000000, -1.000000000000000000 ) ) ;
#109 = ORIENTED_EDGE ( 'NONE', *, *, #83, .T. ) ;
#110 = SHAPE_DEFINITION_REPRESENTATION ( #99, #95 ) ;
#111 = CARTESIAN_POINT ( 'NONE',  ( 3.000000000000000400, 3.673940397442060400E-016, 500.0000000000000000 ) ) ;
#112 = EDGE_LOOP ( 'NONE', ( #164, #131, #137, #105 ) ) ;
#113 = PERSON_AND_ORGANIZATION ( #97, #59 ) ;
#114 = LINE ( 'NONE', #138, #57 ) ;
#115 = DIRECTION ( 'NONE',  ( 1.000000000000000000, 0.0000000000000000000, -0.0000000000000000000 ) ) ;
#116 = ORIENTED_EDGE ( 'NONE', *, *, #89, .T. ) ;
#117 = DIRECTION ( 'NONE',  ( 0.0000000000000000000, 0.0000000000000000000, 1.000000000000000000 ) ) ;
#118 = PLANE ( 'NONE',  #51 ) ;
#119 = CARTESIAN_POINT ( 'NONE',  ( 0.0000000000000000000, 0.0000000000000000000, -500.0000000000000000 ) ) ;
#120 = VERTEX_POINT ( 'NONE', #161 ) ;
#121 = VERTEX_POINT ( 'NONE', #166 ) ;
#122 = DIRECTION ( 'NONE',  ( 1.000000000000000000, 0.0000000000000000000, 0.0000000000000000000 ) ) ;
#123 = DIRECTION ( 'NONE',  ( 0.0000000000000000000, 0.0000000000000000000, 1.000000000000000000 ) ) ;
#124 = DIRECTION ( 'NONE',  ( 1.000000000000000000, 0.0000000000000000000, 0.0000000000000000000 ) ) ;
#125 = APPROVAL_ROLE ( '' ) ;
#126 = APPROVAL_DATE_TIME ( #107, #88 ) ;
#127 = ORIENTED_EDGE ( 'NONE', *, *, #89, .F. ) ;
#128 =( NAMED_UNIT ( * ) SI_UNIT ( $, .STERADIAN. ) SOLID_ANGLE_UNIT ( ) );
#129 = CARTESIAN_POINT ( 'NONE',  ( -3.000000000000000400, 0.0000000000000000000, 500.0000000000000000 ) ) ;
#130 = DIRECTION ( 'NONE',  ( 0.0000000000000000000, 0.0000000000000000000, 1.000000000000000000 ) ) ;
#131 = ORIENTED_EDGE ( 'NONE', *, *, #86, .T. ) ;
#132 = CARTESIAN_POINT ( 'NONE',  ( 0.0000000000000000000, 0.0000000000000000000, 500.0000000000000000 ) ) ;
#133 = LINE ( 'NONE', #129, #53 ) ;
#134 = EDGE_LOOP ( 'NONE', ( #116, #109 ) ) ;
#135 = APPROVAL_STATUS ( 'not_yet_approved' ) ;
#136 = APPLICATION_PROTOCOL_DEFINITION ( 'international standard', 'config_control_design', 1994, #2 ) ;
#137 = ORIENTED_EDGE ( 'NONE', *, *, #75, .T. ) ;
#138 = CARTESIAN_POINT ( 'NONE',  ( 3.000000000000000400, 3.673940397442060400E-016, 500.0000000000000000 ) ) ;
#139 = CARTESIAN_POINT ( 'NONE',  ( 0.0000000000000000000, 0.0000000000000000000, 500.0000000000000000 ) ) ;
#140 = DIRECTION ( 'NONE',  ( -1.000000000000000000, 0.0000000000000000000, 0.0000000000000000000 ) ) ;
#141 = EDGE_LOOP ( 'NONE', ( #103, #127, #167, #102 ) ) ;
#142 = EDGE_LOOP ( 'NONE', ( #175, #173 ) ) ;
#143 = DIRECTION ( 'NONE',  ( -0.0000000000000000000, -0.0000000000000000000, -1.000000000000000000 ) ) ;
#144 = DIRECTION ( 'NONE',  ( 1.000000000000000000, 0.0000000000000000000, -0.0000000000000000000 ) ) ;
#145 = DIRECTION ( 'NONE',  ( 1.000000000000000000, 0.0000000000000000000, 0.0000000000000000000 ) ) ;
#146 = CARTESIAN_POINT ( 'NONE',  ( 0.0000000000000000000, 0.0000000000000000000, -500.0000000000000000 ) ) ;
#147 = VERTEX_POINT ( 'NONE', #111 ) ;
#148 = DIRECTION ( 'NONE',  ( 1.000000000000000000, 0.0000000000000000000, 0.0000000000000000000 ) ) ;
#149 = DIRECTION ( 'NONE',  ( -0.0000000000000000000, -0.0000000000000000000, -1.000000000000000000 ) ) ;
#150 = PERSON_AND_ORGANIZATION ( #97, #59 ) ;
#151 = DIRECTION ( 'NONE',  ( 0.0000000000000000000, 0.0000000000000000000, 1.000000000000000000 ) ) ;
#152 = VERTEX_POINT ( 'NONE', #165 ) ;
#153 = PERSON_AND_ORGANIZATION_ROLE ( 'design_owner' ) ;
#154 = DIRECTION ( 'NONE',  ( -1.000000000000000000, 0.0000000000000000000, 0.0000000000000000000 ) ) ;
#155 = CARTESIAN_POINT ( 'NONE',  ( 0.0000000000000000000, 0.0000000000000000000, -500.0000000000000000 ) ) ;
#156 = DIRECTION ( 'NONE',  ( 0.0000000000000000000, 0.0000000000000000000, 1.000000000000000000 ) ) ;
#157 = PERSON_AND_ORGANIZATION ( #97, #59 ) ;
#158 = DIRECTION ( 'NONE',  ( 1.000000000000000000, 0.0000000000000000000, 0.0000000000000000000 ) ) ;
#159 = PLANE ( 'NONE',  #25 ) ;
#160 = DIRECTION ( 'NONE',  ( 0.0000000000000000000, 0.0000000000000000000, 1.000000000000000000 ) ) ;
#161 = CARTESIAN_POINT ( 'NONE',  ( -3.000000000000000400, 0.0000000000000000000, -500.0000000000000000 ) ) ;
#162 = DIRECTION ( 'NONE',  ( -0.0000000000000000000, -0.0000000000000000000, -1.000000000000000000 ) ) ;
#163 = CARTESIAN_POINT ( 'NONE',  ( 0.0000000000000000000, 0.0000000000000000000, 500.0000000000000000 ) ) ;
#164 = ORIENTED_EDGE ( 'NONE', *, *, #83, .F. ) ;
#165 = CARTESIAN_POINT ( 'NONE',  ( -3.000000000000000400, 0.0000000000000000000, 500.0000000000000000 ) ) ;
#166 = CARTESIAN_POINT ( 'NONE',  ( 3.000000000000000400, 3.673940397442060400E-016, -500.0000000000000000 ) ) ;
#167 = ORIENTED_EDGE ( 'NONE', *, *, #76, .T. ) ;
#168 = CARTESIAN_POINT ( 'NONE',  ( 0.0000000000000000000, 0.0000000000000000000, 500.0000000000000000 ) ) ;
#169 =( LENGTH_UNIT ( ) NAMED_UNIT ( * ) SI_UNIT ( .MILLI., .METRE. ) );
#170 = CARTESIAN_POINT ( 'NONE',  ( 0.0000000000000000000, 0.0000000000000000000, 500.0000000000000000 ) ) ;
#171 = APPLICATION_PROTOCOL_DEFINITION ( 'international standard', 'config_control_design', 1994, #1 ) ;
#172 = CARTESIAN_POINT ( 'NONE',  ( 0.0000000000000000000, 0.0000000000000000000, 0.0000000000000000000 ) ) ;
#173 = ORIENTED_EDGE ( 'NONE', *, *, #75, .F. ) ;
#174 = DIRECTION ( 'NONE',  ( 0.0000000000000000000, 0.0000000000000000000, 1.000000000000000000 ) ) ;
#175 = ORIENTED_EDGE ( 'NONE', *, *, #78, .F. ) ;
ENDSEC;
END-ISO-10303-21;
