ISO-10303-21;
HEADER;
FILE_DESCRIPTION (( 'STEP AP203' ),
    '1' );
FILE_NAME ('sone3D.STEP',
    '2015-08-11T09:38:35',
    ( '' ),
    ( '' ),
    'SwSTEP 2.0',
    'SolidWorks 2012',
    '' );
FILE_SCHEMA (( 'CONFIG_CONTROL_DESIGN' ));
ENDSEC;

DATA;
#1 = DIRECTION ( 'NONE',  ( 1.000000000000000000, 0.0000000000000000000, 0.0000000000000000000 ) ) ;
#2 = CARTESIAN_POINT ( 'NONE',  ( 2.500000000000000000, 3.061616997868383100E-016, 500.0000000000000000 ) ) ;
#3 = DIRECTION ( 'NONE',  ( -0.0000000000000000000, -0.0000000000000000000, -1.000000000000000000 ) ) ;
#4 = LINE ( 'NONE', #8, #113 ) ;
#5 = CARTESIAN_POINT ( 'NONE',  ( 0.0000000000000000000, 0.0000000000000000000, 500.0000000000000000 ) ) ;
#6 = CARTESIAN_POINT ( 'NONE',  ( -2.500000000000000000, 0.0000000000000000000, 500.0000000000000000 ) ) ;
#7 = DIRECTION ( 'NONE',  ( 0.0000000000000000000, 0.0000000000000000000, 1.000000000000000000 ) ) ;
#8 = CARTESIAN_POINT ( 'NONE',  ( -2.500000000000000000, 0.0000000000000000000, 500.0000000000000000 ) ) ;
#9 = ORIENTED_EDGE ( 'NONE', *, *, #151, .T. ) ;
#10 = ORIENTED_EDGE ( 'NONE', *, *, #148, .F. ) ;
#11 = PLANE ( 'NONE',  #116 ) ;
#12 = DIRECTION ( 'NONE',  ( 0.0000000000000000000, 0.0000000000000000000, 1.000000000000000000 ) ) ;
#13 = DIRECTION ( 'NONE',  ( 0.0000000000000000000, 0.0000000000000000000, 1.000000000000000000 ) ) ;
#14 = DIRECTION ( 'NONE',  ( 1.000000000000000000, 0.0000000000000000000, 0.0000000000000000000 ) ) ;
#15 = ORIENTED_EDGE ( 'NONE', *, *, #151, .F. ) ;
#16 = ORIENTED_EDGE ( 'NONE', *, *, #136, .T. ) ;
#17 = DIRECTION ( 'NONE',  ( 1.000000000000000000, 0.0000000000000000000, -0.0000000000000000000 ) ) ;
#18 = DIRECTION ( 'NONE',  ( 1.000000000000000000, 0.0000000000000000000, 0.0000000000000000000 ) ) ;
#19 = CARTESIAN_POINT ( 'NONE',  ( 0.0000000000000000000, 0.0000000000000000000, -500.0000000000000000 ) ) ;
#20 = CARTESIAN_POINT ( 'NONE',  ( 0.0000000000000000000, 0.0000000000000000000, 500.0000000000000000 ) ) ;
#21 = DIRECTION ( 'NONE',  ( -1.000000000000000000, 0.0000000000000000000, 0.0000000000000000000 ) ) ;
#22 = PLANE ( 'NONE',  #123 ) ;
#23 = DIRECTION ( 'NONE',  ( 0.0000000000000000000, 0.0000000000000000000, 1.000000000000000000 ) ) ;
#24 = CARTESIAN_POINT ( 'NONE',  ( 0.0000000000000000000, 0.0000000000000000000, 500.0000000000000000 ) ) ;
#25 = DIRECTION ( 'NONE',  ( 1.000000000000000000, 0.0000000000000000000, 0.0000000000000000000 ) ) ;
#26 = CARTESIAN_POINT ( 'NONE',  ( 0.0000000000000000000, 0.0000000000000000000, -500.0000000000000000 ) ) ;
#27 = CARTESIAN_POINT ( 'NONE',  ( 0.0000000000000000000, 0.0000000000000000000, 500.0000000000000000 ) ) ;
#28 = DIRECTION ( 'NONE',  ( -0.0000000000000000000, -0.0000000000000000000, -1.000000000000000000 ) ) ;
#29 = DIRECTION ( 'NONE',  ( 0.0000000000000000000, 0.0000000000000000000, 1.000000000000000000 ) ) ;
#30 = DIRECTION ( 'NONE',  ( 0.0000000000000000000, 0.0000000000000000000, 1.000000000000000000 ) ) ;
#31 = CARTESIAN_POINT ( 'NONE',  ( 2.500000000000000000, 3.061616997868383100E-016, 500.0000000000000000 ) ) ;
#32 = LINE ( 'NONE', #31, #127 ) ;
#33 =( NAMED_UNIT ( * ) PLANE_ANGLE_UNIT ( ) SI_UNIT ( $, .RADIAN. ) );
#34 =( NAMED_UNIT ( * ) SI_UNIT ( $, .STERADIAN. ) SOLID_ANGLE_UNIT ( ) );
#35 = DIRECTION ( 'NONE',  ( -0.0000000000000000000, -0.0000000000000000000, -1.000000000000000000 ) ) ;
#36 = DIRECTION ( 'NONE',  ( 1.000000000000000000, 0.0000000000000000000, -0.0000000000000000000 ) ) ;
#37 =( LENGTH_UNIT ( ) NAMED_UNIT ( * ) SI_UNIT ( .MILLI., .METRE. ) );
#38 = DIRECTION ( 'NONE',  ( 0.0000000000000000000, 0.0000000000000000000, 1.000000000000000000 ) ) ;
#39 = PERSON_AND_ORGANIZATION_ROLE ( 'design_owner' ) ;
#40 = PERSON_AND_ORGANIZATION ( #170, #115 ) ;
#41 = PERSON_AND_ORGANIZATION ( #170, #115 ) ;
#42 = APPROVAL_ROLE ( '' ) ;
#43 = APPLICATION_PROTOCOL_DEFINITION ( 'international standard', 'config_control_design', 1994, #166 ) ;
#44 = MECHANICAL_CONTEXT ( 'NONE', #166, 'mechanical' ) ;
#45 = ORIENTED_EDGE ( 'NONE', *, *, #136, .F. ) ;
#46 = CARTESIAN_POINT ( 'NONE',  ( -2.500000000000000000, 0.0000000000000000000, -500.0000000000000000 ) ) ;
#47 = APPLICATION_PROTOCOL_DEFINITION ( 'international standard', 'config_control_design', 1994, #167 ) ;
#48 = CARTESIAN_POINT ( 'NONE',  ( 0.0000000000000000000, 0.0000000000000000000, 0.0000000000000000000 ) ) ;
#49 = CARTESIAN_POINT ( 'NONE',  ( 2.500000000000000000, 3.061616997868383100E-016, -500.0000000000000000 ) ) ;
#50 = ORIENTED_EDGE ( 'NONE', *, *, #154, .F. ) ;
#51 = ORIENTED_EDGE ( 'NONE', *, *, #163, .T. ) ;
#52 = APPROVAL_STATUS ( 'not_yet_approved' ) ;
#53 = CARTESIAN_POINT ( 'NONE',  ( 0.0000000000000000000, 0.0000000000000000000, -500.0000000000000000 ) ) ;
#54 = PERSON_AND_ORGANIZATION ( #170, #115 ) ;
#55 = PERSON_AND_ORGANIZATION_ROLE ( 'design_supplier' ) ;
#56 = SECURITY_CLASSIFICATION_LEVEL ( 'unclassified' ) ;
#57 = PERSON_AND_ORGANIZATION ( #170, #115 ) ;
#58 = PERSON_AND_ORGANIZATION_ROLE ( 'classification_officer' ) ;
#59 = DATE_AND_TIME ( #99, #137 ) ;
#60 = DATE_TIME_ROLE ( 'classification_date' ) ;
#61 = PERSON_AND_ORGANIZATION ( #170, #115 ) ;
#62 = APPROVAL_STATUS ( 'not_yet_approved' ) ;
#63 = APPROVAL_ROLE ( '' ) ;
#64 = DATE_AND_TIME ( #124, #135 ) ;
#65 = APPROVAL_DATE_TIME ( #64, #138 ) ;
#66 = PERSON_AND_ORGANIZATION_ROLE ( 'creator' ) ;
#67 = DATE_AND_TIME ( #128, #147 ) ;
#68 = DATE_TIME_ROLE ( 'creation_date' ) ;
#69 = PERSON_AND_ORGANIZATION ( #170, #115 ) ;
#70 = APPROVAL_STATUS ( 'not_yet_approved' ) ;
#71 = APPROVAL_ROLE ( '' ) ;
#72 = DATE_AND_TIME ( #114, #141 ) ;
#73 = APPROVAL_DATE_TIME ( #72, #145 ) ;
#74 = PERSON_AND_ORGANIZATION ( #170, #115 ) ;
#75 = PERSON_AND_ORGANIZATION_ROLE ( 'creator' ) ;
#76 = APPROVAL_DATE_TIME ( #77, #150 ) ;
#77 = DATE_AND_TIME ( #97, #155 ) ;
#78 = PERSON_AND_ORGANIZATION ( #170, #115 ) ;
#79 = ORIENTED_EDGE ( 'NONE', *, *, #146, .F. ) ;
#80 = VERTEX_POINT ( 'NONE', #46 ) ;
#81 = VERTEX_POINT ( 'NONE', #49 ) ;
#82 = VERTEX_POINT ( 'NONE', #6 ) ;
#83 = VERTEX_POINT ( 'NONE', #2 ) ;
#84 = EDGE_LOOP ( 'NONE', ( #88, #79, #16, #9 ) ) ;
#85 = EDGE_LOOP ( 'NONE', ( #50, #51, #94, #45 ) ) ;
#86 = EDGE_LOOP ( 'NONE', ( #89, #90 ) ) ;
#87 = EDGE_LOOP ( 'NONE', ( #15, #10 ) ) ;
#88 = ORIENTED_EDGE ( 'NONE', *, *, #163, .F. ) ;
#89 = ORIENTED_EDGE ( 'NONE', *, *, #146, .T. ) ;
#90 = ORIENTED_EDGE ( 'NONE', *, *, #154, .T. ) ;
#91 = SHAPE_DEFINITION_REPRESENTATION ( #173, #169 ) ;
#92 = DIRECTION ( 'NONE',  ( 1.000000000000000000, 0.0000000000000000000, 0.0000000000000000000 ) ) ;
#93 = CARTESIAN_POINT ( 'NONE',  ( 0.0000000000000000000, 0.0000000000000000000, 500.0000000000000000 ) ) ;
#94 = ORIENTED_EDGE ( 'NONE', *, *, #148, .T. ) ;
#95 = DIRECTION ( 'NONE',  ( -0.0000000000000000000, -0.0000000000000000000, -1.000000000000000000 ) ) ;
#96 = DIRECTION ( 'NONE',  ( -1.000000000000000000, 0.0000000000000000000, 0.0000000000000000000 ) ) ;
#97 = CALENDAR_DATE ( 2015, 11, 8 ) ;
#98 = FACE_OUTER_BOUND ( 'NONE', #87, .T. ) ;
#99 = CALENDAR_DATE ( 2015, 11, 8 ) ;
#100 = CYLINDRICAL_SURFACE ( 'NONE', #110, 2.500000000000000000 ) ;
#101 = FACE_OUTER_BOUND ( 'NONE', #84, .T. ) ;
#102 = AXIS2_PLACEMENT_3D ( 'NONE', #48, #38, #92 ) ;
#103 = AXIS2_PLACEMENT_3D ( 'NONE', #20, #28, #21 ) ;
#104 = PRODUCT_DEFINITION_FORMATION_WITH_SPECIFIED_SOURCE ( 'ANY', '', #175, .NOT_KNOWN. ) ;
#105 = COORDINATED_UNIVERSAL_TIME_OFFSET ( 9, 0, .AHEAD. ) ;
#106 = COORDINATED_UNIVERSAL_TIME_OFFSET ( 9, 0, .AHEAD. ) ;
#107 = CC_DESIGN_APPROVAL ( #150, ( #165 ) ) ;
#108 = COORDINATED_UNIVERSAL_TIME_OFFSET ( 9, 0, .AHEAD. ) ;
#109 = APPROVAL_PERSON_ORGANIZATION ( #41, #150, #42 ) ;
#110 = AXIS2_PLACEMENT_3D ( 'NONE', #5, #95, #96 ) ;
#111 = COORDINATED_UNIVERSAL_TIME_OFFSET ( 9, 0, .AHEAD. ) ;
#112 = AXIS2_PLACEMENT_3D ( 'NONE', #26, #23, #14 ) ;
#113 = VECTOR ( 'NONE', #3, 1000.000000000000000 ) ;
#114 = CALENDAR_DATE ( 2015, 11, 8 ) ;
#115 = ORGANIZATION ( 'UNSPECIFIED', 'UNSPECIFIED', '' ) ;
#116 = AXIS2_PLACEMENT_3D ( 'NONE', #27, #12, #17 ) ;
#117 = COORDINATED_UNIVERSAL_TIME_OFFSET ( 9, 0, .AHEAD. ) ;
#118 = AXIS2_PLACEMENT_3D ( 'NONE', #24, #30, #25 ) ;
#119 = CC_DESIGN_SECURITY_CLASSIFICATION ( #134, ( #104 ) ) ;
#120 = FACE_OUTER_BOUND ( 'NONE', #85, .T. ) ;
#121 = CC_DESIGN_APPROVAL ( #138, ( #134 ) ) ;
#122 = AXIS2_PLACEMENT_3D ( 'NONE', #53, #29, #18 ) ;
#123 = AXIS2_PLACEMENT_3D ( 'NONE', #19, #13, #36 ) ;
#124 = CALENDAR_DATE ( 2015, 11, 8 ) ;
#125 = CC_DESIGN_APPROVAL ( #145, ( #104 ) ) ;
#126 = CYLINDRICAL_SURFACE ( 'NONE', #103, 2.500000000000000000 ) ;
#127 = VECTOR ( 'NONE', #35, 1000.000000000000000 ) ;
#128 = CALENDAR_DATE ( 2015, 11, 8 ) ;
#129 = FACE_OUTER_BOUND ( 'NONE', #86, .T. ) ;
#130 = APPROVAL_PERSON_ORGANIZATION ( #69, #145, #71 ) ;
#131 = APPROVAL_PERSON_ORGANIZATION ( #61, #138, #63 ) ;
#132 = AXIS2_PLACEMENT_3D ( 'NONE', #93, #7, #1 ) ;
#133 = CLOSED_SHELL ( 'NONE', ( #153, #143, #149, #158 ) ) ;
#134 = SECURITY_CLASSIFICATION ( '', '', #56 ) ;
#135 = LOCAL_TIME ( 18, 38, 35.00000000000000000, #108 ) ;
#136 = EDGE_CURVE ( 'NONE', #82, #80, #4, .T. ) ;
#137 = LOCAL_TIME ( 18, 38, 35.00000000000000000, #106 ) ;
#138 = APPROVAL ( #62, 'UNSPECIFIED' ) ;
#139 = CC_DESIGN_DATE_AND_TIME_ASSIGNMENT ( #59, #60, ( #134 ) ) ;
#140 = PRODUCT_RELATED_PRODUCT_CATEGORY ( 'detail', '', ( #175 ) ) ;
#141 = LOCAL_TIME ( 18, 38, 35.00000000000000000, #117 ) ;
#142 = CC_DESIGN_PERSON_AND_ORGANIZATION_ASSIGNMENT ( #54, #55, ( #104 ) ) ;
#143 = ADVANCED_FACE ( 'NONE', ( #101 ), #100, .T. ) ;
#144 = CC_DESIGN_PERSON_AND_ORGANIZATION_ASSIGNMENT ( #57, #58, ( #134 ) ) ;
#145 = APPROVAL ( #70, 'UNSPECIFIED' ) ;
#146 = EDGE_CURVE ( 'NONE', #82, #83, #162, .T. ) ;
#147 = LOCAL_TIME ( 18, 38, 35.00000000000000000, #111 ) ;
#148 = EDGE_CURVE ( 'NONE', #81, #80, #159, .T. ) ;
#149 = ADVANCED_FACE ( 'NONE', ( #129 ), #11, .T. ) ;
#150 = APPROVAL ( #52, 'UNSPECIFIED' ) ;
#151 = EDGE_CURVE ( 'NONE', #80, #81, #152, .T. ) ;
#152 = CIRCLE ( 'NONE', #112, 2.500000000000000000 ) ;
#153 = ADVANCED_FACE ( 'NONE', ( #120 ), #126, .T. ) ;
#154 = EDGE_CURVE ( 'NONE', #83, #82, #157, .T. ) ;
#155 = LOCAL_TIME ( 18, 38, 35.00000000000000000, #105 ) ;
#156 = CC_DESIGN_PERSON_AND_ORGANIZATION_ASSIGNMENT ( #74, #75, ( #104 ) ) ;
#157 = CIRCLE ( 'NONE', #118, 2.500000000000000000 ) ;
#158 = ADVANCED_FACE ( 'NONE', ( #98 ), #22, .F. ) ;
#159 = CIRCLE ( 'NONE', #122, 2.500000000000000000 ) ;
#160 = CC_DESIGN_PERSON_AND_ORGANIZATION_ASSIGNMENT ( #40, #39, ( #175 ) ) ;
#161 = CC_DESIGN_PERSON_AND_ORGANIZATION_ASSIGNMENT ( #78, #66, ( #165 ) ) ;
#162 = CIRCLE ( 'NONE', #132, 2.500000000000000000 ) ;
#163 = EDGE_CURVE ( 'NONE', #83, #81, #32, .T. ) ;
#164 = CC_DESIGN_DATE_AND_TIME_ASSIGNMENT ( #67, #68, ( #165 ) ) ;
#165 = PRODUCT_DEFINITION ( 'UNKNOWN', '', #104, #174 ) ;
#166 = APPLICATION_CONTEXT ( 'configuration controlled 3d designs of mechanical parts and assemblies' ) ;
#167 = APPLICATION_CONTEXT ( 'configuration controlled 3d designs of mechanical parts and assemblies' ) ;
#168 =( GEOMETRIC_REPRESENTATION_CONTEXT ( 3 ) GLOBAL_UNCERTAINTY_ASSIGNED_CONTEXT ( ( #171 ) ) GLOBAL_UNIT_ASSIGNED_CONTEXT ( ( #37, #33, #34 ) ) REPRESENTATION_CONTEXT ( 'NONE', 'WORKASPACE' ) );
#169 = ADVANCED_BREP_SHAPE_REPRESENTATION ( 'sone3D', ( #172, #102 ), #168 ) ;
#170 = PERSON ( 'UNSPECIFIED', 'UNSPECIFIED', 'UNSPECIFIED', ('UNSPECIFIED'), ('UNSPECIFIED'), ('UNSPECIFIED') ) ;
#171 = UNCERTAINTY_MEASURE_WITH_UNIT (LENGTH_MEASURE( 1.000000000000000100E-005 ), #37, 'distance_accuracy_value', 'NONE');
#172 = MANIFOLD_SOLID_BREP ( 'ÎÞ½ - µoµ1', #133 ) ;
#173 = PRODUCT_DEFINITION_SHAPE ( 'NONE', 'NONE',  #165 ) ;
#174 = DESIGN_CONTEXT ( 'detailed design', #167, 'design' ) ;
#175 = PRODUCT ( 'sone3D', 'sone3D', '', ( #44 ) ) ;
ENDSEC;
END-ISO-10303-21;
