ISO-10303-21;
HEADER;
FILE_DESCRIPTION (( 'STEP AP203' ),
    '1' );
FILE_NAME ('sone3D.STEP',
    '2015-08-11T09:44:05',
    ( '' ),
    ( '' ),
    'SwSTEP 2.0',
    'SolidWorks 2012',
    '' );
FILE_SCHEMA (( 'CONFIG_CONTROL_DESIGN' ));
ENDSEC;

DATA;
#1 = PRODUCT ( 'sone3D', 'sone3D', '', ( #132 ) ) ;
#2 =( GEOMETRIC_REPRESENTATION_CONTEXT ( 3 ) GLOBAL_UNCERTAINTY_ASSIGNED_CONTEXT ( ( #8 ) ) GLOBAL_UNIT_ASSIGNED_CONTEXT ( ( #130, #143, #82 ) ) REPRESENTATION_CONTEXT ( 'NONE', 'WORKASPACE' ) );
#3 = DESIGN_CONTEXT ( 'detailed design', #78, 'design' ) ;
#4 = MANIFOLD_SOLID_BREP ( 'ÎÞ½ - µoµ1', #29 ) ;
#5 = PRODUCT_DEFINITION_SHAPE ( 'NONE', 'NONE',  #76 ) ;
#6 = ADVANCED_BREP_SHAPE_REPRESENTATION ( 'sone3D', ( #4, #44 ), #2 ) ;
#7 = PERSON ( 'UNSPECIFIED', 'UNSPECIFIED', 'UNSPECIFIED', ('UNSPECIFIED'), ('UNSPECIFIED'), ('UNSPECIFIED') ) ;
#8 = UNCERTAINTY_MEASURE_WITH_UNIT (LENGTH_MEASURE( 1.000000000000000100E-005 ), #130, 'distance_accuracy_value', 'NONE');
#9 = SECURITY_CLASSIFICATION ( '', '', #156 ) ;
#10 = VECTOR ( 'NONE', #108, 1000.000000000000000 ) ;
#11 = FACE_OUTER_BOUND ( 'NONE', #99, .T. ) ;
#12 = CALENDAR_DATE ( 2015, 11, 8 ) ;
#13 = AXIS2_PLACEMENT_3D ( 'NONE', #103, #128, #139 ) ;
#14 = CALENDAR_DATE ( 2015, 11, 8 ) ;
#15 = CALENDAR_DATE ( 2015, 11, 8 ) ;
#16 = AXIS2_PLACEMENT_3D ( 'NONE', #124, #145, #85 ) ;
#17 = FACE_OUTER_BOUND ( 'NONE', #100, .T. ) ;
#18 = CC_DESIGN_APPROVAL ( #73, ( #76 ) ) ;
#19 = CALENDAR_DATE ( 2015, 11, 8 ) ;
#20 = AXIS2_PLACEMENT_3D ( 'NONE', #121, #106, #118 ) ;
#21 = COORDINATED_UNIVERSAL_TIME_OFFSET ( 9, 0, .AHEAD. ) ;
#22 = ORGANIZATION ( 'UNSPECIFIED', 'UNSPECIFIED', '' ) ;
#23 = COORDINATED_UNIVERSAL_TIME_OFFSET ( 9, 0, .AHEAD. ) ;
#24 = AXIS2_PLACEMENT_3D ( 'NONE', #146, #140, #110 ) ;
#25 = CC_DESIGN_APPROVAL ( #54, ( #9 ) ) ;
#26 = APPROVAL_PERSON_ORGANIZATION ( #164, #54, #174 ) ;
#27 = AXIS2_PLACEMENT_3D ( 'NONE', #152, #89, #91 ) ;
#28 = APPROVAL_PERSON_ORGANIZATION ( #129, #73, #96 ) ;
#29 = CLOSED_SHELL ( 'NONE', ( #69, #50, #61, #59 ) ) ;
#30 = CC_DESIGN_SECURITY_CLASSIFICATION ( #9, ( #40 ) ) ;
#31 = COORDINATED_UNIVERSAL_TIME_OFFSET ( 9, 0, .AHEAD. ) ;
#32 = AXIS2_PLACEMENT_3D ( 'NONE', #127, #109, #98 ) ;
#33 = COORDINATED_UNIVERSAL_TIME_OFFSET ( 9, 0, .AHEAD. ) ;
#34 = COORDINATED_UNIVERSAL_TIME_OFFSET ( 9, 0, .AHEAD. ) ;
#35 = FACE_OUTER_BOUND ( 'NONE', #101, .T. ) ;
#36 = APPROVAL_PERSON_ORGANIZATION ( #165, #77, #167 ) ;
#37 = AXIS2_PLACEMENT_3D ( 'NONE', #123, #122, #116 ) ;
#38 = CYLINDRICAL_SURFACE ( 'NONE', #43, 15.00000000000000000 ) ;
#39 = CALENDAR_DATE ( 2015, 11, 8 ) ;
#40 = PRODUCT_DEFINITION_FORMATION_WITH_SPECIFIED_SOURCE ( 'ANY', '', #1, .NOT_KNOWN. ) ;
#41 = CYLINDRICAL_SURFACE ( 'NONE', #32, 15.00000000000000000 ) ;
#42 = CC_DESIGN_APPROVAL ( #77, ( #40 ) ) ;
#43 = AXIS2_PLACEMENT_3D ( 'NONE', #84, #102, #117 ) ;
#44 = AXIS2_PLACEMENT_3D ( 'NONE', #86, #81, #97 ) ;
#45 = FACE_OUTER_BOUND ( 'NONE', #138, .T. ) ;
#46 = VECTOR ( 'NONE', #93, 1000.000000000000000 ) ;
#47 = CIRCLE ( 'NONE', #24, 15.00000000000000000 ) ;
#48 = LOCAL_TIME ( 18, 44, 5.000000000000000000, #23 ) ;
#49 = LOCAL_TIME ( 18, 44, 5.000000000000000000, #34 ) ;
#50 = ADVANCED_FACE ( 'NONE', ( #17 ), #38, .T. ) ;
#51 = CC_DESIGN_PERSON_AND_ORGANIZATION_ASSIGNMENT ( #173, #171, ( #76 ) ) ;
#52 = EDGE_CURVE ( 'NONE', #92, #105, #131, .T. ) ;
#53 = EDGE_CURVE ( 'NONE', #105, #135, #56, .T. ) ;
#54 = APPROVAL ( #163, 'UNSPECIFIED' ) ;
#55 = CC_DESIGN_PERSON_AND_ORGANIZATION_ASSIGNMENT ( #155, #157, ( #40 ) ) ;
#56 = CIRCLE ( 'NONE', #37, 15.00000000000000000 ) ;
#57 = EDGE_CURVE ( 'NONE', #92, #80, #47, .T. ) ;
#58 = CC_DESIGN_PERSON_AND_ORGANIZATION_ASSIGNMENT ( #160, #159, ( #9 ) ) ;
#59 = ADVANCED_FACE ( 'NONE', ( #35 ), #144, .F. ) ;
#60 = CC_DESIGN_PERSON_AND_ORGANIZATION_ASSIGNMENT ( #175, #158, ( #40 ) ) ;
#61 = ADVANCED_FACE ( 'NONE', ( #45 ), #125, .T. ) ;
#62 = LOCAL_TIME ( 18, 44, 5.000000000000000000, #31 ) ;
#63 = LOCAL_TIME ( 18, 44, 5.000000000000000000, #33 ) ;
#64 = LOCAL_TIME ( 18, 44, 5.000000000000000000, #21 ) ;
#65 = CC_DESIGN_DATE_AND_TIME_ASSIGNMENT ( #162, #161, ( #9 ) ) ;
#66 = PRODUCT_RELATED_PRODUCT_CATEGORY ( 'detail', '', ( #1 ) ) ;
#67 = EDGE_CURVE ( 'NONE', #80, #135, #87, .T. ) ;
#68 = CC_DESIGN_DATE_AND_TIME_ASSIGNMENT ( #172, #166, ( #76 ) ) ;
#69 = ADVANCED_FACE ( 'NONE', ( #11 ), #41, .T. ) ;
#70 = CIRCLE ( 'NONE', #20, 15.00000000000000000 ) ;
#71 = CC_DESIGN_PERSON_AND_ORGANIZATION_ASSIGNMENT ( #88, #134, ( #1 ) ) ;
#72 = CIRCLE ( 'NONE', #13, 15.00000000000000000 ) ;
#73 = APPROVAL ( #150, 'UNSPECIFIED' ) ;
#74 = EDGE_CURVE ( 'NONE', #80, #92, #70, .T. ) ;
#75 = EDGE_CURVE ( 'NONE', #135, #105, #72, .T. ) ;
#76 = PRODUCT_DEFINITION ( 'UNKNOWN', '', #40, #3 ) ;
#77 = APPROVAL ( #168, 'UNSPECIFIED' ) ;
#78 = APPLICATION_CONTEXT ( 'configuration controlled 3d designs of mechanical parts and assemblies' ) ;
#79 = APPLICATION_CONTEXT ( 'configuration controlled 3d designs of mechanical parts and assemblies' ) ;
#80 = VERTEX_POINT ( 'NONE', #126 ) ;
#81 = DIRECTION ( 'NONE',  ( 0.0000000000000000000, 0.0000000000000000000, 1.000000000000000000 ) ) ;
#82 =( NAMED_UNIT ( * ) SI_UNIT ( $, .STERADIAN. ) SOLID_ANGLE_UNIT ( ) );
#83 = ORIENTED_EDGE ( 'NONE', *, *, #52, .F. ) ;
#84 = CARTESIAN_POINT ( 'NONE',  ( 0.0000000000000000000, 0.0000000000000000000, 500.0000000000000000 ) ) ;
#85 = DIRECTION ( 'NONE',  ( 1.000000000000000000, 0.0000000000000000000, -0.0000000000000000000 ) ) ;
#86 = CARTESIAN_POINT ( 'NONE',  ( 0.0000000000000000000, 0.0000000000000000000, 0.0000000000000000000 ) ) ;
#87 = LINE ( 'NONE', #94, #10 ) ;
#88 = PERSON_AND_ORGANIZATION ( #7, #22 ) ;
#89 = DIRECTION ( 'NONE',  ( 0.0000000000000000000, 0.0000000000000000000, 1.000000000000000000 ) ) ;
#90 = APPLICATION_PROTOCOL_DEFINITION ( 'international standard', 'config_control_design', 1994, #78 ) ;
#91 = DIRECTION ( 'NONE',  ( 1.000000000000000000, 0.0000000000000000000, -0.0000000000000000000 ) ) ;
#92 = VERTEX_POINT ( 'NONE', #112 ) ;
#93 = DIRECTION ( 'NONE',  ( -0.0000000000000000000, -0.0000000000000000000, -1.000000000000000000 ) ) ;
#94 = CARTESIAN_POINT ( 'NONE',  ( 15.00000000000000000, 1.836970198721029600E-015, 500.0000000000000000 ) ) ;
#95 = APPROVAL_DATE_TIME ( #136, #73 ) ;
#96 = APPROVAL_ROLE ( '' ) ;
#97 = DIRECTION ( 'NONE',  ( 1.000000000000000000, 0.0000000000000000000, 0.0000000000000000000 ) ) ;
#98 = DIRECTION ( 'NONE',  ( -1.000000000000000000, 0.0000000000000000000, 0.0000000000000000000 ) ) ;
#99 = EDGE_LOOP ( 'NONE', ( #137, #149, #114, #83 ) ) ;
#100 = EDGE_LOOP ( 'NONE', ( #113, #151, #133, #120 ) ) ;
#101 = EDGE_LOOP ( 'NONE', ( #104, #141 ) ) ;
#102 = DIRECTION ( 'NONE',  ( -0.0000000000000000000, -0.0000000000000000000, -1.000000000000000000 ) ) ;
#103 = CARTESIAN_POINT ( 'NONE',  ( 0.0000000000000000000, 0.0000000000000000000, -500.0000000000000000 ) ) ;
#104 = ORIENTED_EDGE ( 'NONE', *, *, #53, .F. ) ;
#105 = VERTEX_POINT ( 'NONE', #142 ) ;
#106 = DIRECTION ( 'NONE',  ( 0.0000000000000000000, 0.0000000000000000000, 1.000000000000000000 ) ) ;
#107 = SHAPE_DEFINITION_REPRESENTATION ( #5, #6 ) ;
#108 = DIRECTION ( 'NONE',  ( -0.0000000000000000000, -0.0000000000000000000, -1.000000000000000000 ) ) ;
#109 = DIRECTION ( 'NONE',  ( -0.0000000000000000000, -0.0000000000000000000, -1.000000000000000000 ) ) ;
#110 = DIRECTION ( 'NONE',  ( 1.000000000000000000, 0.0000000000000000000, 0.0000000000000000000 ) ) ;
#111 = CARTESIAN_POINT ( 'NONE',  ( 15.00000000000000000, 1.836970198721029600E-015, -500.0000000000000000 ) ) ;
#112 = CARTESIAN_POINT ( 'NONE',  ( -15.00000000000000000, 0.0000000000000000000, 500.0000000000000000 ) ) ;
#113 = ORIENTED_EDGE ( 'NONE', *, *, #67, .F. ) ;
#114 = ORIENTED_EDGE ( 'NONE', *, *, #75, .T. ) ;
#115 = ORIENTED_EDGE ( 'NONE', *, *, #57, .T. ) ;
#116 = DIRECTION ( 'NONE',  ( 1.000000000000000000, 0.0000000000000000000, 0.0000000000000000000 ) ) ;
#117 = DIRECTION ( 'NONE',  ( -1.000000000000000000, 0.0000000000000000000, 0.0000000000000000000 ) ) ;
#118 = DIRECTION ( 'NONE',  ( 1.000000000000000000, 0.0000000000000000000, 0.0000000000000000000 ) ) ;
#119 = CARTESIAN_POINT ( 'NONE',  ( -15.00000000000000000, 0.0000000000000000000, 500.0000000000000000 ) ) ;
#120 = ORIENTED_EDGE ( 'NONE', *, *, #53, .T. ) ;
#121 = CARTESIAN_POINT ( 'NONE',  ( 0.0000000000000000000, 0.0000000000000000000, 500.0000000000000000 ) ) ;
#122 = DIRECTION ( 'NONE',  ( 0.0000000000000000000, 0.0000000000000000000, 1.000000000000000000 ) ) ;
#123 = CARTESIAN_POINT ( 'NONE',  ( 0.0000000000000000000, 0.0000000000000000000, -500.0000000000000000 ) ) ;
#124 = CARTESIAN_POINT ( 'NONE',  ( 0.0000000000000000000, 0.0000000000000000000, 500.0000000000000000 ) ) ;
#125 = PLANE ( 'NONE',  #16 ) ;
#126 = CARTESIAN_POINT ( 'NONE',  ( 15.00000000000000000, 1.836970198721029600E-015, 500.0000000000000000 ) ) ;
#127 = CARTESIAN_POINT ( 'NONE',  ( 0.0000000000000000000, 0.0000000000000000000, 500.0000000000000000 ) ) ;
#128 = DIRECTION ( 'NONE',  ( 0.0000000000000000000, 0.0000000000000000000, 1.000000000000000000 ) ) ;
#129 = PERSON_AND_ORGANIZATION ( #7, #22 ) ;
#130 =( LENGTH_UNIT ( ) NAMED_UNIT ( * ) SI_UNIT ( .MILLI., .METRE. ) );
#131 = LINE ( 'NONE', #119, #46 ) ;
#132 = MECHANICAL_CONTEXT ( 'NONE', #79, 'mechanical' ) ;
#133 = ORIENTED_EDGE ( 'NONE', *, *, #52, .T. ) ;
#134 = PERSON_AND_ORGANIZATION_ROLE ( 'design_owner' ) ;
#135 = VERTEX_POINT ( 'NONE', #111 ) ;
#136 = DATE_AND_TIME ( #15, #49 ) ;
#137 = ORIENTED_EDGE ( 'NONE', *, *, #74, .F. ) ;
#138 = EDGE_LOOP ( 'NONE', ( #115, #148 ) ) ;
#139 = DIRECTION ( 'NONE',  ( 1.000000000000000000, 0.0000000000000000000, 0.0000000000000000000 ) ) ;
#140 = DIRECTION ( 'NONE',  ( 0.0000000000000000000, 0.0000000000000000000, 1.000000000000000000 ) ) ;
#141 = ORIENTED_EDGE ( 'NONE', *, *, #75, .F. ) ;
#142 = CARTESIAN_POINT ( 'NONE',  ( -15.00000000000000000, 0.0000000000000000000, -500.0000000000000000 ) ) ;
#143 =( NAMED_UNIT ( * ) PLANE_ANGLE_UNIT ( ) SI_UNIT ( $, .RADIAN. ) );
#144 = PLANE ( 'NONE',  #27 ) ;
#145 = DIRECTION ( 'NONE',  ( 0.0000000000000000000, 0.0000000000000000000, 1.000000000000000000 ) ) ;
#146 = CARTESIAN_POINT ( 'NONE',  ( 0.0000000000000000000, 0.0000000000000000000, 500.0000000000000000 ) ) ;
#147 = APPLICATION_PROTOCOL_DEFINITION ( 'international standard', 'config_control_design', 1994, #79 ) ;
#148 = ORIENTED_EDGE ( 'NONE', *, *, #74, .T. ) ;
#149 = ORIENTED_EDGE ( 'NONE', *, *, #67, .T. ) ;
#150 = APPROVAL_STATUS ( 'not_yet_approved' ) ;
#151 = ORIENTED_EDGE ( 'NONE', *, *, #57, .F. ) ;
#152 = CARTESIAN_POINT ( 'NONE',  ( 0.0000000000000000000, 0.0000000000000000000, -500.0000000000000000 ) ) ;
#153 = APPROVAL_DATE_TIME ( #154, #54 ) ;
#154 = DATE_AND_TIME ( #19, #63 ) ;
#155 = PERSON_AND_ORGANIZATION ( #7, #22 ) ;
#156 = SECURITY_CLASSIFICATION_LEVEL ( 'unclassified' ) ;
#157 = PERSON_AND_ORGANIZATION_ROLE ( 'design_supplier' ) ;
#158 = PERSON_AND_ORGANIZATION_ROLE ( 'creator' ) ;
#159 = PERSON_AND_ORGANIZATION_ROLE ( 'classification_officer' ) ;
#160 = PERSON_AND_ORGANIZATION ( #7, #22 ) ;
#161 = DATE_TIME_ROLE ( 'classification_date' ) ;
#162 = DATE_AND_TIME ( #14, #62 ) ;
#163 = APPROVAL_STATUS ( 'not_yet_approved' ) ;
#164 = PERSON_AND_ORGANIZATION ( #7, #22 ) ;
#165 = PERSON_AND_ORGANIZATION ( #7, #22 ) ;
#166 = DATE_TIME_ROLE ( 'creation_date' ) ;
#167 = APPROVAL_ROLE ( '' ) ;
#168 = APPROVAL_STATUS ( 'not_yet_approved' ) ;
#169 = APPROVAL_DATE_TIME ( #170, #77 ) ;
#170 = DATE_AND_TIME ( #12, #64 ) ;
#171 = PERSON_AND_ORGANIZATION_ROLE ( 'creator' ) ;
#172 = DATE_AND_TIME ( #39, #48 ) ;
#173 = PERSON_AND_ORGANIZATION ( #7, #22 ) ;
#174 = APPROVAL_ROLE ( '' ) ;
#175 = PERSON_AND_ORGANIZATION ( #7, #22 ) ;
ENDSEC;
END-ISO-10303-21;
