ISO-10303-21;
HEADER;
FILE_DESCRIPTION (( 'STEP AP203' ),
    '1' );
FILE_NAME ('sone3D.STEP',
    '2015-08-11T09:43:26',
    ( '' ),
    ( '' ),
    'SwSTEP 2.0',
    'SolidWorks 2012',
    '' );
FILE_SCHEMA (( 'CONFIG_CONTROL_DESIGN' ));
ENDSEC;

DATA;
#1 = APPROVAL_PERSON_ORGANIZATION ( #172, #58, #170 ) ;
#2 = FACE_OUTER_BOUND ( 'NONE', #137, .T. ) ;
#3 = CYLINDRICAL_SURFACE ( 'NONE', #32, 10.00000000000000000 ) ;
#4 = COORDINATED_UNIVERSAL_TIME_OFFSET ( 9, 0, .AHEAD. ) ;
#5 = AXIS2_PLACEMENT_3D ( 'NONE', #120, #119, #118 ) ;
#6 = COORDINATED_UNIVERSAL_TIME_OFFSET ( 9, 0, .AHEAD. ) ;
#7 = FACE_OUTER_BOUND ( 'NONE', #136, .T. ) ;
#8 = CALENDAR_DATE ( 2015, 11, 8 ) ;
#9 = CC_DESIGN_APPROVAL ( #65, ( #72 ) ) ;
#10 = AXIS2_PLACEMENT_3D ( 'NONE', #123, #122, #121 ) ;
#11 = AXIS2_PLACEMENT_3D ( 'NONE', #110, #151, #154 ) ;
#12 = CYLINDRICAL_SURFACE ( 'NONE', #22, 10.00000000000000000 ) ;
#13 = SECURITY_CLASSIFICATION ( '', '', #162 ) ;
#14 = COORDINATED_UNIVERSAL_TIME_OFFSET ( 9, 0, .AHEAD. ) ;
#15 = CC_DESIGN_APPROVAL ( #58, ( #16 ) ) ;
#16 = PRODUCT_DEFINITION_FORMATION_WITH_SPECIFIED_SOURCE ( 'ANY', '', #47, .NOT_KNOWN. ) ;
#17 = APPROVAL_PERSON_ORGANIZATION ( #107, #65, #109 ) ;
#18 = AXIS2_PLACEMENT_3D ( 'NONE', #117, #116, #115 ) ;
#19 = COORDINATED_UNIVERSAL_TIME_OFFSET ( 9, 0, .AHEAD. ) ;
#20 = FACE_OUTER_BOUND ( 'NONE', #135, .T. ) ;
#21 = CLOSED_SHELL ( 'NONE', ( #61, #70, #69, #62 ) ) ;
#22 = AXIS2_PLACEMENT_3D ( 'NONE', #131, #129, #128 ) ;
#23 = CC_DESIGN_SECURITY_CLASSIFICATION ( #13, ( #16 ) ) ;
#24 = AXIS2_PLACEMENT_3D ( 'NONE', #87, #88, #89 ) ;
#25 = FACE_OUTER_BOUND ( 'NONE', #138, .T. ) ;
#26 = COORDINATED_UNIVERSAL_TIME_OFFSET ( 9, 0, .AHEAD. ) ;
#27 = APPROVAL_PERSON_ORGANIZATION ( #41, #52, #40 ) ;
#28 = CALENDAR_DATE ( 2015, 11, 8 ) ;
#29 = AXIS2_PLACEMENT_3D ( 'NONE', #126, #125, #124 ) ;
#30 = CALENDAR_DATE ( 2015, 11, 8 ) ;
#31 = CALENDAR_DATE ( 2015, 11, 8 ) ;
#32 = AXIS2_PLACEMENT_3D ( 'NONE', #153, #152, #83 ) ;
#33 = CC_DESIGN_APPROVAL ( #52, ( #13 ) ) ;
#34 = AXIS2_PLACEMENT_3D ( 'NONE', #101, #102, #98 ) ;
#35 = CALENDAR_DATE ( 2015, 11, 8 ) ;
#36 = VECTOR ( 'NONE', #111, 1000.000000000000000 ) ;
#37 = ORGANIZATION ( 'UNSPECIFIED', 'UNSPECIFIED', '' ) ;
#38 = VECTOR ( 'NONE', #86, 1000.000000000000000 ) ;
#39 = APPROVAL_DATE_TIME ( #43, #52 ) ;
#40 = APPROVAL_ROLE ( '' ) ;
#41 = PERSON_AND_ORGANIZATION ( #44, #37 ) ;
#42 = APPROVAL_STATUS ( 'not_yet_approved' ) ;
#43 = DATE_AND_TIME ( #28, #53 ) ;
#44 = PERSON ( 'UNSPECIFIED', 'UNSPECIFIED', 'UNSPECIFIED', ('UNSPECIFIED'), ('UNSPECIFIED'), ('UNSPECIFIED') ) ;
#45 = ADVANCED_BREP_SHAPE_REPRESENTATION ( 'sone3D', ( #80, #34 ), #79 ) ;
#46 = UNCERTAINTY_MEASURE_WITH_UNIT (LENGTH_MEASURE( 1.000000000000000100E-005 ), #94, 'distance_accuracy_value', 'NONE');
#47 = PRODUCT ( 'sone3D', 'sone3D', '', ( #103 ) ) ;
#48 = CC_DESIGN_DATE_AND_TIME_ASSIGNMENT ( #165, #173, ( #72 ) ) ;
#49 = CC_DESIGN_PERSON_AND_ORGANIZATION_ASSIGNMENT ( #164, #99, ( #16 ) ) ;
#50 = LOCAL_TIME ( 18, 43, 26.00000000000000000, #6 ) ;
#51 = PRODUCT_RELATED_PRODUCT_CATEGORY ( 'detail', '', ( #47 ) ) ;
#52 = APPROVAL ( #42, 'UNSPECIFIED' ) ;
#53 = LOCAL_TIME ( 18, 43, 26.00000000000000000, #4 ) ;
#54 = CC_DESIGN_PERSON_AND_ORGANIZATION_ASSIGNMENT ( #160, #163, ( #13 ) ) ;
#55 = CC_DESIGN_DATE_AND_TIME_ASSIGNMENT ( #161, #159, ( #13 ) ) ;
#56 = LOCAL_TIME ( 18, 43, 26.00000000000000000, #14 ) ;
#57 = CC_DESIGN_PERSON_AND_ORGANIZATION_ASSIGNMENT ( #167, #166, ( #16 ) ) ;
#58 = APPROVAL ( #171, 'UNSPECIFIED' ) ;
#59 = LOCAL_TIME ( 18, 43, 26.00000000000000000, #26 ) ;
#60 = CIRCLE ( 'NONE', #10, 10.00000000000000000 ) ;
#61 = ADVANCED_FACE ( 'NONE', ( #7 ), #12, .T. ) ;
#62 = ADVANCED_FACE ( 'NONE', ( #25 ), #127, .F. ) ;
#63 = EDGE_CURVE ( 'NONE', #133, #130, #60, .T. ) ;
#64 = EDGE_CURVE ( 'NONE', #132, #134, #67, .T. ) ;
#65 = APPROVAL ( #156, 'UNSPECIFIED' ) ;
#66 = EDGE_CURVE ( 'NONE', #130, #133, #77, .T. ) ;
#67 = CIRCLE ( 'NONE', #5, 10.00000000000000000 ) ;
#68 = EDGE_CURVE ( 'NONE', #130, #134, #113, .T. ) ;
#69 = ADVANCED_FACE ( 'NONE', ( #2 ), #114, .T. ) ;
#70 = ADVANCED_FACE ( 'NONE', ( #20 ), #3, .T. ) ;
#71 = EDGE_CURVE ( 'NONE', #133, #132, #84, .T. ) ;
#72 = PRODUCT_DEFINITION ( 'UNKNOWN', '', #16, #82 ) ;
#73 = CC_DESIGN_PERSON_AND_ORGANIZATION_ASSIGNMENT ( #106, #104, ( #47 ) ) ;
#74 = CC_DESIGN_PERSON_AND_ORGANIZATION_ASSIGNMENT ( #158, #157, ( #72 ) ) ;
#75 = EDGE_CURVE ( 'NONE', #134, #132, #76, .T. ) ;
#76 = CIRCLE ( 'NONE', #24, 10.00000000000000000 ) ;
#77 = CIRCLE ( 'NONE', #18, 10.00000000000000000 ) ;
#78 = LOCAL_TIME ( 18, 43, 26.00000000000000000, #19 ) ;
#79 =( GEOMETRIC_REPRESENTATION_CONTEXT ( 3 ) GLOBAL_UNCERTAINTY_ASSIGNED_CONTEXT ( ( #46 ) ) GLOBAL_UNIT_ASSIGNED_CONTEXT ( ( #94, #95, #96 ) ) REPRESENTATION_CONTEXT ( 'NONE', 'WORKASPACE' ) );
#80 = MANIFOLD_SOLID_BREP ( 'ÎÞ½ - µoµ1', #21 ) ;
#81 = PRODUCT_DEFINITION_SHAPE ( 'NONE', 'NONE',  #72 ) ;
#82 = DESIGN_CONTEXT ( 'detailed design', #174, 'design' ) ;
#83 = DIRECTION ( 'NONE',  ( -1.000000000000000000, 0.0000000000000000000, 0.0000000000000000000 ) ) ;
#84 = LINE ( 'NONE', #85, #38 ) ;
#85 = CARTESIAN_POINT ( 'NONE',  ( 10.00000000000000000, 1.224646799147353300E-015, 500.0000000000000000 ) ) ;
#86 = DIRECTION ( 'NONE',  ( -0.0000000000000000000, -0.0000000000000000000, -1.000000000000000000 ) ) ;
#87 = CARTESIAN_POINT ( 'NONE',  ( 0.0000000000000000000, 0.0000000000000000000, -500.0000000000000000 ) ) ;
#88 = DIRECTION ( 'NONE',  ( 0.0000000000000000000, 0.0000000000000000000, 1.000000000000000000 ) ) ;
#89 = DIRECTION ( 'NONE',  ( 1.000000000000000000, 0.0000000000000000000, 0.0000000000000000000 ) ) ;
#90 = CARTESIAN_POINT ( 'NONE',  ( -10.00000000000000000, 0.0000000000000000000, 500.0000000000000000 ) ) ;
#91 = CARTESIAN_POINT ( 'NONE',  ( 10.00000000000000000, 1.224646799147353300E-015, -500.0000000000000000 ) ) ;
#92 = CARTESIAN_POINT ( 'NONE',  ( 10.00000000000000000, 1.224646799147353300E-015, 500.0000000000000000 ) ) ;
#93 = CARTESIAN_POINT ( 'NONE',  ( -10.00000000000000000, 0.0000000000000000000, -500.0000000000000000 ) ) ;
#94 =( LENGTH_UNIT ( ) NAMED_UNIT ( * ) SI_UNIT ( .MILLI., .METRE. ) );
#95 =( NAMED_UNIT ( * ) PLANE_ANGLE_UNIT ( ) SI_UNIT ( $, .RADIAN. ) );
#96 =( NAMED_UNIT ( * ) SI_UNIT ( $, .STERADIAN. ) SOLID_ANGLE_UNIT ( ) );
#97 = APPLICATION_PROTOCOL_DEFINITION ( 'international standard', 'config_control_design', 1994, #175 ) ;
#98 = DIRECTION ( 'NONE',  ( 1.000000000000000000, 0.0000000000000000000, 0.0000000000000000000 ) ) ;
#99 = PERSON_AND_ORGANIZATION_ROLE ( 'design_supplier' ) ;
#100 = SHAPE_DEFINITION_REPRESENTATION ( #81, #45 ) ;
#101 = CARTESIAN_POINT ( 'NONE',  ( 0.0000000000000000000, 0.0000000000000000000, 0.0000000000000000000 ) ) ;
#102 = DIRECTION ( 'NONE',  ( 0.0000000000000000000, 0.0000000000000000000, 1.000000000000000000 ) ) ;
#103 = MECHANICAL_CONTEXT ( 'NONE', #175, 'mechanical' ) ;
#104 = PERSON_AND_ORGANIZATION_ROLE ( 'design_owner' ) ;
#105 = APPLICATION_PROTOCOL_DEFINITION ( 'international standard', 'config_control_design', 1994, #174 ) ;
#106 = PERSON_AND_ORGANIZATION ( #44, #37 ) ;
#107 = PERSON_AND_ORGANIZATION ( #44, #37 ) ;
#108 = DATE_AND_TIME ( #35, #59 ) ;
#109 = APPROVAL_ROLE ( '' ) ;
#110 = CARTESIAN_POINT ( 'NONE',  ( 0.0000000000000000000, 0.0000000000000000000, 500.0000000000000000 ) ) ;
#111 = DIRECTION ( 'NONE',  ( -0.0000000000000000000, -0.0000000000000000000, -1.000000000000000000 ) ) ;
#112 = CARTESIAN_POINT ( 'NONE',  ( -10.00000000000000000, 0.0000000000000000000, 500.0000000000000000 ) ) ;
#113 = LINE ( 'NONE', #112, #36 ) ;
#114 = PLANE ( 'NONE',  #11 ) ;
#115 = DIRECTION ( 'NONE',  ( 1.000000000000000000, 0.0000000000000000000, 0.0000000000000000000 ) ) ;
#116 = DIRECTION ( 'NONE',  ( 0.0000000000000000000, 0.0000000000000000000, 1.000000000000000000 ) ) ;
#117 = CARTESIAN_POINT ( 'NONE',  ( 0.0000000000000000000, 0.0000000000000000000, 500.0000000000000000 ) ) ;
#118 = DIRECTION ( 'NONE',  ( 1.000000000000000000, 0.0000000000000000000, 0.0000000000000000000 ) ) ;
#119 = DIRECTION ( 'NONE',  ( 0.0000000000000000000, 0.0000000000000000000, 1.000000000000000000 ) ) ;
#120 = CARTESIAN_POINT ( 'NONE',  ( 0.0000000000000000000, 0.0000000000000000000, -500.0000000000000000 ) ) ;
#121 = DIRECTION ( 'NONE',  ( 1.000000000000000000, 0.0000000000000000000, 0.0000000000000000000 ) ) ;
#122 = DIRECTION ( 'NONE',  ( 0.0000000000000000000, 0.0000000000000000000, 1.000000000000000000 ) ) ;
#123 = CARTESIAN_POINT ( 'NONE',  ( 0.0000000000000000000, 0.0000000000000000000, 500.0000000000000000 ) ) ;
#124 = DIRECTION ( 'NONE',  ( 1.000000000000000000, 0.0000000000000000000, -0.0000000000000000000 ) ) ;
#125 = DIRECTION ( 'NONE',  ( 0.0000000000000000000, 0.0000000000000000000, 1.000000000000000000 ) ) ;
#126 = CARTESIAN_POINT ( 'NONE',  ( 0.0000000000000000000, 0.0000000000000000000, -500.0000000000000000 ) ) ;
#127 = PLANE ( 'NONE',  #29 ) ;
#128 = DIRECTION ( 'NONE',  ( -1.000000000000000000, 0.0000000000000000000, 0.0000000000000000000 ) ) ;
#129 = DIRECTION ( 'NONE',  ( -0.0000000000000000000, -0.0000000000000000000, -1.000000000000000000 ) ) ;
#130 = VERTEX_POINT ( 'NONE', #90 ) ;
#131 = CARTESIAN_POINT ( 'NONE',  ( 0.0000000000000000000, 0.0000000000000000000, 500.0000000000000000 ) ) ;
#132 = VERTEX_POINT ( 'NONE', #91 ) ;
#133 = VERTEX_POINT ( 'NONE', #92 ) ;
#134 = VERTEX_POINT ( 'NONE', #93 ) ;
#135 = EDGE_LOOP ( 'NONE', ( #145, #148, #149, #142 ) ) ;
#136 = EDGE_LOOP ( 'NONE', ( #144, #139, #141, #147 ) ) ;
#137 = EDGE_LOOP ( 'NONE', ( #140, #143 ) ) ;
#138 = EDGE_LOOP ( 'NONE', ( #150, #146 ) ) ;
#139 = ORIENTED_EDGE ( 'NONE', *, *, #71, .T. ) ;
#140 = ORIENTED_EDGE ( 'NONE', *, *, #66, .T. ) ;
#141 = ORIENTED_EDGE ( 'NONE', *, *, #64, .T. ) ;
#142 = ORIENTED_EDGE ( 'NONE', *, *, #75, .T. ) ;
#143 = ORIENTED_EDGE ( 'NONE', *, *, #63, .T. ) ;
#144 = ORIENTED_EDGE ( 'NONE', *, *, #63, .F. ) ;
#145 = ORIENTED_EDGE ( 'NONE', *, *, #71, .F. ) ;
#146 = ORIENTED_EDGE ( 'NONE', *, *, #64, .F. ) ;
#147 = ORIENTED_EDGE ( 'NONE', *, *, #68, .F. ) ;
#148 = ORIENTED_EDGE ( 'NONE', *, *, #66, .F. ) ;
#149 = ORIENTED_EDGE ( 'NONE', *, *, #68, .T. ) ;
#150 = ORIENTED_EDGE ( 'NONE', *, *, #75, .F. ) ;
#151 = DIRECTION ( 'NONE',  ( 0.0000000000000000000, 0.0000000000000000000, 1.000000000000000000 ) ) ;
#152 = DIRECTION ( 'NONE',  ( -0.0000000000000000000, -0.0000000000000000000, -1.000000000000000000 ) ) ;
#153 = CARTESIAN_POINT ( 'NONE',  ( 0.0000000000000000000, 0.0000000000000000000, 500.0000000000000000 ) ) ;
#154 = DIRECTION ( 'NONE',  ( 1.000000000000000000, 0.0000000000000000000, -0.0000000000000000000 ) ) ;
#155 = APPROVAL_DATE_TIME ( #108, #65 ) ;
#156 = APPROVAL_STATUS ( 'not_yet_approved' ) ;
#157 = PERSON_AND_ORGANIZATION_ROLE ( 'creator' ) ;
#158 = PERSON_AND_ORGANIZATION ( #44, #37 ) ;
#159 = DATE_TIME_ROLE ( 'classification_date' ) ;
#160 = PERSON_AND_ORGANIZATION ( #44, #37 ) ;
#161 = DATE_AND_TIME ( #8, #50 ) ;
#162 = SECURITY_CLASSIFICATION_LEVEL ( 'unclassified' ) ;
#163 = PERSON_AND_ORGANIZATION_ROLE ( 'classification_officer' ) ;
#164 = PERSON_AND_ORGANIZATION ( #44, #37 ) ;
#165 = DATE_AND_TIME ( #30, #56 ) ;
#166 = PERSON_AND_ORGANIZATION_ROLE ( 'creator' ) ;
#167 = PERSON_AND_ORGANIZATION ( #44, #37 ) ;
#168 = APPROVAL_DATE_TIME ( #169, #58 ) ;
#169 = DATE_AND_TIME ( #31, #78 ) ;
#170 = APPROVAL_ROLE ( '' ) ;
#171 = APPROVAL_STATUS ( 'not_yet_approved' ) ;
#172 = PERSON_AND_ORGANIZATION ( #44, #37 ) ;
#173 = DATE_TIME_ROLE ( 'creation_date' ) ;
#174 = APPLICATION_CONTEXT ( 'configuration controlled 3d designs of mechanical parts and assemblies' ) ;
#175 = APPLICATION_CONTEXT ( 'configuration controlled 3d designs of mechanical parts and assemblies' ) ;
ENDSEC;
END-ISO-10303-21;
