ISO-10303-21;
HEADER;
FILE_DESCRIPTION (( 'STEP AP203' ),
    '1' );
FILE_NAME ('sone3D.STEP',
    '2015-08-11T09:43:11',
    ( '' ),
    ( '' ),
    'SwSTEP 2.0',
    'SolidWorks 2012',
    '' );
FILE_SCHEMA (( 'CONFIG_CONTROL_DESIGN' ));
ENDSEC;

DATA;
#1 = MANIFOLD_SOLID_BREP ( 'ÎÞ½ - µoµ1', #23 ) ;
#2 = PRODUCT_DEFINITION_SHAPE ( 'NONE', 'NONE',  #55 ) ;
#3 = DESIGN_CONTEXT ( 'detailed design', #174, 'design' ) ;
#4 = AXIS2_PLACEMENT_3D ( 'NONE', #102, #104, #103 ) ;
#5 = CALENDAR_DATE ( 2015, 11, 8 ) ;
#6 = CALENDAR_DATE ( 2015, 11, 8 ) ;
#7 = CC_DESIGN_SECURITY_CLASSIFICATION ( #14, ( #15 ) ) ;
#8 = FACE_OUTER_BOUND ( 'NONE', #81, .T. ) ;
#9 = CYLINDRICAL_SURFACE ( 'NONE', #4, 7.500000000000000000 ) ;
#10 = AXIS2_PLACEMENT_3D ( 'NONE', #98, #100, #101 ) ;
#11 = COORDINATED_UNIVERSAL_TIME_OFFSET ( 9, 0, .AHEAD. ) ;
#12 = CC_DESIGN_APPROVAL ( #74, ( #14 ) ) ;
#13 = AXIS2_PLACEMENT_3D ( 'NONE', #158, #159, #156 ) ;
#14 = SECURITY_CLASSIFICATION ( '', '', #135 ) ;
#15 = PRODUCT_DEFINITION_FORMATION_WITH_SPECIFIED_SOURCE ( 'ANY', '', #45, .NOT_KNOWN. ) ;
#16 = CALENDAR_DATE ( 2015, 11, 8 ) ;
#17 = CC_DESIGN_APPROVAL ( #70, ( #15 ) ) ;
#18 = AXIS2_PLACEMENT_3D ( 'NONE', #146, #162, #172 ) ;
#19 = COORDINATED_UNIVERSAL_TIME_OFFSET ( 9, 0, .AHEAD. ) ;
#20 = AXIS2_PLACEMENT_3D ( 'NONE', #120, #106, #108 ) ;
#21 = COORDINATED_UNIVERSAL_TIME_OFFSET ( 9, 0, .AHEAD. ) ;
#22 = APPROVAL_PERSON_ORGANIZATION ( #171, #63, #168 ) ;
#23 = CLOSED_SHELL ( 'NONE', ( #51, #59, #67, #49 ) ) ;
#24 = APPROVAL_PERSON_ORGANIZATION ( #140, #74, #142 ) ;
#25 = COORDINATED_UNIVERSAL_TIME_OFFSET ( 9, 0, .AHEAD. ) ;
#26 = APPROVAL_PERSON_ORGANIZATION ( #126, #70, #128 ) ;
#27 = VECTOR ( 'NONE', #110, 1000.000000000000000 ) ;
#28 = ORGANIZATION ( 'UNSPECIFIED', 'UNSPECIFIED', '' ) ;
#29 = CALENDAR_DATE ( 2015, 11, 8 ) ;
#30 = VECTOR ( 'NONE', #119, 1000.000000000000000 ) ;
#31 = FACE_OUTER_BOUND ( 'NONE', #79, .T. ) ;
#32 = AXIS2_PLACEMENT_3D ( 'NONE', #170, #145, #147 ) ;
#33 = FACE_OUTER_BOUND ( 'NONE', #80, .T. ) ;
#34 = AXIS2_PLACEMENT_3D ( 'NONE', #115, #161, #118 ) ;
#35 = CALENDAR_DATE ( 2015, 11, 8 ) ;
#36 = AXIS2_PLACEMENT_3D ( 'NONE', #112, #114, #116 ) ;
#37 = CYLINDRICAL_SURFACE ( 'NONE', #34, 7.500000000000000000 ) ;
#38 = AXIS2_PLACEMENT_3D ( 'NONE', #109, #121, #113 ) ;
#39 = COORDINATED_UNIVERSAL_TIME_OFFSET ( 9, 0, .AHEAD. ) ;
#40 = FACE_OUTER_BOUND ( 'NONE', #82, .T. ) ;
#41 = CC_DESIGN_APPROVAL ( #63, ( #55 ) ) ;
#42 = PERSON ( 'UNSPECIFIED', 'UNSPECIFIED', 'UNSPECIFIED', ('UNSPECIFIED'), ('UNSPECIFIED'), ('UNSPECIFIED') ) ;
#43 = ADVANCED_BREP_SHAPE_REPRESENTATION ( 'sone3D', ( #1, #13 ), #77 ) ;
#44 = UNCERTAINTY_MEASURE_WITH_UNIT (LENGTH_MEASURE( 1.000000000000000100E-005 ), #152, 'distance_accuracy_value', 'NONE');
#45 = PRODUCT ( 'sone3D', 'sone3D', '', ( #160 ) ) ;
#46 = CC_DESIGN_PERSON_AND_ORGANIZATION_ASSIGNMENT ( #131, #132, ( #15 ) ) ;
#47 = CIRCLE ( 'NONE', #36, 7.500000000000000000 ) ;
#48 = CIRCLE ( 'NONE', #38, 7.500000000000000000 ) ;
#49 = ADVANCED_FACE ( 'NONE', ( #8 ), #99, .F. ) ;
#50 = CC_DESIGN_PERSON_AND_ORGANIZATION_ASSIGNMENT ( #133, #134, ( #15 ) ) ;
#51 = ADVANCED_FACE ( 'NONE', ( #33 ), #9, .T. ) ;
#52 = EDGE_CURVE ( 'NONE', #97, #95, #105, .T. ) ;
#53 = CC_DESIGN_PERSON_AND_ORGANIZATION_ASSIGNMENT ( #165, #163, ( #45 ) ) ;
#54 = EDGE_CURVE ( 'NONE', #96, #78, #117, .T. ) ;
#55 = PRODUCT_DEFINITION ( 'UNKNOWN', '', #15, #3 ) ;
#56 = CC_DESIGN_PERSON_AND_ORGANIZATION_ASSIGNMENT ( #123, #122, ( #55 ) ) ;
#57 = EDGE_CURVE ( 'NONE', #96, #97, #48, .T. ) ;
#58 = EDGE_CURVE ( 'NONE', #97, #96, #47, .T. ) ;
#59 = ADVANCED_FACE ( 'NONE', ( #31 ), #37, .T. ) ;
#60 = EDGE_CURVE ( 'NONE', #95, #78, #66, .T. ) ;
#61 = LOCAL_TIME ( 18, 43, 11.00000000000000000, #11 ) ;
#62 = LOCAL_TIME ( 18, 43, 11.00000000000000000, #21 ) ;
#63 = APPROVAL ( #166, 'UNSPECIFIED' ) ;
#64 = CC_DESIGN_DATE_AND_TIME_ASSIGNMENT ( #124, #125, ( #55 ) ) ;
#65 = EDGE_CURVE ( 'NONE', #78, #95, #68, .T. ) ;
#66 = CIRCLE ( 'NONE', #20, 7.500000000000000000 ) ;
#67 = ADVANCED_FACE ( 'NONE', ( #40 ), #169, .T. ) ;
#68 = CIRCLE ( 'NONE', #18, 7.500000000000000000 ) ;
#69 = LOCAL_TIME ( 18, 43, 11.00000000000000000, #39 ) ;
#70 = APPROVAL ( #127, 'UNSPECIFIED' ) ;
#71 = CC_DESIGN_PERSON_AND_ORGANIZATION_ASSIGNMENT ( #136, #137, ( #14 ) ) ;
#72 = LOCAL_TIME ( 18, 43, 11.00000000000000000, #25 ) ;
#73 = CC_DESIGN_DATE_AND_TIME_ASSIGNMENT ( #138, #139, ( #14 ) ) ;
#74 = APPROVAL ( #141, 'UNSPECIFIED' ) ;
#75 = LOCAL_TIME ( 18, 43, 11.00000000000000000, #19 ) ;
#76 = PRODUCT_RELATED_PRODUCT_CATEGORY ( 'detail', '', ( #45 ) ) ;
#77 =( GEOMETRIC_REPRESENTATION_CONTEXT ( 3 ) GLOBAL_UNCERTAINTY_ASSIGNED_CONTEXT ( ( #44 ) ) GLOBAL_UNIT_ASSIGNED_CONTEXT ( ( #152, #173, #154 ) ) REPRESENTATION_CONTEXT ( 'NONE', 'WORKASPACE' ) );
#78 = VERTEX_POINT ( 'NONE', #148 ) ;
#79 = EDGE_LOOP ( 'NONE', ( #85, #94, #92, #88 ) ) ;
#80 = EDGE_LOOP ( 'NONE', ( #91, #83, #86, #84 ) ) ;
#81 = EDGE_LOOP ( 'NONE', ( #89, #93 ) ) ;
#82 = EDGE_LOOP ( 'NONE', ( #90, #87 ) ) ;
#83 = ORIENTED_EDGE ( 'NONE', *, *, #52, .T. ) ;
#84 = ORIENTED_EDGE ( 'NONE', *, *, #54, .F. ) ;
#85 = ORIENTED_EDGE ( 'NONE', *, *, #52, .F. ) ;
#86 = ORIENTED_EDGE ( 'NONE', *, *, #60, .T. ) ;
#87 = ORIENTED_EDGE ( 'NONE', *, *, #58, .T. ) ;
#88 = ORIENTED_EDGE ( 'NONE', *, *, #65, .T. ) ;
#89 = ORIENTED_EDGE ( 'NONE', *, *, #65, .F. ) ;
#90 = ORIENTED_EDGE ( 'NONE', *, *, #57, .T. ) ;
#91 = ORIENTED_EDGE ( 'NONE', *, *, #58, .F. ) ;
#92 = ORIENTED_EDGE ( 'NONE', *, *, #54, .T. ) ;
#93 = ORIENTED_EDGE ( 'NONE', *, *, #60, .F. ) ;
#94 = ORIENTED_EDGE ( 'NONE', *, *, #57, .F. ) ;
#95 = VERTEX_POINT ( 'NONE', #149 ) ;
#96 = VERTEX_POINT ( 'NONE', #150 ) ;
#97 = VERTEX_POINT ( 'NONE', #151 ) ;
#98 = CARTESIAN_POINT ( 'NONE',  ( 0.0000000000000000000, 0.0000000000000000000, -500.0000000000000000 ) ) ;
#99 = PLANE ( 'NONE',  #10 ) ;
#100 = DIRECTION ( 'NONE',  ( 0.0000000000000000000, 0.0000000000000000000, 1.000000000000000000 ) ) ;
#101 = DIRECTION ( 'NONE',  ( 1.000000000000000000, 0.0000000000000000000, -0.0000000000000000000 ) ) ;
#102 = CARTESIAN_POINT ( 'NONE',  ( 0.0000000000000000000, 0.0000000000000000000, 500.0000000000000000 ) ) ;
#103 = DIRECTION ( 'NONE',  ( -1.000000000000000000, 0.0000000000000000000, 0.0000000000000000000 ) ) ;
#104 = DIRECTION ( 'NONE',  ( -0.0000000000000000000, -0.0000000000000000000, -1.000000000000000000 ) ) ;
#105 = LINE ( 'NONE', #107, #27 ) ;
#106 = DIRECTION ( 'NONE',  ( 0.0000000000000000000, 0.0000000000000000000, 1.000000000000000000 ) ) ;
#107 = CARTESIAN_POINT ( 'NONE',  ( 7.500000000000000000, 9.184850993605147900E-016, 500.0000000000000000 ) ) ;
#108 = DIRECTION ( 'NONE',  ( 1.000000000000000000, 0.0000000000000000000, 0.0000000000000000000 ) ) ;
#109 = CARTESIAN_POINT ( 'NONE',  ( 0.0000000000000000000, 0.0000000000000000000, 500.0000000000000000 ) ) ;
#110 = DIRECTION ( 'NONE',  ( -0.0000000000000000000, -0.0000000000000000000, -1.000000000000000000 ) ) ;
#111 = CARTESIAN_POINT ( 'NONE',  ( -7.500000000000000000, 0.0000000000000000000, 500.0000000000000000 ) ) ;
#112 = CARTESIAN_POINT ( 'NONE',  ( 0.0000000000000000000, 0.0000000000000000000, 500.0000000000000000 ) ) ;
#113 = DIRECTION ( 'NONE',  ( 1.000000000000000000, 0.0000000000000000000, 0.0000000000000000000 ) ) ;
#114 = DIRECTION ( 'NONE',  ( 0.0000000000000000000, 0.0000000000000000000, 1.000000000000000000 ) ) ;
#115 = CARTESIAN_POINT ( 'NONE',  ( 0.0000000000000000000, 0.0000000000000000000, 500.0000000000000000 ) ) ;
#116 = DIRECTION ( 'NONE',  ( 1.000000000000000000, 0.0000000000000000000, 0.0000000000000000000 ) ) ;
#117 = LINE ( 'NONE', #111, #30 ) ;
#118 = DIRECTION ( 'NONE',  ( -1.000000000000000000, 0.0000000000000000000, 0.0000000000000000000 ) ) ;
#119 = DIRECTION ( 'NONE',  ( -0.0000000000000000000, -0.0000000000000000000, -1.000000000000000000 ) ) ;
#120 = CARTESIAN_POINT ( 'NONE',  ( 0.0000000000000000000, 0.0000000000000000000, -500.0000000000000000 ) ) ;
#121 = DIRECTION ( 'NONE',  ( 0.0000000000000000000, 0.0000000000000000000, 1.000000000000000000 ) ) ;
#122 = PERSON_AND_ORGANIZATION_ROLE ( 'creator' ) ;
#123 = PERSON_AND_ORGANIZATION ( #42, #28 ) ;
#124 = DATE_AND_TIME ( #6, #62 ) ;
#125 = DATE_TIME_ROLE ( 'creation_date' ) ;
#126 = PERSON_AND_ORGANIZATION ( #42, #28 ) ;
#127 = APPROVAL_STATUS ( 'not_yet_approved' ) ;
#128 = APPROVAL_ROLE ( '' ) ;
#129 = DATE_AND_TIME ( #29, #69 ) ;
#130 = APPROVAL_DATE_TIME ( #129, #70 ) ;
#131 = PERSON_AND_ORGANIZATION ( #42, #28 ) ;
#132 = PERSON_AND_ORGANIZATION_ROLE ( 'creator' ) ;
#133 = PERSON_AND_ORGANIZATION ( #42, #28 ) ;
#134 = PERSON_AND_ORGANIZATION_ROLE ( 'design_supplier' ) ;
#135 = SECURITY_CLASSIFICATION_LEVEL ( 'unclassified' ) ;
#136 = PERSON_AND_ORGANIZATION ( #42, #28 ) ;
#137 = PERSON_AND_ORGANIZATION_ROLE ( 'classification_officer' ) ;
#138 = DATE_AND_TIME ( #16, #72 ) ;
#139 = DATE_TIME_ROLE ( 'classification_date' ) ;
#140 = PERSON_AND_ORGANIZATION ( #42, #28 ) ;
#141 = APPROVAL_STATUS ( 'not_yet_approved' ) ;
#142 = APPROVAL_ROLE ( '' ) ;
#143 = DATE_AND_TIME ( #35, #75 ) ;
#144 = APPROVAL_DATE_TIME ( #143, #74 ) ;
#145 = DIRECTION ( 'NONE',  ( 0.0000000000000000000, 0.0000000000000000000, 1.000000000000000000 ) ) ;
#146 = CARTESIAN_POINT ( 'NONE',  ( 0.0000000000000000000, 0.0000000000000000000, -500.0000000000000000 ) ) ;
#147 = DIRECTION ( 'NONE',  ( 1.000000000000000000, 0.0000000000000000000, -0.0000000000000000000 ) ) ;
#148 = CARTESIAN_POINT ( 'NONE',  ( -7.500000000000000000, 0.0000000000000000000, -500.0000000000000000 ) ) ;
#149 = CARTESIAN_POINT ( 'NONE',  ( 7.500000000000000000, 9.184850993605147900E-016, -500.0000000000000000 ) ) ;
#150 = CARTESIAN_POINT ( 'NONE',  ( -7.500000000000000000, 0.0000000000000000000, 500.0000000000000000 ) ) ;
#151 = CARTESIAN_POINT ( 'NONE',  ( 7.500000000000000000, 9.184850993605147900E-016, 500.0000000000000000 ) ) ;
#152 =( LENGTH_UNIT ( ) NAMED_UNIT ( * ) SI_UNIT ( .MILLI., .METRE. ) );
#153 = APPROVAL_DATE_TIME ( #167, #63 ) ;
#154 =( NAMED_UNIT ( * ) SI_UNIT ( $, .STERADIAN. ) SOLID_ANGLE_UNIT ( ) );
#155 = APPLICATION_PROTOCOL_DEFINITION ( 'international standard', 'config_control_design', 1994, #175 ) ;
#156 = DIRECTION ( 'NONE',  ( 1.000000000000000000, 0.0000000000000000000, 0.0000000000000000000 ) ) ;
#157 = SHAPE_DEFINITION_REPRESENTATION ( #2, #43 ) ;
#158 = CARTESIAN_POINT ( 'NONE',  ( 0.0000000000000000000, 0.0000000000000000000, 0.0000000000000000000 ) ) ;
#159 = DIRECTION ( 'NONE',  ( 0.0000000000000000000, 0.0000000000000000000, 1.000000000000000000 ) ) ;
#160 = MECHANICAL_CONTEXT ( 'NONE', #175, 'mechanical' ) ;
#161 = DIRECTION ( 'NONE',  ( -0.0000000000000000000, -0.0000000000000000000, -1.000000000000000000 ) ) ;
#162 = DIRECTION ( 'NONE',  ( 0.0000000000000000000, 0.0000000000000000000, 1.000000000000000000 ) ) ;
#163 = PERSON_AND_ORGANIZATION_ROLE ( 'design_owner' ) ;
#164 = APPLICATION_PROTOCOL_DEFINITION ( 'international standard', 'config_control_design', 1994, #174 ) ;
#165 = PERSON_AND_ORGANIZATION ( #42, #28 ) ;
#166 = APPROVAL_STATUS ( 'not_yet_approved' ) ;
#167 = DATE_AND_TIME ( #5, #61 ) ;
#168 = APPROVAL_ROLE ( '' ) ;
#169 = PLANE ( 'NONE',  #32 ) ;
#170 = CARTESIAN_POINT ( 'NONE',  ( 0.0000000000000000000, 0.0000000000000000000, 500.0000000000000000 ) ) ;
#171 = PERSON_AND_ORGANIZATION ( #42, #28 ) ;
#172 = DIRECTION ( 'NONE',  ( 1.000000000000000000, 0.0000000000000000000, 0.0000000000000000000 ) ) ;
#173 =( NAMED_UNIT ( * ) PLANE_ANGLE_UNIT ( ) SI_UNIT ( $, .RADIAN. ) );
#174 = APPLICATION_CONTEXT ( 'configuration controlled 3d designs of mechanical parts and assemblies' ) ;
#175 = APPLICATION_CONTEXT ( 'configuration controlled 3d designs of mechanical parts and assemblies' ) ;
ENDSEC;
END-ISO-10303-21;
