ISO-10303-21;
HEADER;
FILE_DESCRIPTION (( 'STEP AP203' ),
    '1' );
FILE_NAME ('sone3D.STEP',
    '2015-08-11T09:42:51',
    ( '' ),
    ( '' ),
    'SwSTEP 2.0',
    'SolidWorks 2012',
    '' );
FILE_SCHEMA (( 'CONFIG_CONTROL_DESIGN' ));
ENDSEC;

DATA;
#1 = CC_DESIGN_APPROVAL ( #107, ( #15 ) ) ;
#2 = SECURITY_CLASSIFICATION ( '', '', #138 ) ;
#3 = COORDINATED_UNIVERSAL_TIME_OFFSET ( 9, 0, .AHEAD. ) ;
#4 = APPROVAL_PERSON_ORGANIZATION ( #132, #107, #134 ) ;
#5 = CALENDAR_DATE ( 2015, 11, 8 ) ;
#6 = AXIS2_PLACEMENT_3D ( 'NONE', #157, #163, #143 ) ;
#7 = CYLINDRICAL_SURFACE ( 'NONE', #29, 7.000000000000000000 ) ;
#8 = APPROVAL_PERSON_ORGANIZATION ( #117, #83, #116 ) ;
#9 = APPROVAL_PERSON_ORGANIZATION ( #167, #84, #165 ) ;
#10 = AXIS2_PLACEMENT_3D ( 'NONE', #49, #43, #63 ) ;
#11 = CALENDAR_DATE ( 2015, 11, 8 ) ;
#12 = COORDINATED_UNIVERSAL_TIME_OFFSET ( 9, 0, .AHEAD. ) ;
#13 = FACE_OUTER_BOUND ( 'NONE', #52, .T. ) ;
#14 = AXIS2_PLACEMENT_3D ( 'NONE', #170, #121, #120 ) ;
#15 = PRODUCT_DEFINITION_FORMATION_WITH_SPECIFIED_SOURCE ( 'ANY', '', #79, .NOT_KNOWN. ) ;
#16 = FACE_OUTER_BOUND ( 'NONE', #59, .T. ) ;
#17 = AXIS2_PLACEMENT_3D ( 'NONE', #68, #74, #65 ) ;
#18 = CALENDAR_DATE ( 2015, 11, 8 ) ;
#19 = FACE_OUTER_BOUND ( 'NONE', #42, .T. ) ;
#20 = CALENDAR_DATE ( 2015, 11, 8 ) ;
#21 = AXIS2_PLACEMENT_3D ( 'NONE', #156, #154, #153 ) ;
#22 = CC_DESIGN_SECURITY_CLASSIFICATION ( #2, ( #15 ) ) ;
#23 = VECTOR ( 'NONE', #162, 1000.000000000000000 ) ;
#24 = AXIS2_PLACEMENT_3D ( 'NONE', #152, #151, #140 ) ;
#25 = ORGANIZATION ( 'UNSPECIFIED', 'UNSPECIFIED', '' ) ;
#26 = COORDINATED_UNIVERSAL_TIME_OFFSET ( 9, 0, .AHEAD. ) ;
#27 = COORDINATED_UNIVERSAL_TIME_OFFSET ( 9, 0, .AHEAD. ) ;
#28 = AXIS2_PLACEMENT_3D ( 'NONE', #61, #73, #69 ) ;
#29 = AXIS2_PLACEMENT_3D ( 'NONE', #142, #148, #150 ) ;
#30 = CC_DESIGN_APPROVAL ( #84, ( #82 ) ) ;
#31 = AXIS2_PLACEMENT_3D ( 'NONE', #145, #173, #169 ) ;
#32 = FACE_OUTER_BOUND ( 'NONE', #58, .T. ) ;
#33 = COORDINATED_UNIVERSAL_TIME_OFFSET ( 9, 0, .AHEAD. ) ;
#34 = CYLINDRICAL_SURFACE ( 'NONE', #31, 7.000000000000000000 ) ;
#35 = CC_DESIGN_APPROVAL ( #83, ( #2 ) ) ;
#36 = CALENDAR_DATE ( 2015, 11, 8 ) ;
#37 = CLOSED_SHELL ( 'NONE', ( #99, #101, #100, #81 ) ) ;
#38 = VECTOR ( 'NONE', #159, 1000.000000000000000 ) ;
#39 = DESIGN_CONTEXT ( 'detailed design', #175, 'design' ) ;
#40 = PRODUCT_DEFINITION_SHAPE ( 'NONE', 'NONE',  #82 ) ;
#41 = MANIFOLD_SOLID_BREP ( 'ÎÞ½ - µoµ1', #37 ) ;
#42 = EDGE_LOOP ( 'NONE', ( #64, #56, #71, #62 ) ) ;
#43 = DIRECTION ( 'NONE',  ( 0.0000000000000000000, 0.0000000000000000000, 1.000000000000000000 ) ) ;
#44 = ORIENTED_EDGE ( 'NONE', *, *, #92, .T. ) ;
#45 = CARTESIAN_POINT ( 'NONE',  ( 7.000000000000000000, 8.572527594031473200E-016, -500.0000000000000000 ) ) ;
#46 = ORIENTED_EDGE ( 'NONE', *, *, #98, .F. ) ;
#47 = ORIENTED_EDGE ( 'NONE', *, *, #96, .T. ) ;
#48 = CARTESIAN_POINT ( 'NONE',  ( 7.000000000000000000, 8.572527594031473200E-016, 500.0000000000000000 ) ) ;
#49 = CARTESIAN_POINT ( 'NONE',  ( 0.0000000000000000000, 0.0000000000000000000, -500.0000000000000000 ) ) ;
#50 = PLANE ( 'NONE',  #10 ) ;
#51 = VERTEX_POINT ( 'NONE', #48 ) ;
#52 = EDGE_LOOP ( 'NONE', ( #53, #47, #54, #72 ) ) ;
#53 = ORIENTED_EDGE ( 'NONE', *, *, #92, .F. ) ;
#54 = ORIENTED_EDGE ( 'NONE', *, *, #98, .T. ) ;
#55 = VERTEX_POINT ( 'NONE', #66 ) ;
#56 = ORIENTED_EDGE ( 'NONE', *, *, #95, .F. ) ;
#57 = ORIENTED_EDGE ( 'NONE', *, *, #90, .F. ) ;
#58 = EDGE_LOOP ( 'NONE', ( #75, #44 ) ) ;
#59 = EDGE_LOOP ( 'NONE', ( #57, #46 ) ) ;
#60 = VERTEX_POINT ( 'NONE', #45 ) ;
#61 = CARTESIAN_POINT ( 'NONE',  ( 0.0000000000000000000, 0.0000000000000000000, 500.0000000000000000 ) ) ;
#62 = ORIENTED_EDGE ( 'NONE', *, *, #90, .T. ) ;
#63 = DIRECTION ( 'NONE',  ( 1.000000000000000000, 0.0000000000000000000, -0.0000000000000000000 ) ) ;
#64 = ORIENTED_EDGE ( 'NONE', *, *, #96, .F. ) ;
#65 = DIRECTION ( 'NONE',  ( 1.000000000000000000, 0.0000000000000000000, 0.0000000000000000000 ) ) ;
#66 = CARTESIAN_POINT ( 'NONE',  ( -7.000000000000000000, 0.0000000000000000000, -500.0000000000000000 ) ) ;
#67 = CARTESIAN_POINT ( 'NONE',  ( -7.000000000000000000, 0.0000000000000000000, 500.0000000000000000 ) ) ;
#68 = CARTESIAN_POINT ( 'NONE',  ( 0.0000000000000000000, 0.0000000000000000000, -500.0000000000000000 ) ) ;
#69 = DIRECTION ( 'NONE',  ( 1.000000000000000000, 0.0000000000000000000, 0.0000000000000000000 ) ) ;
#70 = VERTEX_POINT ( 'NONE', #67 ) ;
#71 = ORIENTED_EDGE ( 'NONE', *, *, #97, .T. ) ;
#72 = ORIENTED_EDGE ( 'NONE', *, *, #97, .F. ) ;
#73 = DIRECTION ( 'NONE',  ( 0.0000000000000000000, 0.0000000000000000000, 1.000000000000000000 ) ) ;
#74 = DIRECTION ( 'NONE',  ( 0.0000000000000000000, 0.0000000000000000000, 1.000000000000000000 ) ) ;
#75 = ORIENTED_EDGE ( 'NONE', *, *, #95, .T. ) ;
#76 = PERSON ( 'UNSPECIFIED', 'UNSPECIFIED', 'UNSPECIFIED', ('UNSPECIFIED'), ('UNSPECIFIED'), ('UNSPECIFIED') ) ;
#77 = ADVANCED_BREP_SHAPE_REPRESENTATION ( 'sone3D', ( #41, #14 ), #111 ) ;
#78 = UNCERTAINTY_MEASURE_WITH_UNIT (LENGTH_MEASURE( 1.000000000000000100E-005 ), #146, 'distance_accuracy_value', 'NONE');
#79 = PRODUCT ( 'sone3D', 'sone3D', '', ( #141 ) ) ;
#80 = CC_DESIGN_PERSON_AND_ORGANIZATION_ASSIGNMENT ( #144, #147, ( #79 ) ) ;
#81 = ADVANCED_FACE ( 'NONE', ( #16 ), #50, .F. ) ;
#82 = PRODUCT_DEFINITION ( 'UNKNOWN', '', #15, #39 ) ;
#83 = APPROVAL ( #115, 'UNSPECIFIED' ) ;
#84 = APPROVAL ( #166, 'UNSPECIFIED' ) ;
#85 = CIRCLE ( 'NONE', #28, 7.000000000000000000 ) ;
#86 = CIRCLE ( 'NONE', #6, 7.000000000000000000 ) ;
#87 = LOCAL_TIME ( 18, 42, 51.00000000000000000, #27 ) ;
#88 = PRODUCT_RELATED_PRODUCT_CATEGORY ( 'detail', '', ( #79 ) ) ;
#89 = CC_DESIGN_PERSON_AND_ORGANIZATION_ASSIGNMENT ( #128, #129, ( #82 ) ) ;
#90 = EDGE_CURVE ( 'NONE', #55, #60, #102, .T. ) ;
#91 = LOCAL_TIME ( 18, 42, 51.00000000000000000, #26 ) ;
#92 = EDGE_CURVE ( 'NONE', #51, #70, #85, .T. ) ;
#93 = CIRCLE ( 'NONE', #21, 7.000000000000000000 ) ;
#94 = CC_DESIGN_DATE_AND_TIME_ASSIGNMENT ( #130, #131, ( #82 ) ) ;
#95 = EDGE_CURVE ( 'NONE', #70, #51, #93, .T. ) ;
#96 = EDGE_CURVE ( 'NONE', #51, #60, #155, .T. ) ;
#97 = EDGE_CURVE ( 'NONE', #70, #55, #160, .T. ) ;
#98 = EDGE_CURVE ( 'NONE', #60, #55, #86, .T. ) ;
#99 = ADVANCED_FACE ( 'NONE', ( #13 ), #34, .T. ) ;
#100 = ADVANCED_FACE ( 'NONE', ( #32 ), #168, .T. ) ;
#101 = ADVANCED_FACE ( 'NONE', ( #19 ), #7, .T. ) ;
#102 = CIRCLE ( 'NONE', #17, 7.000000000000000000 ) ;
#103 = CC_DESIGN_PERSON_AND_ORGANIZATION_ASSIGNMENT ( #139, #171, ( #15 ) ) ;
#104 = CC_DESIGN_PERSON_AND_ORGANIZATION_ASSIGNMENT ( #136, #123, ( #15 ) ) ;
#105 = LOCAL_TIME ( 18, 42, 51.00000000000000000, #12 ) ;
#106 = CC_DESIGN_PERSON_AND_ORGANIZATION_ASSIGNMENT ( #125, #119, ( #2 ) ) ;
#107 = APPROVAL ( #133, 'UNSPECIFIED' ) ;
#108 = CC_DESIGN_DATE_AND_TIME_ASSIGNMENT ( #124, #118, ( #2 ) ) ;
#109 = LOCAL_TIME ( 18, 42, 51.00000000000000000, #3 ) ;
#110 = LOCAL_TIME ( 18, 42, 51.00000000000000000, #33 ) ;
#111 =( GEOMETRIC_REPRESENTATION_CONTEXT ( 3 ) GLOBAL_UNCERTAINTY_ASSIGNED_CONTEXT ( ( #78 ) ) GLOBAL_UNIT_ASSIGNED_CONTEXT ( ( #146, #164, #122 ) ) REPRESENTATION_CONTEXT ( 'NONE', 'WORKASPACE' ) );
#112 = SHAPE_DEFINITION_REPRESENTATION ( #40, #77 ) ;
#113 = APPROVAL_DATE_TIME ( #114, #83 ) ;
#114 = DATE_AND_TIME ( #18, #110 ) ;
#115 = APPROVAL_STATUS ( 'not_yet_approved' ) ;
#116 = APPROVAL_ROLE ( '' ) ;
#117 = PERSON_AND_ORGANIZATION ( #76, #25 ) ;
#118 = DATE_TIME_ROLE ( 'classification_date' ) ;
#119 = PERSON_AND_ORGANIZATION_ROLE ( 'classification_officer' ) ;
#120 = DIRECTION ( 'NONE',  ( 1.000000000000000000, 0.0000000000000000000, 0.0000000000000000000 ) ) ;
#121 = DIRECTION ( 'NONE',  ( 0.0000000000000000000, 0.0000000000000000000, 1.000000000000000000 ) ) ;
#122 =( NAMED_UNIT ( * ) SI_UNIT ( $, .STERADIAN. ) SOLID_ANGLE_UNIT ( ) );
#123 = PERSON_AND_ORGANIZATION_ROLE ( 'design_supplier' ) ;
#124 = DATE_AND_TIME ( #20, #109 ) ;
#125 = PERSON_AND_ORGANIZATION ( #76, #25 ) ;
#126 = DATE_AND_TIME ( #5, #87 ) ;
#127 = APPROVAL_DATE_TIME ( #126, #84 ) ;
#128 = PERSON_AND_ORGANIZATION ( #76, #25 ) ;
#129 = PERSON_AND_ORGANIZATION_ROLE ( 'creator' ) ;
#130 = DATE_AND_TIME ( #11, #91 ) ;
#131 = DATE_TIME_ROLE ( 'creation_date' ) ;
#132 = PERSON_AND_ORGANIZATION ( #76, #25 ) ;
#133 = APPROVAL_STATUS ( 'not_yet_approved' ) ;
#134 = APPROVAL_ROLE ( '' ) ;
#135 = DATE_AND_TIME ( #36, #105 ) ;
#136 = PERSON_AND_ORGANIZATION ( #76, #25 ) ;
#137 = APPROVAL_DATE_TIME ( #135, #107 ) ;
#138 = SECURITY_CLASSIFICATION_LEVEL ( 'unclassified' ) ;
#139 = PERSON_AND_ORGANIZATION ( #76, #25 ) ;
#140 = DIRECTION ( 'NONE',  ( 1.000000000000000000, 0.0000000000000000000, -0.0000000000000000000 ) ) ;
#141 = MECHANICAL_CONTEXT ( 'NONE', #174, 'mechanical' ) ;
#142 = CARTESIAN_POINT ( 'NONE',  ( 0.0000000000000000000, 0.0000000000000000000, 500.0000000000000000 ) ) ;
#143 = DIRECTION ( 'NONE',  ( 1.000000000000000000, 0.0000000000000000000, 0.0000000000000000000 ) ) ;
#144 = PERSON_AND_ORGANIZATION ( #76, #25 ) ;
#145 = CARTESIAN_POINT ( 'NONE',  ( 0.0000000000000000000, 0.0000000000000000000, 500.0000000000000000 ) ) ;
#146 =( LENGTH_UNIT ( ) NAMED_UNIT ( * ) SI_UNIT ( .MILLI., .METRE. ) );
#147 = PERSON_AND_ORGANIZATION_ROLE ( 'design_owner' ) ;
#148 = DIRECTION ( 'NONE',  ( -0.0000000000000000000, -0.0000000000000000000, -1.000000000000000000 ) ) ;
#149 = APPLICATION_PROTOCOL_DEFINITION ( 'international standard', 'config_control_design', 1994, #175 ) ;
#150 = DIRECTION ( 'NONE',  ( -1.000000000000000000, 0.0000000000000000000, 0.0000000000000000000 ) ) ;
#151 = DIRECTION ( 'NONE',  ( 0.0000000000000000000, 0.0000000000000000000, 1.000000000000000000 ) ) ;
#152 = CARTESIAN_POINT ( 'NONE',  ( 0.0000000000000000000, 0.0000000000000000000, 500.0000000000000000 ) ) ;
#153 = DIRECTION ( 'NONE',  ( 1.000000000000000000, 0.0000000000000000000, 0.0000000000000000000 ) ) ;
#154 = DIRECTION ( 'NONE',  ( 0.0000000000000000000, 0.0000000000000000000, 1.000000000000000000 ) ) ;
#155 = LINE ( 'NONE', #158, #38 ) ;
#156 = CARTESIAN_POINT ( 'NONE',  ( 0.0000000000000000000, 0.0000000000000000000, 500.0000000000000000 ) ) ;
#157 = CARTESIAN_POINT ( 'NONE',  ( 0.0000000000000000000, 0.0000000000000000000, -500.0000000000000000 ) ) ;
#158 = CARTESIAN_POINT ( 'NONE',  ( 7.000000000000000000, 8.572527594031473200E-016, 500.0000000000000000 ) ) ;
#159 = DIRECTION ( 'NONE',  ( -0.0000000000000000000, -0.0000000000000000000, -1.000000000000000000 ) ) ;
#160 = LINE ( 'NONE', #161, #23 ) ;
#161 = CARTESIAN_POINT ( 'NONE',  ( -7.000000000000000000, 0.0000000000000000000, 500.0000000000000000 ) ) ;
#162 = DIRECTION ( 'NONE',  ( -0.0000000000000000000, -0.0000000000000000000, -1.000000000000000000 ) ) ;
#163 = DIRECTION ( 'NONE',  ( 0.0000000000000000000, 0.0000000000000000000, 1.000000000000000000 ) ) ;
#164 =( NAMED_UNIT ( * ) PLANE_ANGLE_UNIT ( ) SI_UNIT ( $, .RADIAN. ) );
#165 = APPROVAL_ROLE ( '' ) ;
#166 = APPROVAL_STATUS ( 'not_yet_approved' ) ;
#167 = PERSON_AND_ORGANIZATION ( #76, #25 ) ;
#168 = PLANE ( 'NONE',  #24 ) ;
#169 = DIRECTION ( 'NONE',  ( -1.000000000000000000, 0.0000000000000000000, 0.0000000000000000000 ) ) ;
#170 = CARTESIAN_POINT ( 'NONE',  ( 0.0000000000000000000, 0.0000000000000000000, 0.0000000000000000000 ) ) ;
#171 = PERSON_AND_ORGANIZATION_ROLE ( 'creator' ) ;
#172 = APPLICATION_PROTOCOL_DEFINITION ( 'international standard', 'config_control_design', 1994, #174 ) ;
#173 = DIRECTION ( 'NONE',  ( -0.0000000000000000000, -0.0000000000000000000, -1.000000000000000000 ) ) ;
#174 = APPLICATION_CONTEXT ( 'configuration controlled 3d designs of mechanical parts and assemblies' ) ;
#175 = APPLICATION_CONTEXT ( 'configuration controlled 3d designs of mechanical parts and assemblies' ) ;
ENDSEC;
END-ISO-10303-21;
