ISO-10303-21;
HEADER;
FILE_DESCRIPTION (( 'STEP AP203' ),
    '1' );
FILE_NAME ('sone3D.STEP',
    '2015-08-11T09:41:35',
    ( '' ),
    ( '' ),
    'SwSTEP 2.0',
    'SolidWorks 2012',
    '' );
FILE_SCHEMA (( 'CONFIG_CONTROL_DESIGN' ));
ENDSEC;

DATA;
#1 = APPROVAL_STATUS ( 'not_yet_approved' ) ;
#2 = DATE_TIME_ROLE ( 'creation_date' ) ;
#3 = PERSON_AND_ORGANIZATION ( #114, #76 ) ;
#4 = APPROVAL_ROLE ( '' ) ;
#5 = APPLICATION_PROTOCOL_DEFINITION ( 'international standard', 'config_control_design', 1994, #110 ) ;
#6 = DATE_AND_TIME ( #58, #108 ) ;
#7 = PERSON_AND_ORGANIZATION_ROLE ( 'design_owner' ) ;
#8 = MECHANICAL_CONTEXT ( 'NONE', #111, 'mechanical' ) ;
#9 = APPROVAL_STATUS ( 'not_yet_approved' ) ;
#10 = PERSON_AND_ORGANIZATION ( #114, #76 ) ;
#11 = DIRECTION ( 'NONE',  ( 1.000000000000000000, 0.0000000000000000000, 0.0000000000000000000 ) ) ;
#12 = SHAPE_DEFINITION_REPRESENTATION ( #117, #113 ) ;
#13 = APPROVAL_DATE_TIME ( #6, #107 ) ;
#14 = DATE_AND_TIME ( #43, #96 ) ;
#15 = PERSON_AND_ORGANIZATION ( #114, #76 ) ;
#16 = APPROVAL_ROLE ( '' ) ;
#17 = DATE_AND_TIME ( #45, #79 ) ;
#18 = APPROVAL_DATE_TIME ( #17, #80 ) ;
#19 = DATE_AND_TIME ( #61, #82 ) ;
#20 = DATE_TIME_ROLE ( 'classification_date' ) ;
#21 = PERSON_AND_ORGANIZATION ( #114, #76 ) ;
#22 = APPROVAL_STATUS ( 'not_yet_approved' ) ;
#23 = PERSON_AND_ORGANIZATION_ROLE ( 'design_supplier' ) ;
#24 = SECURITY_CLASSIFICATION_LEVEL ( 'unclassified' ) ;
#25 = PERSON_AND_ORGANIZATION ( #114, #76 ) ;
#26 = PERSON_AND_ORGANIZATION_ROLE ( 'classification_officer' ) ;
#27 = APPROVAL_DATE_TIME ( #31, #88 ) ;
#28 = PERSON_AND_ORGANIZATION ( #114, #76 ) ;
#29 = PERSON_AND_ORGANIZATION_ROLE ( 'creator' ) ;
#30 = PERSON_AND_ORGANIZATION ( #114, #76 ) ;
#31 = DATE_AND_TIME ( #65, #92 ) ;
#32 = PERSON_AND_ORGANIZATION_ROLE ( 'creator' ) ;
#33 =( LENGTH_UNIT ( ) NAMED_UNIT ( * ) SI_UNIT ( .MILLI., .METRE. ) );
#34 =( NAMED_UNIT ( * ) PLANE_ANGLE_UNIT ( ) SI_UNIT ( $, .RADIAN. ) );
#35 =( NAMED_UNIT ( * ) SI_UNIT ( $, .STERADIAN. ) SOLID_ANGLE_UNIT ( ) );
#36 = CARTESIAN_POINT ( 'NONE',  ( 0.0000000000000000000, 0.0000000000000000000, 0.0000000000000000000 ) ) ;
#37 = PERSON_AND_ORGANIZATION ( #114, #76 ) ;
#38 = APPROVAL_ROLE ( '' ) ;
#39 = APPLICATION_PROTOCOL_DEFINITION ( 'international standard', 'config_control_design', 1994, #111 ) ;
#40 = DIRECTION ( 'NONE',  ( 0.0000000000000000000, 0.0000000000000000000, 1.000000000000000000 ) ) ;
#41 = AXIS2_PLACEMENT_3D ( 'NONE', #151, #172, #171 ) ;
#42 = AXIS2_PLACEMENT_3D ( 'NONE', #161, #134, #166 ) ;
#43 = CALENDAR_DATE ( 2015, 11, 8 ) ;
#44 = AXIS2_PLACEMENT_3D ( 'NONE', #138, #167, #135 ) ;
#45 = CALENDAR_DATE ( 2015, 11, 8 ) ;
#46 = AXIS2_PLACEMENT_3D ( 'NONE', #154, #140, #130 ) ;
#47 = CC_DESIGN_APPROVAL ( #80, ( #74 ) ) ;
#48 = CC_DESIGN_APPROVAL ( #88, ( #56 ) ) ;
#49 = VECTOR ( 'NONE', #156, 1000.000000000000000 ) ;
#50 = AXIS2_PLACEMENT_3D ( 'NONE', #36, #40, #11 ) ;
#51 = CC_DESIGN_SECURITY_CLASSIFICATION ( #74, ( #56 ) ) ;
#52 = APPROVAL_PERSON_ORGANIZATION ( #37, #88, #38 ) ;
#53 = AXIS2_PLACEMENT_3D ( 'NONE', #157, #155, #164 ) ;
#54 = COORDINATED_UNIVERSAL_TIME_OFFSET ( 9, 0, .AHEAD. ) ;
#55 = FACE_OUTER_BOUND ( 'NONE', #168, .T. ) ;
#56 = PRODUCT_DEFINITION_FORMATION_WITH_SPECIFIED_SOURCE ( 'ANY', '', #119, .NOT_KNOWN. ) ;
#57 = COORDINATED_UNIVERSAL_TIME_OFFSET ( 9, 0, .AHEAD. ) ;
#58 = CALENDAR_DATE ( 2015, 11, 8 ) ;
#59 = COORDINATED_UNIVERSAL_TIME_OFFSET ( 9, 0, .AHEAD. ) ;
#60 = COORDINATED_UNIVERSAL_TIME_OFFSET ( 9, 0, .AHEAD. ) ;
#61 = CALENDAR_DATE ( 2015, 11, 8 ) ;
#62 = APPROVAL_PERSON_ORGANIZATION ( #21, #80, #16 ) ;
#63 = AXIS2_PLACEMENT_3D ( 'NONE', #150, #175, #148 ) ;
#64 = AXIS2_PLACEMENT_3D ( 'NONE', #129, #122, #131 ) ;
#65 = CALENDAR_DATE ( 2015, 11, 8 ) ;
#66 = FACE_OUTER_BOUND ( 'NONE', #127, .T. ) ;
#67 = CC_DESIGN_APPROVAL ( #107, ( #106 ) ) ;
#68 = FACE_OUTER_BOUND ( 'NONE', #121, .T. ) ;
#69 = CYLINDRICAL_SURFACE ( 'NONE', #42, 6.500000000000000900 ) ;
#70 = CLOSED_SHELL ( 'NONE', ( #93, #91, #105, #98 ) ) ;
#71 = FACE_OUTER_BOUND ( 'NONE', #165, .T. ) ;
#72 = APPROVAL_PERSON_ORGANIZATION ( #10, #107, #4 ) ;
#73 = COORDINATED_UNIVERSAL_TIME_OFFSET ( 9, 0, .AHEAD. ) ;
#74 = SECURITY_CLASSIFICATION ( '', '', #24 ) ;
#75 = VECTOR ( 'NONE', #124, 1000.000000000000000 ) ;
#76 = ORGANIZATION ( 'UNSPECIFIED', 'UNSPECIFIED', '' ) ;
#77 = CYLINDRICAL_SURFACE ( 'NONE', #53, 6.500000000000000900 ) ;
#78 = AXIS2_PLACEMENT_3D ( 'NONE', #145, #152, #170 ) ;
#79 = LOCAL_TIME ( 18, 41, 35.00000000000000000, #59 ) ;
#80 = APPROVAL ( #22, 'UNSPECIFIED' ) ;
#81 = CC_DESIGN_DATE_AND_TIME_ASSIGNMENT ( #19, #20, ( #74 ) ) ;
#82 = LOCAL_TIME ( 18, 41, 35.00000000000000000, #57 ) ;
#83 = CIRCLE ( 'NONE', #46, 6.500000000000000900 ) ;
#84 = CC_DESIGN_PERSON_AND_ORGANIZATION_ASSIGNMENT ( #25, #26, ( #74 ) ) ;
#85 = CC_DESIGN_PERSON_AND_ORGANIZATION_ASSIGNMENT ( #30, #23, ( #56 ) ) ;
#86 = CC_DESIGN_DATE_AND_TIME_ASSIGNMENT ( #14, #2, ( #106 ) ) ;
#87 = CC_DESIGN_PERSON_AND_ORGANIZATION_ASSIGNMENT ( #15, #32, ( #106 ) ) ;
#88 = APPROVAL ( #1, 'UNSPECIFIED' ) ;
#89 = CIRCLE ( 'NONE', #63, 6.500000000000000900 ) ;
#90 = CC_DESIGN_PERSON_AND_ORGANIZATION_ASSIGNMENT ( #28, #29, ( #56 ) ) ;
#91 = ADVANCED_FACE ( 'NONE', ( #66 ), #77, .T. ) ;
#92 = LOCAL_TIME ( 18, 41, 35.00000000000000000, #54 ) ;
#93 = ADVANCED_FACE ( 'NONE', ( #68 ), #69, .T. ) ;
#94 = CIRCLE ( 'NONE', #41, 6.500000000000000900 ) ;
#95 = EDGE_CURVE ( 'NONE', #159, #174, #160, .T. ) ;
#96 = LOCAL_TIME ( 18, 41, 35.00000000000000000, #73 ) ;
#97 = CIRCLE ( 'NONE', #78, 6.500000000000000900 ) ;
#98 = ADVANCED_FACE ( 'NONE', ( #55 ), #136, .F. ) ;
#99 = EDGE_CURVE ( 'NONE', #159, #120, #97, .T. ) ;
#100 = EDGE_CURVE ( 'NONE', #169, #174, #94, .T. ) ;
#101 = PRODUCT_RELATED_PRODUCT_CATEGORY ( 'detail', '', ( #119 ) ) ;
#102 = EDGE_CURVE ( 'NONE', #120, #169, #149, .T. ) ;
#103 = EDGE_CURVE ( 'NONE', #120, #159, #83, .T. ) ;
#104 = EDGE_CURVE ( 'NONE', #174, #169, #89, .T. ) ;
#105 = ADVANCED_FACE ( 'NONE', ( #71 ), #125, .T. ) ;
#106 = PRODUCT_DEFINITION ( 'UNKNOWN', '', #56, #118 ) ;
#107 = APPROVAL ( #9, 'UNSPECIFIED' ) ;
#108 = LOCAL_TIME ( 18, 41, 35.00000000000000000, #60 ) ;
#109 = CC_DESIGN_PERSON_AND_ORGANIZATION_ASSIGNMENT ( #3, #7, ( #119 ) ) ;
#110 = APPLICATION_CONTEXT ( 'configuration controlled 3d designs of mechanical parts and assemblies' ) ;
#111 = APPLICATION_CONTEXT ( 'configuration controlled 3d designs of mechanical parts and assemblies' ) ;
#112 = UNCERTAINTY_MEASURE_WITH_UNIT (LENGTH_MEASURE( 1.000000000000000100E-005 ), #33, 'distance_accuracy_value', 'NONE');
#113 = ADVANCED_BREP_SHAPE_REPRESENTATION ( 'sone3D', ( #116, #50 ), #115 ) ;
#114 = PERSON ( 'UNSPECIFIED', 'UNSPECIFIED', 'UNSPECIFIED', ('UNSPECIFIED'), ('UNSPECIFIED'), ('UNSPECIFIED') ) ;
#115 =( GEOMETRIC_REPRESENTATION_CONTEXT ( 3 ) GLOBAL_UNCERTAINTY_ASSIGNED_CONTEXT ( ( #112 ) ) GLOBAL_UNIT_ASSIGNED_CONTEXT ( ( #33, #34, #35 ) ) REPRESENTATION_CONTEXT ( 'NONE', 'WORKASPACE' ) );
#116 = MANIFOLD_SOLID_BREP ( 'ÎÞ½ - µoµ1', #70 ) ;
#117 = PRODUCT_DEFINITION_SHAPE ( 'NONE', 'NONE',  #106 ) ;
#118 = DESIGN_CONTEXT ( 'detailed design', #110, 'design' ) ;
#119 = PRODUCT ( 'sone3D', 'sone3D', '', ( #8 ) ) ;
#120 = VERTEX_POINT ( 'NONE', #128 ) ;
#121 = EDGE_LOOP ( 'NONE', ( #132, #173, #142, #158 ) ) ;
#122 = DIRECTION ( 'NONE',  ( 0.0000000000000000000, 0.0000000000000000000, 1.000000000000000000 ) ) ;
#123 = CARTESIAN_POINT ( 'NONE',  ( 6.500000000000000900, 7.960204194457796500E-016, 500.0000000000000000 ) ) ;
#124 = DIRECTION ( 'NONE',  ( -0.0000000000000000000, -0.0000000000000000000, -1.000000000000000000 ) ) ;
#125 = PLANE ( 'NONE',  #64 ) ;
#126 = CARTESIAN_POINT ( 'NONE',  ( -6.500000000000000900, 0.0000000000000000000, -500.0000000000000000 ) ) ;
#127 = EDGE_LOOP ( 'NONE', ( #153, #162, #133, #144 ) ) ;
#128 = CARTESIAN_POINT ( 'NONE',  ( -6.500000000000000900, 0.0000000000000000000, 500.0000000000000000 ) ) ;
#129 = CARTESIAN_POINT ( 'NONE',  ( 0.0000000000000000000, 0.0000000000000000000, 500.0000000000000000 ) ) ;
#130 = DIRECTION ( 'NONE',  ( 1.000000000000000000, 0.0000000000000000000, 0.0000000000000000000 ) ) ;
#131 = DIRECTION ( 'NONE',  ( 1.000000000000000000, 0.0000000000000000000, -0.0000000000000000000 ) ) ;
#132 = ORIENTED_EDGE ( 'NONE', *, *, #99, .F. ) ;
#133 = ORIENTED_EDGE ( 'NONE', *, *, #102, .T. ) ;
#134 = DIRECTION ( 'NONE',  ( -0.0000000000000000000, -0.0000000000000000000, -1.000000000000000000 ) ) ;
#135 = DIRECTION ( 'NONE',  ( 1.000000000000000000, 0.0000000000000000000, -0.0000000000000000000 ) ) ;
#136 = PLANE ( 'NONE',  #44 ) ;
#137 = ORIENTED_EDGE ( 'NONE', *, *, #103, .T. ) ;
#138 = CARTESIAN_POINT ( 'NONE',  ( 0.0000000000000000000, 0.0000000000000000000, -500.0000000000000000 ) ) ;
#139 = CARTESIAN_POINT ( 'NONE',  ( -6.500000000000000900, 0.0000000000000000000, 500.0000000000000000 ) ) ;
#140 = DIRECTION ( 'NONE',  ( 0.0000000000000000000, 0.0000000000000000000, 1.000000000000000000 ) ) ;
#141 = CARTESIAN_POINT ( 'NONE',  ( 6.500000000000000900, 7.960204194457796500E-016, -500.0000000000000000 ) ) ;
#142 = ORIENTED_EDGE ( 'NONE', *, *, #104, .T. ) ;
#143 = ORIENTED_EDGE ( 'NONE', *, *, #104, .F. ) ;
#144 = ORIENTED_EDGE ( 'NONE', *, *, #100, .T. ) ;
#145 = CARTESIAN_POINT ( 'NONE',  ( 0.0000000000000000000, 0.0000000000000000000, 500.0000000000000000 ) ) ;
#146 = ORIENTED_EDGE ( 'NONE', *, *, #99, .T. ) ;
#147 = ORIENTED_EDGE ( 'NONE', *, *, #100, .F. ) ;
#148 = DIRECTION ( 'NONE',  ( 1.000000000000000000, 0.0000000000000000000, 0.0000000000000000000 ) ) ;
#149 = LINE ( 'NONE', #139, #75 ) ;
#150 = CARTESIAN_POINT ( 'NONE',  ( 0.0000000000000000000, 0.0000000000000000000, -500.0000000000000000 ) ) ;
#151 = CARTESIAN_POINT ( 'NONE',  ( 0.0000000000000000000, 0.0000000000000000000, -500.0000000000000000 ) ) ;
#152 = DIRECTION ( 'NONE',  ( 0.0000000000000000000, 0.0000000000000000000, 1.000000000000000000 ) ) ;
#153 = ORIENTED_EDGE ( 'NONE', *, *, #95, .F. ) ;
#154 = CARTESIAN_POINT ( 'NONE',  ( 0.0000000000000000000, 0.0000000000000000000, 500.0000000000000000 ) ) ;
#155 = DIRECTION ( 'NONE',  ( -0.0000000000000000000, -0.0000000000000000000, -1.000000000000000000 ) ) ;
#156 = DIRECTION ( 'NONE',  ( -0.0000000000000000000, -0.0000000000000000000, -1.000000000000000000 ) ) ;
#157 = CARTESIAN_POINT ( 'NONE',  ( 0.0000000000000000000, 0.0000000000000000000, 500.0000000000000000 ) ) ;
#158 = ORIENTED_EDGE ( 'NONE', *, *, #102, .F. ) ;
#159 = VERTEX_POINT ( 'NONE', #123 ) ;
#160 = LINE ( 'NONE', #163, #49 ) ;
#161 = CARTESIAN_POINT ( 'NONE',  ( 0.0000000000000000000, 0.0000000000000000000, 500.0000000000000000 ) ) ;
#162 = ORIENTED_EDGE ( 'NONE', *, *, #103, .F. ) ;
#163 = CARTESIAN_POINT ( 'NONE',  ( 6.500000000000000900, 7.960204194457796500E-016, 500.0000000000000000 ) ) ;
#164 = DIRECTION ( 'NONE',  ( -1.000000000000000000, 0.0000000000000000000, 0.0000000000000000000 ) ) ;
#165 = EDGE_LOOP ( 'NONE', ( #137, #146 ) ) ;
#166 = DIRECTION ( 'NONE',  ( -1.000000000000000000, 0.0000000000000000000, 0.0000000000000000000 ) ) ;
#167 = DIRECTION ( 'NONE',  ( 0.0000000000000000000, 0.0000000000000000000, 1.000000000000000000 ) ) ;
#168 = EDGE_LOOP ( 'NONE', ( #147, #143 ) ) ;
#169 = VERTEX_POINT ( 'NONE', #126 ) ;
#170 = DIRECTION ( 'NONE',  ( 1.000000000000000000, 0.0000000000000000000, 0.0000000000000000000 ) ) ;
#171 = DIRECTION ( 'NONE',  ( 1.000000000000000000, 0.0000000000000000000, 0.0000000000000000000 ) ) ;
#172 = DIRECTION ( 'NONE',  ( 0.0000000000000000000, 0.0000000000000000000, 1.000000000000000000 ) ) ;
#173 = ORIENTED_EDGE ( 'NONE', *, *, #95, .T. ) ;
#174 = VERTEX_POINT ( 'NONE', #141 ) ;
#175 = DIRECTION ( 'NONE',  ( 0.0000000000000000000, 0.0000000000000000000, 1.000000000000000000 ) ) ;
ENDSEC;
END-ISO-10303-21;
