ISO-10303-21;
HEADER;
FILE_DESCRIPTION (( 'STEP AP203' ),
    '1' );
FILE_NAME ('sone3D.STEP',
    '2015-08-11T09:41:13',
    ( '' ),
    ( '' ),
    'SwSTEP 2.0',
    'SolidWorks 2012',
    '' );
FILE_SCHEMA (( 'CONFIG_CONTROL_DESIGN' ));
ENDSEC;

DATA;
#1 = APPROVAL_STATUS ( 'not_yet_approved' ) ;
#2 = DATE_TIME_ROLE ( 'creation_date' ) ;
#3 = DATE_AND_TIME ( #56, #92 ) ;
#4 = APPROVAL_ROLE ( '' ) ;
#5 = APPLICATION_PROTOCOL_DEFINITION ( 'international standard', 'config_control_design', 1994, #108 ) ;
#6 = PERSON_AND_ORGANIZATION ( #110, #69 ) ;
#7 = APPROVAL_STATUS ( 'not_yet_approved' ) ;
#8 = DATE_AND_TIME ( #55, #104 ) ;
#9 = APPROVAL_DATE_TIME ( #8, #102 ) ;
#10 = APPROVAL_ROLE ( '' ) ;
#11 = APPROVAL_ROLE ( '' ) ;
#12 = DATE_AND_TIME ( #67, #76 ) ;
#13 = APPROVAL_DATE_TIME ( #12, #77 ) ;
#14 = DATE_AND_TIME ( #71, #79 ) ;
#15 = DATE_TIME_ROLE ( 'classification_date' ) ;
#16 = PERSON_AND_ORGANIZATION ( #110, #69 ) ;
#17 = APPROVAL_STATUS ( 'not_yet_approved' ) ;
#18 = PERSON_AND_ORGANIZATION_ROLE ( 'design_supplier' ) ;
#19 = SECURITY_CLASSIFICATION_LEVEL ( 'unclassified' ) ;
#20 = PERSON_AND_ORGANIZATION ( #110, #69 ) ;
#21 = PERSON_AND_ORGANIZATION_ROLE ( 'classification_officer' ) ;
#22 = APPROVAL_DATE_TIME ( #27, #86 ) ;
#23 = PERSON_AND_ORGANIZATION ( #110, #69 ) ;
#24 = PERSON_AND_ORGANIZATION_ROLE ( 'creator' ) ;
#25 = PERSON_AND_ORGANIZATION ( #110, #69 ) ;
#26 = PERSON_AND_ORGANIZATION ( #110, #69 ) ;
#27 = DATE_AND_TIME ( #39, #88 ) ;
#28 = APPLICATION_PROTOCOL_DEFINITION ( 'international standard', 'config_control_design', 1994, #107 ) ;
#29 = CARTESIAN_POINT ( 'NONE',  ( 0.0000000000000000000, 0.0000000000000000000, 0.0000000000000000000 ) ) ;
#30 = DIRECTION ( 'NONE',  ( 0.0000000000000000000, 0.0000000000000000000, 1.000000000000000000 ) ) ;
#31 = DIRECTION ( 'NONE',  ( 1.000000000000000000, 0.0000000000000000000, 0.0000000000000000000 ) ) ;
#32 = SHAPE_DEFINITION_REPRESENTATION ( #115, #111 ) ;
#33 = PERSON_AND_ORGANIZATION_ROLE ( 'creator' ) ;
#34 = MECHANICAL_CONTEXT ( 'NONE', #107, 'mechanical' ) ;
#35 = PERSON_AND_ORGANIZATION ( #110, #69 ) ;
#36 = PERSON_AND_ORGANIZATION ( #110, #69 ) ;
#37 = PERSON_AND_ORGANIZATION_ROLE ( 'design_owner' ) ;
#38 = APPROVAL_PERSON_ORGANIZATION ( #16, #77, #11 ) ;
#39 = CALENDAR_DATE ( 2015, 11, 8 ) ;
#40 = VECTOR ( 'NONE', #136, 1000.000000000000000 ) ;
#41 = AXIS2_PLACEMENT_3D ( 'NONE', #29, #30, #31 ) ;
#42 = COORDINATED_UNIVERSAL_TIME_OFFSET ( 9, 0, .AHEAD. ) ;
#43 = AXIS2_PLACEMENT_3D ( 'NONE', #140, #157, #170 ) ;
#44 = CYLINDRICAL_SURFACE ( 'NONE', #43, 6.000000000000000900 ) ;
#45 = CC_DESIGN_SECURITY_CLASSIFICATION ( #63, ( #62 ) ) ;
#46 = AXIS2_PLACEMENT_3D ( 'NONE', #132, #143, #127 ) ;
#47 = APPROVAL_PERSON_ORGANIZATION ( #36, #86, #10 ) ;
#48 = COORDINATED_UNIVERSAL_TIME_OFFSET ( 9, 0, .AHEAD. ) ;
#49 = AXIS2_PLACEMENT_3D ( 'NONE', #121, #134, #129 ) ;
#50 = AXIS2_PLACEMENT_3D ( 'NONE', #165, #131, #154 ) ;
#51 = FACE_OUTER_BOUND ( 'NONE', #120, .T. ) ;
#52 = AXIS2_PLACEMENT_3D ( 'NONE', #133, #171, #166 ) ;
#53 = CLOSED_SHELL ( 'NONE', ( #99, #94, #93, #89 ) ) ;
#54 = AXIS2_PLACEMENT_3D ( 'NONE', #145, #138, #141 ) ;
#55 = CALENDAR_DATE ( 2015, 11, 8 ) ;
#56 = CALENDAR_DATE ( 2015, 11, 8 ) ;
#57 = AXIS2_PLACEMENT_3D ( 'NONE', #126, #124, #164 ) ;
#58 = AXIS2_PLACEMENT_3D ( 'NONE', #144, #150, #128 ) ;
#59 = FACE_OUTER_BOUND ( 'NONE', #173, .T. ) ;
#60 = FACE_OUTER_BOUND ( 'NONE', #148, .T. ) ;
#61 = CC_DESIGN_APPROVAL ( #77, ( #63 ) ) ;
#62 = PRODUCT_DEFINITION_FORMATION_WITH_SPECIFIED_SOURCE ( 'ANY', '', #116, .NOT_KNOWN. ) ;
#63 = SECURITY_CLASSIFICATION ( '', '', #19 ) ;
#64 = CC_DESIGN_APPROVAL ( #102, ( #91 ) ) ;
#65 = APPROVAL_PERSON_ORGANIZATION ( #6, #102, #4 ) ;
#66 = COORDINATED_UNIVERSAL_TIME_OFFSET ( 9, 0, .AHEAD. ) ;
#67 = CALENDAR_DATE ( 2015, 11, 8 ) ;
#68 = VECTOR ( 'NONE', #122, 1000.000000000000000 ) ;
#69 = ORGANIZATION ( 'UNSPECIFIED', 'UNSPECIFIED', '' ) ;
#70 = CC_DESIGN_APPROVAL ( #86, ( #62 ) ) ;
#71 = CALENDAR_DATE ( 2015, 11, 8 ) ;
#72 = FACE_OUTER_BOUND ( 'NONE', #155, .T. ) ;
#73 = CYLINDRICAL_SURFACE ( 'NONE', #46, 6.000000000000000900 ) ;
#74 = COORDINATED_UNIVERSAL_TIME_OFFSET ( 9, 0, .AHEAD. ) ;
#75 = COORDINATED_UNIVERSAL_TIME_OFFSET ( 9, 0, .AHEAD. ) ;
#76 = LOCAL_TIME ( 18, 41, 13.00000000000000000, #48 ) ;
#77 = APPROVAL ( #17, 'UNSPECIFIED' ) ;
#78 = CC_DESIGN_DATE_AND_TIME_ASSIGNMENT ( #14, #15, ( #63 ) ) ;
#79 = LOCAL_TIME ( 18, 41, 13.00000000000000000, #74 ) ;
#80 = CC_DESIGN_PERSON_AND_ORGANIZATION_ASSIGNMENT ( #20, #21, ( #63 ) ) ;
#81 = EDGE_CURVE ( 'NONE', #139, #146, #90, .T. ) ;
#82 = EDGE_CURVE ( 'NONE', #174, #139, #142, .T. ) ;
#83 = CC_DESIGN_PERSON_AND_ORGANIZATION_ASSIGNMENT ( #25, #18, ( #62 ) ) ;
#84 = CC_DESIGN_PERSON_AND_ORGANIZATION_ASSIGNMENT ( #26, #33, ( #91 ) ) ;
#85 = CC_DESIGN_DATE_AND_TIME_ASSIGNMENT ( #3, #2, ( #91 ) ) ;
#86 = APPROVAL ( #1, 'UNSPECIFIED' ) ;
#87 = CC_DESIGN_PERSON_AND_ORGANIZATION_ASSIGNMENT ( #23, #24, ( #62 ) ) ;
#88 = LOCAL_TIME ( 18, 41, 13.00000000000000000, #42 ) ;
#89 = ADVANCED_FACE ( 'NONE', ( #72 ), #161, .F. ) ;
#90 = CIRCLE ( 'NONE', #52, 6.000000000000000900 ) ;
#91 = PRODUCT_DEFINITION ( 'UNKNOWN', '', #62, #114 ) ;
#92 = LOCAL_TIME ( 18, 41, 13.00000000000000000, #66 ) ;
#93 = ADVANCED_FACE ( 'NONE', ( #51 ), #152, .T. ) ;
#94 = ADVANCED_FACE ( 'NONE', ( #60 ), #73, .T. ) ;
#95 = EDGE_CURVE ( 'NONE', #146, #139, #100, .T. ) ;
#96 = CIRCLE ( 'NONE', #49, 6.000000000000000900 ) ;
#97 = EDGE_CURVE ( 'NONE', #174, #147, #105, .T. ) ;
#98 = EDGE_CURVE ( 'NONE', #147, #146, #167, .T. ) ;
#99 = ADVANCED_FACE ( 'NONE', ( #59 ), #44, .T. ) ;
#100 = CIRCLE ( 'NONE', #57, 6.000000000000000900 ) ;
#101 = EDGE_CURVE ( 'NONE', #147, #174, #96, .T. ) ;
#102 = APPROVAL ( #7, 'UNSPECIFIED' ) ;
#103 = CC_DESIGN_PERSON_AND_ORGANIZATION_ASSIGNMENT ( #35, #37, ( #116 ) ) ;
#104 = LOCAL_TIME ( 18, 41, 13.00000000000000000, #75 ) ;
#105 = CIRCLE ( 'NONE', #58, 6.000000000000000900 ) ;
#106 = PRODUCT_RELATED_PRODUCT_CATEGORY ( 'detail', '', ( #116 ) ) ;
#107 = APPLICATION_CONTEXT ( 'configuration controlled 3d designs of mechanical parts and assemblies' ) ;
#108 = APPLICATION_CONTEXT ( 'configuration controlled 3d designs of mechanical parts and assemblies' ) ;
#109 = UNCERTAINTY_MEASURE_WITH_UNIT (LENGTH_MEASURE( 1.000000000000000100E-005 ), #137, 'distance_accuracy_value', 'NONE');
#110 = PERSON ( 'UNSPECIFIED', 'UNSPECIFIED', 'UNSPECIFIED', ('UNSPECIFIED'), ('UNSPECIFIED'), ('UNSPECIFIED') ) ;
#111 = ADVANCED_BREP_SHAPE_REPRESENTATION ( 'sone3D', ( #113, #41 ), #112 ) ;
#112 =( GEOMETRIC_REPRESENTATION_CONTEXT ( 3 ) GLOBAL_UNCERTAINTY_ASSIGNED_CONTEXT ( ( #109 ) ) GLOBAL_UNIT_ASSIGNED_CONTEXT ( ( #137, #118, #135 ) ) REPRESENTATION_CONTEXT ( 'NONE', 'WORKASPACE' ) );
#113 = MANIFOLD_SOLID_BREP ( 'ÎÞ½ - µoµ1', #53 ) ;
#114 = DESIGN_CONTEXT ( 'detailed design', #108, 'design' ) ;
#115 = PRODUCT_DEFINITION_SHAPE ( 'NONE', 'NONE',  #91 ) ;
#116 = PRODUCT ( 'sone3D', 'sone3D', '', ( #34 ) ) ;
#117 = ORIENTED_EDGE ( 'NONE', *, *, #82, .T. ) ;
#118 =( NAMED_UNIT ( * ) PLANE_ANGLE_UNIT ( ) SI_UNIT ( $, .RADIAN. ) );
#119 = ORIENTED_EDGE ( 'NONE', *, *, #98, .T. ) ;
#120 = EDGE_LOOP ( 'NONE', ( #158, #162 ) ) ;
#121 = CARTESIAN_POINT ( 'NONE',  ( 0.0000000000000000000, 0.0000000000000000000, 500.0000000000000000 ) ) ;
#122 = DIRECTION ( 'NONE',  ( -0.0000000000000000000, -0.0000000000000000000, -1.000000000000000000 ) ) ;
#123 = ORIENTED_EDGE ( 'NONE', *, *, #101, .F. ) ;
#124 = DIRECTION ( 'NONE',  ( 0.0000000000000000000, 0.0000000000000000000, 1.000000000000000000 ) ) ;
#125 = ORIENTED_EDGE ( 'NONE', *, *, #95, .T. ) ;
#126 = CARTESIAN_POINT ( 'NONE',  ( 0.0000000000000000000, 0.0000000000000000000, -500.0000000000000000 ) ) ;
#127 = DIRECTION ( 'NONE',  ( -1.000000000000000000, 0.0000000000000000000, 0.0000000000000000000 ) ) ;
#128 = DIRECTION ( 'NONE',  ( 1.000000000000000000, 0.0000000000000000000, 0.0000000000000000000 ) ) ;
#129 = DIRECTION ( 'NONE',  ( 1.000000000000000000, 0.0000000000000000000, 0.0000000000000000000 ) ) ;
#130 = ORIENTED_EDGE ( 'NONE', *, *, #81, .T. ) ;
#131 = DIRECTION ( 'NONE',  ( 0.0000000000000000000, 0.0000000000000000000, 1.000000000000000000 ) ) ;
#132 = CARTESIAN_POINT ( 'NONE',  ( 0.0000000000000000000, 0.0000000000000000000, 500.0000000000000000 ) ) ;
#133 = CARTESIAN_POINT ( 'NONE',  ( 0.0000000000000000000, 0.0000000000000000000, -500.0000000000000000 ) ) ;
#134 = DIRECTION ( 'NONE',  ( 0.0000000000000000000, 0.0000000000000000000, 1.000000000000000000 ) ) ;
#135 =( NAMED_UNIT ( * ) SI_UNIT ( $, .STERADIAN. ) SOLID_ANGLE_UNIT ( ) );
#136 = DIRECTION ( 'NONE',  ( -0.0000000000000000000, -0.0000000000000000000, -1.000000000000000000 ) ) ;
#137 =( LENGTH_UNIT ( ) NAMED_UNIT ( * ) SI_UNIT ( .MILLI., .METRE. ) );
#138 = DIRECTION ( 'NONE',  ( 0.0000000000000000000, 0.0000000000000000000, 1.000000000000000000 ) ) ;
#139 = VERTEX_POINT ( 'NONE', #168 ) ;
#140 = CARTESIAN_POINT ( 'NONE',  ( 0.0000000000000000000, 0.0000000000000000000, 500.0000000000000000 ) ) ;
#141 = DIRECTION ( 'NONE',  ( 1.000000000000000000, 0.0000000000000000000, -0.0000000000000000000 ) ) ;
#142 = LINE ( 'NONE', #172, #40 ) ;
#143 = DIRECTION ( 'NONE',  ( -0.0000000000000000000, -0.0000000000000000000, -1.000000000000000000 ) ) ;
#144 = CARTESIAN_POINT ( 'NONE',  ( 0.0000000000000000000, 0.0000000000000000000, 500.0000000000000000 ) ) ;
#145 = CARTESIAN_POINT ( 'NONE',  ( 0.0000000000000000000, 0.0000000000000000000, 500.0000000000000000 ) ) ;
#146 = VERTEX_POINT ( 'NONE', #151 ) ;
#147 = VERTEX_POINT ( 'NONE', #163 ) ;
#148 = EDGE_LOOP ( 'NONE', ( #159, #123, #119, #125 ) ) ;
#149 = ORIENTED_EDGE ( 'NONE', *, *, #98, .F. ) ;
#150 = DIRECTION ( 'NONE',  ( 0.0000000000000000000, 0.0000000000000000000, 1.000000000000000000 ) ) ;
#151 = CARTESIAN_POINT ( 'NONE',  ( -6.000000000000000900, 0.0000000000000000000, -500.0000000000000000 ) ) ;
#152 = PLANE ( 'NONE',  #54 ) ;
#153 = CARTESIAN_POINT ( 'NONE',  ( -6.000000000000000900, 0.0000000000000000000, 500.0000000000000000 ) ) ;
#154 = DIRECTION ( 'NONE',  ( 1.000000000000000000, 0.0000000000000000000, -0.0000000000000000000 ) ) ;
#155 = EDGE_LOOP ( 'NONE', ( #175, #156 ) ) ;
#156 = ORIENTED_EDGE ( 'NONE', *, *, #81, .F. ) ;
#157 = DIRECTION ( 'NONE',  ( -0.0000000000000000000, -0.0000000000000000000, -1.000000000000000000 ) ) ;
#158 = ORIENTED_EDGE ( 'NONE', *, *, #101, .T. ) ;
#159 = ORIENTED_EDGE ( 'NONE', *, *, #82, .F. ) ;
#160 = CARTESIAN_POINT ( 'NONE',  ( 6.000000000000000900, 7.347880794884120700E-016, 500.0000000000000000 ) ) ;
#161 = PLANE ( 'NONE',  #50 ) ;
#162 = ORIENTED_EDGE ( 'NONE', *, *, #97, .T. ) ;
#163 = CARTESIAN_POINT ( 'NONE',  ( -6.000000000000000900, 0.0000000000000000000, 500.0000000000000000 ) ) ;
#164 = DIRECTION ( 'NONE',  ( 1.000000000000000000, 0.0000000000000000000, 0.0000000000000000000 ) ) ;
#165 = CARTESIAN_POINT ( 'NONE',  ( 0.0000000000000000000, 0.0000000000000000000, -500.0000000000000000 ) ) ;
#166 = DIRECTION ( 'NONE',  ( 1.000000000000000000, 0.0000000000000000000, 0.0000000000000000000 ) ) ;
#167 = LINE ( 'NONE', #153, #68 ) ;
#168 = CARTESIAN_POINT ( 'NONE',  ( 6.000000000000000900, 7.347880794884120700E-016, -500.0000000000000000 ) ) ;
#169 = ORIENTED_EDGE ( 'NONE', *, *, #97, .F. ) ;
#170 = DIRECTION ( 'NONE',  ( -1.000000000000000000, 0.0000000000000000000, 0.0000000000000000000 ) ) ;
#171 = DIRECTION ( 'NONE',  ( 0.0000000000000000000, 0.0000000000000000000, 1.000000000000000000 ) ) ;
#172 = CARTESIAN_POINT ( 'NONE',  ( 6.000000000000000900, 7.347880794884120700E-016, 500.0000000000000000 ) ) ;
#173 = EDGE_LOOP ( 'NONE', ( #169, #117, #130, #149 ) ) ;
#174 = VERTEX_POINT ( 'NONE', #160 ) ;
#175 = ORIENTED_EDGE ( 'NONE', *, *, #95, .F. ) ;
ENDSEC;
END-ISO-10303-21;
