ISO-10303-21;
HEADER;
FILE_DESCRIPTION (( 'STEP AP203' ),
    '1' );
FILE_NAME ('sone3D.STEP',
    '2015-08-11T09:40:51',
    ( '' ),
    ( '' ),
    'SwSTEP 2.0',
    'SolidWorks 2012',
    '' );
FILE_SCHEMA (( 'CONFIG_CONTROL_DESIGN' ));
ENDSEC;

DATA;
#1 = PERSON_AND_ORGANIZATION ( #37, #61 ) ;
#2 = DATE_TIME_ROLE ( 'creation_date' ) ;
#3 = PERSON_AND_ORGANIZATION ( #37, #61 ) ;
#4 = DATE_AND_TIME ( #64, #88 ) ;
#5 = PERSON_AND_ORGANIZATION_ROLE ( 'creator' ) ;
#6 = APPROVAL_STATUS ( 'not_yet_approved' ) ;
#7 = PERSON_AND_ORGANIZATION ( #37, #61 ) ;
#8 = PERSON_AND_ORGANIZATION_ROLE ( 'design_owner' ) ;
#9 = APPLICATION_PROTOCOL_DEFINITION ( 'international standard', 'config_control_design', 1994, #110 ) ;
#10 = PERSON_AND_ORGANIZATION ( #37, #61 ) ;
#11 = APPROVAL_STATUS ( 'not_yet_approved' ) ;
#12 = APPROVAL_ROLE ( '' ) ;
#13 = DATE_AND_TIME ( #60, #103 ) ;
#14 = APPROVAL_DATE_TIME ( #13, #78 ) ;
#15 = DATE_AND_TIME ( #70, #81 ) ;
#16 = DATE_TIME_ROLE ( 'classification_date' ) ;
#17 = PERSON_AND_ORGANIZATION ( #37, #61 ) ;
#18 = APPROVAL_STATUS ( 'not_yet_approved' ) ;
#19 = PERSON_AND_ORGANIZATION_ROLE ( 'design_supplier' ) ;
#20 = SECURITY_CLASSIFICATION_LEVEL ( 'unclassified' ) ;
#21 = PERSON_AND_ORGANIZATION ( #37, #61 ) ;
#22 = PERSON_AND_ORGANIZATION_ROLE ( 'classification_officer' ) ;
#23 = APPROVAL_DATE_TIME ( #28, #98 ) ;
#24 = PERSON_AND_ORGANIZATION ( #37, #61 ) ;
#25 = PERSON_AND_ORGANIZATION_ROLE ( 'creator' ) ;
#26 = PERSON_AND_ORGANIZATION ( #37, #61 ) ;
#27 = APPROVAL_ROLE ( '' ) ;
#28 = DATE_AND_TIME ( #59, #91 ) ;
#29 = APPROVAL_DATE_TIME ( #31, #105 ) ;
#30 = APPROVAL_ROLE ( '' ) ;
#31 = DATE_AND_TIME ( #67, #79 ) ;
#32 = DIRECTION ( 'NONE',  ( 0.0000000000000000000, 0.0000000000000000000, 1.000000000000000000 ) ) ;
#33 = DIRECTION ( 'NONE',  ( 1.000000000000000000, 0.0000000000000000000, 0.0000000000000000000 ) ) ;
#34 = SHAPE_DEFINITION_REPRESENTATION ( #114, #39 ) ;
#35 = APPLICATION_PROTOCOL_DEFINITION ( 'international standard', 'config_control_design', 1994, #109 ) ;
#36 = MECHANICAL_CONTEXT ( 'NONE', #109, 'mechanical' ) ;
#37 = PERSON ( 'UNSPECIFIED', 'UNSPECIFIED', 'UNSPECIFIED', ('UNSPECIFIED'), ('UNSPECIFIED'), ('UNSPECIFIED') ) ;
#38 = UNCERTAINTY_MEASURE_WITH_UNIT (LENGTH_MEASURE( 1.000000000000000100E-005 ), #133, 'distance_accuracy_value', 'NONE');
#39 = ADVANCED_BREP_SHAPE_REPRESENTATION ( 'sone3D', ( #113, #71 ), #111 ) ;
#40 = FACE_OUTER_BOUND ( 'NONE', #147, .T. ) ;
#41 = FACE_OUTER_BOUND ( 'NONE', #128, .T. ) ;
#42 = CC_DESIGN_APPROVAL ( #105, ( #94 ) ) ;
#43 = CC_DESIGN_APPROVAL ( #78, ( #65 ) ) ;
#44 = AXIS2_PLACEMENT_3D ( 'NONE', #118, #166, #144 ) ;
#45 = FACE_OUTER_BOUND ( 'NONE', #175, .T. ) ;
#46 = APPROVAL_PERSON_ORGANIZATION ( #17, #78, #12 ) ;
#47 = PRODUCT_DEFINITION_FORMATION_WITH_SPECIFIED_SOURCE ( 'ANY', '', #115, .NOT_KNOWN. ) ;
#48 = COORDINATED_UNIVERSAL_TIME_OFFSET ( 9, 0, .AHEAD. ) ;
#49 = CC_DESIGN_SECURITY_CLASSIFICATION ( #65, ( #47 ) ) ;
#50 = AXIS2_PLACEMENT_3D ( 'NONE', #124, #156, #174 ) ;
#51 = CLOSED_SHELL ( 'NONE', ( #86, #93, #100, #101 ) ) ;
#52 = APPROVAL_PERSON_ORGANIZATION ( #3, #105, #30 ) ;
#53 = CC_DESIGN_APPROVAL ( #98, ( #47 ) ) ;
#54 = AXIS2_PLACEMENT_3D ( 'NONE', #142, #163, #171 ) ;
#55 = AXIS2_PLACEMENT_3D ( 'NONE', #137, #167, #136 ) ;
#56 = AXIS2_PLACEMENT_3D ( 'NONE', #123, #139, #154 ) ;
#57 = AXIS2_PLACEMENT_3D ( 'NONE', #149, #152, #119 ) ;
#58 = COORDINATED_UNIVERSAL_TIME_OFFSET ( 9, 0, .AHEAD. ) ;
#59 = CALENDAR_DATE ( 2015, 11, 8 ) ;
#60 = CALENDAR_DATE ( 2015, 11, 8 ) ;
#61 = ORGANIZATION ( 'UNSPECIFIED', 'UNSPECIFIED', '' ) ;
#62 = CYLINDRICAL_SURFACE ( 'NONE', #56, 5.500000000000000000 ) ;
#63 = VECTOR ( 'NONE', #120, 1000.000000000000000 ) ;
#64 = CALENDAR_DATE ( 2015, 11, 8 ) ;
#65 = SECURITY_CLASSIFICATION ( '', '', #20 ) ;
#66 = AXIS2_PLACEMENT_3D ( 'NONE', #138, #145, #141 ) ;
#67 = CALENDAR_DATE ( 2015, 11, 8 ) ;
#68 = APPROVAL_PERSON_ORGANIZATION ( #1, #98, #27 ) ;
#69 = COORDINATED_UNIVERSAL_TIME_OFFSET ( 9, 0, .AHEAD. ) ;
#70 = CALENDAR_DATE ( 2015, 11, 8 ) ;
#71 = AXIS2_PLACEMENT_3D ( 'NONE', #151, #32, #33 ) ;
#72 = COORDINATED_UNIVERSAL_TIME_OFFSET ( 9, 0, .AHEAD. ) ;
#73 = CYLINDRICAL_SURFACE ( 'NONE', #57, 5.500000000000000000 ) ;
#74 = FACE_OUTER_BOUND ( 'NONE', #172, .T. ) ;
#75 = COORDINATED_UNIVERSAL_TIME_OFFSET ( 9, 0, .AHEAD. ) ;
#76 = VECTOR ( 'NONE', #153, 1000.000000000000000 ) ;
#77 = AXIS2_PLACEMENT_3D ( 'NONE', #155, #143, #127 ) ;
#78 = APPROVAL ( #18, 'UNSPECIFIED' ) ;
#79 = LOCAL_TIME ( 18, 40, 51.00000000000000000, #69 ) ;
#80 = CC_DESIGN_DATE_AND_TIME_ASSIGNMENT ( #15, #16, ( #65 ) ) ;
#81 = LOCAL_TIME ( 18, 40, 51.00000000000000000, #58 ) ;
#82 = CC_DESIGN_PERSON_AND_ORGANIZATION_ASSIGNMENT ( #21, #22, ( #65 ) ) ;
#83 = EDGE_CURVE ( 'NONE', #150, #159, #96, .T. ) ;
#84 = CIRCLE ( 'NONE', #50, 5.500000000000000000 ) ;
#85 = CC_DESIGN_PERSON_AND_ORGANIZATION_ASSIGNMENT ( #26, #19, ( #47 ) ) ;
#86 = ADVANCED_FACE ( 'NONE', ( #45 ), #62, .T. ) ;
#87 = CC_DESIGN_PERSON_AND_ORGANIZATION_ASSIGNMENT ( #24, #25, ( #47 ) ) ;
#88 = LOCAL_TIME ( 18, 40, 51.00000000000000000, #72 ) ;
#89 = CC_DESIGN_PERSON_AND_ORGANIZATION_ASSIGNMENT ( #10, #5, ( #94 ) ) ;
#90 = CC_DESIGN_DATE_AND_TIME_ASSIGNMENT ( #4, #2, ( #94 ) ) ;
#91 = LOCAL_TIME ( 18, 40, 51.00000000000000000, #75 ) ;
#92 = CIRCLE ( 'NONE', #55, 5.500000000000000000 ) ;
#93 = ADVANCED_FACE ( 'NONE', ( #74 ), #73, .T. ) ;
#94 = PRODUCT_DEFINITION ( 'UNKNOWN', '', #47, #112 ) ;
#95 = EDGE_CURVE ( 'NONE', #126, #165, #84, .T. ) ;
#96 = CIRCLE ( 'NONE', #44, 5.500000000000000000 ) ;
#97 = PRODUCT_RELATED_PRODUCT_CATEGORY ( 'detail', '', ( #115 ) ) ;
#98 = APPROVAL ( #11, 'UNSPECIFIED' ) ;
#99 = CIRCLE ( 'NONE', #66, 5.500000000000000000 ) ;
#100 = ADVANCED_FACE ( 'NONE', ( #41 ), #140, .T. ) ;
#101 = ADVANCED_FACE ( 'NONE', ( #40 ), #157, .F. ) ;
#102 = EDGE_CURVE ( 'NONE', #159, #150, #92, .T. ) ;
#103 = LOCAL_TIME ( 18, 40, 51.00000000000000000, #48 ) ;
#104 = EDGE_CURVE ( 'NONE', #126, #150, #158, .T. ) ;
#105 = APPROVAL ( #6, 'UNSPECIFIED' ) ;
#106 = CC_DESIGN_PERSON_AND_ORGANIZATION_ASSIGNMENT ( #7, #8, ( #115 ) ) ;
#107 = EDGE_CURVE ( 'NONE', #165, #126, #99, .T. ) ;
#108 = EDGE_CURVE ( 'NONE', #165, #159, #173, .T. ) ;
#109 = APPLICATION_CONTEXT ( 'configuration controlled 3d designs of mechanical parts and assemblies' ) ;
#110 = APPLICATION_CONTEXT ( 'configuration controlled 3d designs of mechanical parts and assemblies' ) ;
#111 =( GEOMETRIC_REPRESENTATION_CONTEXT ( 3 ) GLOBAL_UNCERTAINTY_ASSIGNED_CONTEXT ( ( #38 ) ) GLOBAL_UNIT_ASSIGNED_CONTEXT ( ( #133, #125, #146 ) ) REPRESENTATION_CONTEXT ( 'NONE', 'WORKASPACE' ) );
#112 = DESIGN_CONTEXT ( 'detailed design', #110, 'design' ) ;
#113 = MANIFOLD_SOLID_BREP ( 'ÎÞ½ - µoµ1', #51 ) ;
#114 = PRODUCT_DEFINITION_SHAPE ( 'NONE', 'NONE',  #94 ) ;
#115 = PRODUCT ( 'sone3D', 'sone3D', '', ( #36 ) ) ;
#116 = CARTESIAN_POINT ( 'NONE',  ( -5.500000000000000000, 0.0000000000000000000, 500.0000000000000000 ) ) ;
#117 = ORIENTED_EDGE ( 'NONE', *, *, #102, .T. ) ;
#118 = CARTESIAN_POINT ( 'NONE',  ( 0.0000000000000000000, 0.0000000000000000000, -500.0000000000000000 ) ) ;
#119 = DIRECTION ( 'NONE',  ( -1.000000000000000000, 0.0000000000000000000, 0.0000000000000000000 ) ) ;
#120 = DIRECTION ( 'NONE',  ( -0.0000000000000000000, -0.0000000000000000000, -1.000000000000000000 ) ) ;
#121 = ORIENTED_EDGE ( 'NONE', *, *, #107, .F. ) ;
#122 = CARTESIAN_POINT ( 'NONE',  ( -5.500000000000000000, 0.0000000000000000000, 500.0000000000000000 ) ) ;
#123 = CARTESIAN_POINT ( 'NONE',  ( 0.0000000000000000000, 0.0000000000000000000, 500.0000000000000000 ) ) ;
#124 = CARTESIAN_POINT ( 'NONE',  ( 0.0000000000000000000, 0.0000000000000000000, 500.0000000000000000 ) ) ;
#125 =( NAMED_UNIT ( * ) PLANE_ANGLE_UNIT ( ) SI_UNIT ( $, .RADIAN. ) );
#126 = VERTEX_POINT ( 'NONE', #148 ) ;
#127 = DIRECTION ( 'NONE',  ( 1.000000000000000000, 0.0000000000000000000, -0.0000000000000000000 ) ) ;
#128 = EDGE_LOOP ( 'NONE', ( #169, #161 ) ) ;
#129 = ORIENTED_EDGE ( 'NONE', *, *, #95, .F. ) ;
#130 = ORIENTED_EDGE ( 'NONE', *, *, #108, .T. ) ;
#131 = ORIENTED_EDGE ( 'NONE', *, *, #104, .T. ) ;
#132 = CARTESIAN_POINT ( 'NONE',  ( -5.500000000000000000, 0.0000000000000000000, -500.0000000000000000 ) ) ;
#133 =( LENGTH_UNIT ( ) NAMED_UNIT ( * ) SI_UNIT ( .MILLI., .METRE. ) );
#134 = ORIENTED_EDGE ( 'NONE', *, *, #104, .F. ) ;
#135 = ORIENTED_EDGE ( 'NONE', *, *, #83, .F. ) ;
#136 = DIRECTION ( 'NONE',  ( 1.000000000000000000, 0.0000000000000000000, 0.0000000000000000000 ) ) ;
#137 = CARTESIAN_POINT ( 'NONE',  ( 0.0000000000000000000, 0.0000000000000000000, -500.0000000000000000 ) ) ;
#138 = CARTESIAN_POINT ( 'NONE',  ( 0.0000000000000000000, 0.0000000000000000000, 500.0000000000000000 ) ) ;
#139 = DIRECTION ( 'NONE',  ( -0.0000000000000000000, -0.0000000000000000000, -1.000000000000000000 ) ) ;
#140 = PLANE ( 'NONE',  #77 ) ;
#141 = DIRECTION ( 'NONE',  ( 1.000000000000000000, 0.0000000000000000000, 0.0000000000000000000 ) ) ;
#142 = CARTESIAN_POINT ( 'NONE',  ( 0.0000000000000000000, 0.0000000000000000000, -500.0000000000000000 ) ) ;
#143 = DIRECTION ( 'NONE',  ( 0.0000000000000000000, 0.0000000000000000000, 1.000000000000000000 ) ) ;
#144 = DIRECTION ( 'NONE',  ( 1.000000000000000000, 0.0000000000000000000, 0.0000000000000000000 ) ) ;
#145 = DIRECTION ( 'NONE',  ( 0.0000000000000000000, 0.0000000000000000000, 1.000000000000000000 ) ) ;
#146 =( NAMED_UNIT ( * ) SI_UNIT ( $, .STERADIAN. ) SOLID_ANGLE_UNIT ( ) );
#147 = EDGE_LOOP ( 'NONE', ( #164, #135 ) ) ;
#148 = CARTESIAN_POINT ( 'NONE',  ( 5.500000000000000000, 6.735557395310442000E-016, 500.0000000000000000 ) ) ;
#149 = CARTESIAN_POINT ( 'NONE',  ( 0.0000000000000000000, 0.0000000000000000000, 500.0000000000000000 ) ) ;
#150 = VERTEX_POINT ( 'NONE', #168 ) ;
#151 = CARTESIAN_POINT ( 'NONE',  ( 0.0000000000000000000, 0.0000000000000000000, 0.0000000000000000000 ) ) ;
#152 = DIRECTION ( 'NONE',  ( -0.0000000000000000000, -0.0000000000000000000, -1.000000000000000000 ) ) ;
#153 = DIRECTION ( 'NONE',  ( -0.0000000000000000000, -0.0000000000000000000, -1.000000000000000000 ) ) ;
#154 = DIRECTION ( 'NONE',  ( -1.000000000000000000, 0.0000000000000000000, 0.0000000000000000000 ) ) ;
#155 = CARTESIAN_POINT ( 'NONE',  ( 0.0000000000000000000, 0.0000000000000000000, 500.0000000000000000 ) ) ;
#156 = DIRECTION ( 'NONE',  ( 0.0000000000000000000, 0.0000000000000000000, 1.000000000000000000 ) ) ;
#157 = PLANE ( 'NONE',  #54 ) ;
#158 = LINE ( 'NONE', #160, #76 ) ;
#159 = VERTEX_POINT ( 'NONE', #132 ) ;
#160 = CARTESIAN_POINT ( 'NONE',  ( 5.500000000000000000, 6.735557395310442000E-016, 500.0000000000000000 ) ) ;
#161 = ORIENTED_EDGE ( 'NONE', *, *, #95, .T. ) ;
#162 = ORIENTED_EDGE ( 'NONE', *, *, #108, .F. ) ;
#163 = DIRECTION ( 'NONE',  ( 0.0000000000000000000, 0.0000000000000000000, 1.000000000000000000 ) ) ;
#164 = ORIENTED_EDGE ( 'NONE', *, *, #102, .F. ) ;
#165 = VERTEX_POINT ( 'NONE', #116 ) ;
#166 = DIRECTION ( 'NONE',  ( 0.0000000000000000000, 0.0000000000000000000, 1.000000000000000000 ) ) ;
#167 = DIRECTION ( 'NONE',  ( 0.0000000000000000000, 0.0000000000000000000, 1.000000000000000000 ) ) ;
#168 = CARTESIAN_POINT ( 'NONE',  ( 5.500000000000000000, 6.735557395310442000E-016, -500.0000000000000000 ) ) ;
#169 = ORIENTED_EDGE ( 'NONE', *, *, #107, .T. ) ;
#170 = ORIENTED_EDGE ( 'NONE', *, *, #83, .T. ) ;
#171 = DIRECTION ( 'NONE',  ( 1.000000000000000000, 0.0000000000000000000, -0.0000000000000000000 ) ) ;
#172 = EDGE_LOOP ( 'NONE', ( #134, #121, #130, #117 ) ) ;
#173 = LINE ( 'NONE', #122, #63 ) ;
#174 = DIRECTION ( 'NONE',  ( 1.000000000000000000, 0.0000000000000000000, 0.0000000000000000000 ) ) ;
#175 = EDGE_LOOP ( 'NONE', ( #129, #131, #170, #162 ) ) ;
ENDSEC;
END-ISO-10303-21;
