ISO-10303-21;
HEADER;
FILE_DESCRIPTION (( 'STEP AP203' ),
    '1' );
FILE_NAME ('sone3D.STEP',
    '2015-08-11T09:40:31',
    ( '' ),
    ( '' ),
    'SwSTEP 2.0',
    'SolidWorks 2012',
    '' );
FILE_SCHEMA (( 'CONFIG_CONTROL_DESIGN' ));
ENDSEC;

DATA;
#1 = PERSON_AND_ORGANIZATION_ROLE ( 'creator' ) ;
#2 = PERSON_AND_ORGANIZATION ( #37, #51 ) ;
#3 = APPROVAL_DATE_TIME ( #4, #96 ) ;
#4 = DATE_AND_TIME ( #59, #89 ) ;
#5 = DATE_AND_TIME ( #53, #81 ) ;
#6 = APPROVAL_ROLE ( '' ) ;
#7 = SHAPE_DEFINITION_REPRESENTATION ( #110, #36 ) ;
#8 = DATE_AND_TIME ( #40, #95 ) ;
#9 = APPROVAL_DATE_TIME ( #8, #86 ) ;
#10 = DATE_TIME_ROLE ( 'classification_date' ) ;
#11 = PERSON_AND_ORGANIZATION ( #37, #51 ) ;
#12 = APPROVAL_STATUS ( 'not_yet_approved' ) ;
#13 = APPROVAL_ROLE ( '' ) ;
#14 = SECURITY_CLASSIFICATION_LEVEL ( 'unclassified' ) ;
#15 = PERSON_AND_ORGANIZATION ( #37, #51 ) ;
#16 = PERSON_AND_ORGANIZATION_ROLE ( 'classification_officer' ) ;
#17 = DATE_AND_TIME ( #68, #77 ) ;
#18 = PERSON_AND_ORGANIZATION ( #37, #51 ) ;
#19 = PERSON_AND_ORGANIZATION_ROLE ( 'creator' ) ;
#20 = PERSON_AND_ORGANIZATION ( #37, #51 ) ;
#21 = PERSON_AND_ORGANIZATION_ROLE ( 'design_supplier' ) ;
#22 = APPROVAL_STATUS ( 'not_yet_approved' ) ;
#23 = APPROVAL_ROLE ( '' ) ;
#24 = DATE_AND_TIME ( #61, #83 ) ;
#25 = APPROVAL_DATE_TIME ( #24, #90 ) ;
#26 = APPLICATION_PROTOCOL_DEFINITION ( 'international standard', 'config_control_design', 1994, #107 ) ;
#27 = DATE_TIME_ROLE ( 'creation_date' ) ;
#28 = PERSON_AND_ORGANIZATION ( #37, #51 ) ;
#29 = MECHANICAL_CONTEXT ( 'NONE', #107, 'mechanical' ) ;
#30 = PERSON_AND_ORGANIZATION ( #37, #51 ) ;
#31 = PERSON_AND_ORGANIZATION_ROLE ( 'design_owner' ) ;
#32 = APPLICATION_PROTOCOL_DEFINITION ( 'international standard', 'config_control_design', 1994, #108 ) ;
#33 = PERSON_AND_ORGANIZATION ( #37, #51 ) ;
#34 = APPROVAL_STATUS ( 'not_yet_approved' ) ;
#35 = UNCERTAINTY_MEASURE_WITH_UNIT (LENGTH_MEASURE( 1.000000000000000100E-005 ), #156, 'distance_accuracy_value', 'NONE');
#36 = ADVANCED_BREP_SHAPE_REPRESENTATION ( 'sone3D', ( #111, #64 ), #109 ) ;
#37 = PERSON ( 'UNSPECIFIED', 'UNSPECIFIED', 'UNSPECIFIED', ('UNSPECIFIED'), ('UNSPECIFIED'), ('UNSPECIFIED') ) ;
#38 = COORDINATED_UNIVERSAL_TIME_OFFSET ( 9, 0, .AHEAD. ) ;
#39 = AXIS2_PLACEMENT_3D ( 'NONE', #172, #173, #174 ) ;
#40 = CALENDAR_DATE ( 2015, 11, 8 ) ;
#41 = FACE_OUTER_BOUND ( 'NONE', #147, .T. ) ;
#42 = AXIS2_PLACEMENT_3D ( 'NONE', #127, #126, #148 ) ;
#43 = PRODUCT_DEFINITION_FORMATION_WITH_SPECIFIED_SOURCE ( 'ANY', '', #113, .NOT_KNOWN. ) ;
#44 = COORDINATED_UNIVERSAL_TIME_OFFSET ( 9, 0, .AHEAD. ) ;
#45 = CC_DESIGN_APPROVAL ( #96, ( #105 ) ) ;
#46 = CLOSED_SHELL ( 'NONE', ( #92, #100, #102, #104 ) ) ;
#47 = FACE_OUTER_BOUND ( 'NONE', #149, .T. ) ;
#48 = APPROVAL_PERSON_ORGANIZATION ( #33, #96, #6 ) ;
#49 = VECTOR ( 'NONE', #171, 1000.000000000000000 ) ;
#50 = SECURITY_CLASSIFICATION ( '', '', #14 ) ;
#51 = ORGANIZATION ( 'UNSPECIFIED', 'UNSPECIFIED', '' ) ;
#52 = CYLINDRICAL_SURFACE ( 'NONE', #56, 5.000000000000000000 ) ;
#53 = CALENDAR_DATE ( 2015, 11, 8 ) ;
#54 = CYLINDRICAL_SURFACE ( 'NONE', #67, 5.000000000000000000 ) ;
#55 = AXIS2_PLACEMENT_3D ( 'NONE', #168, #164, #175 ) ;
#56 = AXIS2_PLACEMENT_3D ( 'NONE', #154, #155, #157 ) ;
#57 = VECTOR ( 'NONE', #153, 1000.000000000000000 ) ;
#58 = COORDINATED_UNIVERSAL_TIME_OFFSET ( 9, 0, .AHEAD. ) ;
#59 = CALENDAR_DATE ( 2015, 11, 8 ) ;
#60 = APPROVAL_PERSON_ORGANIZATION ( #28, #90, #23 ) ;
#61 = CALENDAR_DATE ( 2015, 11, 8 ) ;
#62 = CC_DESIGN_APPROVAL ( #86, ( #50 ) ) ;
#63 = COORDINATED_UNIVERSAL_TIME_OFFSET ( 9, 0, .AHEAD. ) ;
#64 = AXIS2_PLACEMENT_3D ( 'NONE', #115, #114, #116 ) ;
#65 = COORDINATED_UNIVERSAL_TIME_OFFSET ( 9, 0, .AHEAD. ) ;
#66 = FACE_OUTER_BOUND ( 'NONE', #146, .T. ) ;
#67 = AXIS2_PLACEMENT_3D ( 'NONE', #162, #159, #163 ) ;
#68 = CALENDAR_DATE ( 2015, 11, 8 ) ;
#69 = AXIS2_PLACEMENT_3D ( 'NONE', #125, #167, #169 ) ;
#70 = FACE_OUTER_BOUND ( 'NONE', #150, .T. ) ;
#71 = CC_DESIGN_APPROVAL ( #90, ( #43 ) ) ;
#72 = AXIS2_PLACEMENT_3D ( 'NONE', #119, #124, #128 ) ;
#73 = CC_DESIGN_SECURITY_CLASSIFICATION ( #50, ( #43 ) ) ;
#74 = APPROVAL_PERSON_ORGANIZATION ( #11, #86, #13 ) ;
#75 = AXIS2_PLACEMENT_3D ( 'NONE', #161, #170, #160 ) ;
#76 = CC_DESIGN_DATE_AND_TIME_ASSIGNMENT ( #17, #10, ( #50 ) ) ;
#77 = LOCAL_TIME ( 18, 40, 31.00000000000000000, #65 ) ;
#78 = CC_DESIGN_PERSON_AND_ORGANIZATION_ASSIGNMENT ( #15, #16, ( #50 ) ) ;
#79 = CC_DESIGN_PERSON_AND_ORGANIZATION_ASSIGNMENT ( #20, #21, ( #43 ) ) ;
#80 = CC_DESIGN_PERSON_AND_ORGANIZATION_ASSIGNMENT ( #18, #19, ( #43 ) ) ;
#81 = LOCAL_TIME ( 18, 40, 31.00000000000000000, #58 ) ;
#82 = CC_DESIGN_DATE_AND_TIME_ASSIGNMENT ( #5, #27, ( #105 ) ) ;
#83 = LOCAL_TIME ( 18, 40, 31.00000000000000000, #38 ) ;
#84 = CIRCLE ( 'NONE', #55, 5.000000000000000000 ) ;
#85 = EDGE_CURVE ( 'NONE', #132, #134, #151, .T. ) ;
#86 = APPROVAL ( #12, 'UNSPECIFIED' ) ;
#87 = CC_DESIGN_PERSON_AND_ORGANIZATION_ASSIGNMENT ( #2, #1, ( #105 ) ) ;
#88 = CIRCLE ( 'NONE', #39, 5.000000000000000000 ) ;
#89 = LOCAL_TIME ( 18, 40, 31.00000000000000000, #63 ) ;
#90 = APPROVAL ( #22, 'UNSPECIFIED' ) ;
#91 = PRODUCT_RELATED_PRODUCT_CATEGORY ( 'detail', '', ( #113 ) ) ;
#92 = ADVANCED_FACE ( 'NONE', ( #41 ), #52, .T. ) ;
#93 = EDGE_CURVE ( 'NONE', #133, #135, #130, .T. ) ;
#94 = CC_DESIGN_PERSON_AND_ORGANIZATION_ASSIGNMENT ( #30, #31, ( #113 ) ) ;
#95 = LOCAL_TIME ( 18, 40, 31.00000000000000000, #44 ) ;
#96 = APPROVAL ( #34, 'UNSPECIFIED' ) ;
#97 = EDGE_CURVE ( 'NONE', #132, #133, #106, .T. ) ;
#98 = EDGE_CURVE ( 'NONE', #133, #132, #88, .T. ) ;
#99 = EDGE_CURVE ( 'NONE', #135, #134, #103, .T. ) ;
#100 = ADVANCED_FACE ( 'NONE', ( #66 ), #54, .T. ) ;
#101 = EDGE_CURVE ( 'NONE', #134, #135, #84, .T. ) ;
#102 = ADVANCED_FACE ( 'NONE', ( #47 ), #165, .T. ) ;
#103 = CIRCLE ( 'NONE', #75, 5.000000000000000000 ) ;
#104 = ADVANCED_FACE ( 'NONE', ( #70 ), #120, .F. ) ;
#105 = PRODUCT_DEFINITION ( 'UNKNOWN', '', #43, #112 ) ;
#106 = CIRCLE ( 'NONE', #69, 5.000000000000000000 ) ;
#107 = APPLICATION_CONTEXT ( 'configuration controlled 3d designs of mechanical parts and assemblies' ) ;
#108 = APPLICATION_CONTEXT ( 'configuration controlled 3d designs of mechanical parts and assemblies' ) ;
#109 =( GEOMETRIC_REPRESENTATION_CONTEXT ( 3 ) GLOBAL_UNCERTAINTY_ASSIGNED_CONTEXT ( ( #35 ) ) GLOBAL_UNIT_ASSIGNED_CONTEXT ( ( #156, #117, #118 ) ) REPRESENTATION_CONTEXT ( 'NONE', 'WORKASPACE' ) );
#110 = PRODUCT_DEFINITION_SHAPE ( 'NONE', 'NONE',  #105 ) ;
#111 = MANIFOLD_SOLID_BREP ( 'ÎÞ½ - µoµ1', #46 ) ;
#112 = DESIGN_CONTEXT ( 'detailed design', #108, 'design' ) ;
#113 = PRODUCT ( 'sone3D', 'sone3D', '', ( #29 ) ) ;
#114 = DIRECTION ( 'NONE',  ( 0.0000000000000000000, 0.0000000000000000000, 1.000000000000000000 ) ) ;
#115 = CARTESIAN_POINT ( 'NONE',  ( 0.0000000000000000000, 0.0000000000000000000, 0.0000000000000000000 ) ) ;
#116 = DIRECTION ( 'NONE',  ( 1.000000000000000000, 0.0000000000000000000, 0.0000000000000000000 ) ) ;
#117 =( NAMED_UNIT ( * ) PLANE_ANGLE_UNIT ( ) SI_UNIT ( $, .RADIAN. ) );
#118 =( NAMED_UNIT ( * ) SI_UNIT ( $, .STERADIAN. ) SOLID_ANGLE_UNIT ( ) );
#119 = CARTESIAN_POINT ( 'NONE',  ( 0.0000000000000000000, 0.0000000000000000000, -500.0000000000000000 ) ) ;
#120 = PLANE ( 'NONE',  #72 ) ;
#121 = CARTESIAN_POINT ( 'NONE',  ( 5.000000000000000000, 6.123233995736766300E-016, -500.0000000000000000 ) ) ;
#122 = CARTESIAN_POINT ( 'NONE',  ( 5.000000000000000000, 6.123233995736766300E-016, 500.0000000000000000 ) ) ;
#123 = CARTESIAN_POINT ( 'NONE',  ( -5.000000000000000000, 0.0000000000000000000, -500.0000000000000000 ) ) ;
#124 = DIRECTION ( 'NONE',  ( 0.0000000000000000000, 0.0000000000000000000, 1.000000000000000000 ) ) ;
#125 = CARTESIAN_POINT ( 'NONE',  ( 0.0000000000000000000, 0.0000000000000000000, 500.0000000000000000 ) ) ;
#126 = DIRECTION ( 'NONE',  ( 0.0000000000000000000, 0.0000000000000000000, 1.000000000000000000 ) ) ;
#127 = CARTESIAN_POINT ( 'NONE',  ( 0.0000000000000000000, 0.0000000000000000000, 500.0000000000000000 ) ) ;
#128 = DIRECTION ( 'NONE',  ( 1.000000000000000000, 0.0000000000000000000, -0.0000000000000000000 ) ) ;
#129 = CARTESIAN_POINT ( 'NONE',  ( -5.000000000000000000, 0.0000000000000000000, 500.0000000000000000 ) ) ;
#130 = LINE ( 'NONE', #158, #49 ) ;
#131 = ORIENTED_EDGE ( 'NONE', *, *, #101, .T. ) ;
#132 = VERTEX_POINT ( 'NONE', #129 ) ;
#133 = VERTEX_POINT ( 'NONE', #122 ) ;
#134 = VERTEX_POINT ( 'NONE', #123 ) ;
#135 = VERTEX_POINT ( 'NONE', #121 ) ;
#136 = ORIENTED_EDGE ( 'NONE', *, *, #98, .F. ) ;
#137 = ORIENTED_EDGE ( 'NONE', *, *, #85, .F. ) ;
#138 = ORIENTED_EDGE ( 'NONE', *, *, #99, .T. ) ;
#139 = ORIENTED_EDGE ( 'NONE', *, *, #97, .F. ) ;
#140 = ORIENTED_EDGE ( 'NONE', *, *, #98, .T. ) ;
#141 = ORIENTED_EDGE ( 'NONE', *, *, #101, .F. ) ;
#142 = ORIENTED_EDGE ( 'NONE', *, *, #97, .T. ) ;
#143 = ORIENTED_EDGE ( 'NONE', *, *, #99, .F. ) ;
#144 = ORIENTED_EDGE ( 'NONE', *, *, #93, .T. ) ;
#145 = ORIENTED_EDGE ( 'NONE', *, *, #85, .T. ) ;
#146 = EDGE_LOOP ( 'NONE', ( #166, #139, #145, #131 ) ) ;
#147 = EDGE_LOOP ( 'NONE', ( #136, #144, #138, #137 ) ) ;
#148 = DIRECTION ( 'NONE',  ( 1.000000000000000000, 0.0000000000000000000, -0.0000000000000000000 ) ) ;
#149 = EDGE_LOOP ( 'NONE', ( #142, #140 ) ) ;
#150 = EDGE_LOOP ( 'NONE', ( #141, #143 ) ) ;
#151 = LINE ( 'NONE', #152, #57 ) ;
#152 = CARTESIAN_POINT ( 'NONE',  ( -5.000000000000000000, 0.0000000000000000000, 500.0000000000000000 ) ) ;
#153 = DIRECTION ( 'NONE',  ( -0.0000000000000000000, -0.0000000000000000000, -1.000000000000000000 ) ) ;
#154 = CARTESIAN_POINT ( 'NONE',  ( 0.0000000000000000000, 0.0000000000000000000, 500.0000000000000000 ) ) ;
#155 = DIRECTION ( 'NONE',  ( -0.0000000000000000000, -0.0000000000000000000, -1.000000000000000000 ) ) ;
#156 =( LENGTH_UNIT ( ) NAMED_UNIT ( * ) SI_UNIT ( .MILLI., .METRE. ) );
#157 = DIRECTION ( 'NONE',  ( -1.000000000000000000, 0.0000000000000000000, 0.0000000000000000000 ) ) ;
#158 = CARTESIAN_POINT ( 'NONE',  ( 5.000000000000000000, 6.123233995736766300E-016, 500.0000000000000000 ) ) ;
#159 = DIRECTION ( 'NONE',  ( -0.0000000000000000000, -0.0000000000000000000, -1.000000000000000000 ) ) ;
#160 = DIRECTION ( 'NONE',  ( 1.000000000000000000, 0.0000000000000000000, 0.0000000000000000000 ) ) ;
#161 = CARTESIAN_POINT ( 'NONE',  ( 0.0000000000000000000, 0.0000000000000000000, -500.0000000000000000 ) ) ;
#162 = CARTESIAN_POINT ( 'NONE',  ( 0.0000000000000000000, 0.0000000000000000000, 500.0000000000000000 ) ) ;
#163 = DIRECTION ( 'NONE',  ( -1.000000000000000000, 0.0000000000000000000, 0.0000000000000000000 ) ) ;
#164 = DIRECTION ( 'NONE',  ( 0.0000000000000000000, 0.0000000000000000000, 1.000000000000000000 ) ) ;
#165 = PLANE ( 'NONE',  #42 ) ;
#166 = ORIENTED_EDGE ( 'NONE', *, *, #93, .F. ) ;
#167 = DIRECTION ( 'NONE',  ( 0.0000000000000000000, 0.0000000000000000000, 1.000000000000000000 ) ) ;
#168 = CARTESIAN_POINT ( 'NONE',  ( 0.0000000000000000000, 0.0000000000000000000, -500.0000000000000000 ) ) ;
#169 = DIRECTION ( 'NONE',  ( 1.000000000000000000, 0.0000000000000000000, 0.0000000000000000000 ) ) ;
#170 = DIRECTION ( 'NONE',  ( 0.0000000000000000000, 0.0000000000000000000, 1.000000000000000000 ) ) ;
#171 = DIRECTION ( 'NONE',  ( -0.0000000000000000000, -0.0000000000000000000, -1.000000000000000000 ) ) ;
#172 = CARTESIAN_POINT ( 'NONE',  ( 0.0000000000000000000, 0.0000000000000000000, 500.0000000000000000 ) ) ;
#173 = DIRECTION ( 'NONE',  ( 0.0000000000000000000, 0.0000000000000000000, 1.000000000000000000 ) ) ;
#174 = DIRECTION ( 'NONE',  ( 1.000000000000000000, 0.0000000000000000000, 0.0000000000000000000 ) ) ;
#175 = DIRECTION ( 'NONE',  ( 1.000000000000000000, 0.0000000000000000000, 0.0000000000000000000 ) ) ;
ENDSEC;
END-ISO-10303-21;
