ISO-10303-21;
HEADER;
FILE_DESCRIPTION (( 'STEP AP203' ),
    '1' );
FILE_NAME ('C-30-SK-95-EP-UL.STEP',
    '2020-05-07T01:28:03',
    ( '' ),
    ( '' ),
    'SwSTEP 2.0',
    'SolidWorks 2018',
    '' );
FILE_SCHEMA (( 'CONFIG_CONTROL_DESIGN' ));
ENDSEC;

DATA;
#1 = DIRECTION ( 'NONE',  ( -0.0000000000000000000, 1.000000000000000000, -0.0000000000000000000 ) ) ;
#2 = EDGE_CURVE ( 'NONE', #36, #75, #22, .T. ) ;
#3 = CARTESIAN_POINT ( 'NONE',  ( 0.0000000000000000000, 4.999999999999999112, 0.0000000000000000000 ) ) ;
#4 = CARTESIAN_POINT ( 'NONE',  ( 0.0000000000000000000, 4.999999999999999112, 0.0000000000000000000 ) ) ;
#5 = ORIENTED_EDGE ( 'NONE', *, *, #9, .T. ) ;
#6 = VERTEX_POINT ( 'NONE', #184 ) ;
#7 = CARTESIAN_POINT ( 'NONE',  ( 4.500000000000000888, -2.168404344971008868E-16, 0.0000000000000000000 ) ) ;
#8 = DIRECTION ( 'NONE',  ( 0.0000000000000000000, -1.000000000000000000, 0.0000000000000000000 ) ) ;
#9 = EDGE_CURVE ( 'NONE', #267, #167, #217, .T. ) ;
#10 = AXIS2_PLACEMENT_3D ( 'NONE', #276, #161, #157 ) ;
#11 = CIRCLE ( 'NONE', #151, 3.660776772972364590 ) ;
#12 = EDGE_CURVE ( 'NONE', #36, #322, #238, .T. ) ;
#13 = FACE_BOUND ( 'NONE', #311, .T. ) ;
#14 = CARTESIAN_POINT ( 'NONE',  ( 2.449293598294707893E-16, 7.273181975891072071, -2.000000000000000888 ) ) ;
#15 = APPROVAL_ROLE ( '' ) ;
#16 = AXIS2_PLACEMENT_3D ( 'NONE', #283, #258, #376 ) ;
#17 = DIRECTION ( 'NONE',  ( -0.0000000000000000000, 1.000000000000000000, -0.0000000000000000000 ) ) ;
#18 = CIRCLE ( 'NONE', #10, 2.000000000000000888 ) ;
#19 = DIRECTION ( 'NONE',  ( 0.0000000000000000000, 0.0000000000000000000, -1.000000000000000000 ) ) ;
#20 = APPLICATION_PROTOCOL_DEFINITION ( 'international standard', 'config_control_design', 1994, #220 ) ;
#21 = DIRECTION ( 'NONE',  ( -0.0000000000000000000, 1.000000000000000000, -0.0000000000000000000 ) ) ;
#22 = CIRCLE ( 'NONE', #342, 2.680196097281443812 ) ;
#23 = EDGE_CURVE ( 'NONE', #265, #375, #80, .T. ) ;
#24 = DIRECTION ( 'NONE',  ( -0.0000000000000000000, 1.000000000000000000, -0.0000000000000000000 ) ) ;
#25 = ORIENTED_EDGE ( 'NONE', *, *, #209, .T. ) ;
#26 = LOCAL_TIME ( 10, 28, 3.000000000000000000, #140 ) ;
#27 = DIRECTION ( 'NONE',  ( 0.0000000000000000000, 0.0000000000000000000, 1.000000000000000000 ) ) ;
#28 = ADVANCED_FACE ( 'NONE', ( #55 ), #329, .T. ) ;
#29 = DIRECTION ( 'NONE',  ( 0.0000000000000000000, 0.0000000000000000000, -1.000000000000000000 ) ) ;
#30 = AXIS2_PLACEMENT_3D ( 'NONE', #350, #171, #162 ) ;
#31 = CARTESIAN_POINT ( 'NONE',  ( 0.0000000000000000000, 4.196116135138181491, -3.660776772972365034 ) ) ;
#32 = APPROVAL_DATE_TIME ( #241, #257 ) ;
#33 = ADVANCED_FACE ( 'NONE', ( #374 ), #141, .T. ) ;
#34 = CLOSED_SHELL ( 'NONE', ( #28, #84, #113, #232, #290, #235, #323, #83, #199, #33, #110 ) ) ;
#35 = TOROIDAL_SURFACE ( 'NONE', #49, 2.680196097281443812, 1.000000000000000000 ) ;
#36 = VERTEX_POINT ( 'NONE', #221 ) ;
#37 = CARTESIAN_POINT ( 'NONE',  ( 0.0000000000000000000, 4.196116135138181491, 0.0000000000000000000 ) ) ;
#38 = ORIENTED_EDGE ( 'NONE', *, *, #240, .T. ) ;
#39 = AXIS2_PLACEMENT_3D ( 'NONE', #195, #143, #319 ) ;
#40 = COORDINATED_UNIVERSAL_TIME_OFFSET ( 9, 0, .AHEAD. ) ;
#41 = EDGE_LOOP ( 'NONE', ( #269, #136, #5, #242 ) ) ;
#42 = CIRCLE ( 'NONE', #186, 1.000000000000001110 ) ;
#43 = AXIS2_PLACEMENT_3D ( 'NONE', #149, #150, #27 ) ;
#44 = PERSON_AND_ORGANIZATION_ROLE ( 'design_owner' ) ;
#45 = LOCAL_TIME ( 10, 28, 3.000000000000000000, #58 ) ;
#46 = VERTEX_POINT ( 'NONE', #284 ) ;
#47 = DIRECTION ( 'NONE',  ( 1.000000000000000000, 0.0000000000000000000, 0.0000000000000000000 ) ) ;
#48 = CARTESIAN_POINT ( 'NONE',  ( 0.0000000000000000000, 0.0000000000000000000, 0.0000000000000000000 ) ) ;
#49 = AXIS2_PLACEMENT_3D ( 'NONE', #169, #104, #259 ) ;
#50 = CIRCLE ( 'NONE', #30, 1.000000000000001110 ) ;
#51 = CARTESIAN_POINT ( 'NONE',  ( 0.0000000000000000000, 7.273181975891072071, 0.0000000000000000000 ) ) ;
#52 = DIRECTION ( 'NONE',  ( 0.0000000000000000000, 0.0000000000000000000, 1.000000000000000000 ) ) ;
#53 = DIRECTION ( 'NONE',  ( -0.0000000000000000000, 1.000000000000000000, -0.0000000000000000000 ) ) ;
#54 = PERSON_AND_ORGANIZATION ( #277, #152 ) ;
#55 = FACE_OUTER_BOUND ( 'NONE', #62, .T. ) ;
#56 = AXIS2_PLACEMENT_3D ( 'NONE', #81, #1, #78 ) ;
#57 = DIRECTION ( 'NONE',  ( 0.0000000000000000000, 0.0000000000000000000, 1.000000000000000000 ) ) ;
#58 = COORDINATED_UNIVERSAL_TIME_OFFSET ( 9, 0, .AHEAD. ) ;
#59 = ORIENTED_EDGE ( 'NONE', *, *, #155, .F. ) ;
#60 = DATE_AND_TIME ( #333, #26 ) ;
#61 = CARTESIAN_POINT ( 'NONE',  ( 2.449293598294707893E-16, 1.999999999999999112, -2.000000000000000888 ) ) ;
#62 = EDGE_LOOP ( 'NONE', ( #346, #281, #134, #175 ) ) ;
#63 = CARTESIAN_POINT ( 'NONE',  ( 2.000000000000000888, 4.999999999999999112, 0.0000000000000000000 ) ) ;
#64 = CARTESIAN_POINT ( 'NONE',  ( 5.510910596163089556E-16, 0.0000000000000000000, 4.500000000000000888 ) ) ;
#65 = APPROVAL_DATE_TIME ( #310, #145 ) ;
#66 = CC_DESIGN_PERSON_AND_ORGANIZATION_ASSIGNMENT ( #367, #131, ( #229 ) ) ;
#67 = CALENDAR_DATE ( 2020, 7, 5 ) ;
#68 = ORIENTED_EDGE ( 'NONE', *, *, #82, .T. ) ;
#69 = CIRCLE ( 'NONE', #96, 4.500000000000000888 ) ;
#70 = EDGE_CURVE ( 'NONE', #75, #265, #76, .T. ) ;
#71 = CARTESIAN_POINT ( 'NONE',  ( 0.0000000000000000000, 3.999999999999999112, -2.680196097281443812 ) ) ;
#72 = VECTOR ( 'NONE', #53, 1000.000000000000000 ) ;
#73 = APPROVAL_ROLE ( '' ) ;
#74 = APPROVAL_ROLE ( '' ) ;
#75 = VERTEX_POINT ( 'NONE', #103 ) ;
#76 = CIRCLE ( 'NONE', #362, 1.000000000000000000 ) ;
#77 = PRODUCT ( 'C-30-SK-95-EP-UL', 'C-30-SK-95-EP-UL', '', ( #341 ) ) ;
#78 = DIRECTION ( 'NONE',  ( 0.0000000000000000000, 0.0000000000000000000, 1.000000000000000000 ) ) ;
#79 = CC_DESIGN_DATE_AND_TIME_ASSIGNMENT ( #191, #99, ( #282 ) ) ;
#80 = LINE ( 'NONE', #340, #228 ) ;
#81 = CARTESIAN_POINT ( 'NONE',  ( 0.0000000000000000000, 7.273181975891072071, 0.0000000000000000000 ) ) ;
#82 = EDGE_CURVE ( 'NONE', #211, #363, #312, .T. ) ;
#83 = ADVANCED_FACE ( 'NONE', ( #271 ), #280, .F. ) ;
#84 = ADVANCED_FACE ( 'NONE', ( #294 ), #124, .T. ) ;
#85 = AXIS2_PLACEMENT_3D ( 'NONE', #133, #190, #47 ) ;
#86 = DIRECTION ( 'NONE',  ( -0.0000000000000000000, 1.000000000000000000, -0.0000000000000000000 ) ) ;
#87 = CALENDAR_DATE ( 2020, 7, 5 ) ;
#88 = ORIENTED_EDGE ( 'NONE', *, *, #349, .F. ) ;
#89 = DIRECTION ( 'NONE',  ( 0.0000000000000000000, 0.0000000000000000000, 1.000000000000000000 ) ) ;
#90 = EDGE_CURVE ( 'NONE', #167, #261, #118, .T. ) ;
#91 = LINE ( 'NONE', #14, #318 ) ;
#92 = ORIENTED_EDGE ( 'NONE', *, *, #219, .T. ) ;
#93 = FACE_OUTER_BOUND ( 'NONE', #41, .T. ) ;
#94 = ORIENTED_EDGE ( 'NONE', *, *, #90, .F. ) ;
#95 = EDGE_LOOP ( 'NONE', ( #286, #295, #203, #233 ) ) ;
#96 = AXIS2_PLACEMENT_3D ( 'NONE', #48, #98, #306 ) ;
#97 = DIRECTION ( 'NONE',  ( 0.0000000000000000000, 0.0000000000000000000, -1.000000000000000000 ) ) ;
#98 = DIRECTION ( 'NONE',  ( -0.0000000000000000000, 1.000000000000000000, -0.0000000000000000000 ) ) ;
#99 = DATE_TIME_ROLE ( 'classification_date' ) ;
#100 = CC_DESIGN_PERSON_AND_ORGANIZATION_ASSIGNMENT ( #54, #247, ( #282 ) ) ;
#101 = DIRECTION ( 'NONE',  ( 0.0000000000000000000, 0.0000000000000000000, -1.000000000000000000 ) ) ;
#102 = APPROVAL_STATUS ( 'not_yet_approved' ) ;
#103 = CARTESIAN_POINT ( 'NONE',  ( 3.882726064518265821E-16, 4.999999999999999112, 2.680196097281443812 ) ) ;
#104 = DIRECTION ( 'NONE',  ( 0.0000000000000000000, -1.000000000000000000, 0.0000000000000000000 ) ) ;
#105 = ORIENTED_EDGE ( 'NONE', *, *, #12, .T. ) ;
#106 = ORIENTED_EDGE ( 'NONE', *, *, #142, .T. ) ;
#107 = AXIS2_PLACEMENT_3D ( 'NONE', #51, #24, #52 ) ;
#108 = DIRECTION ( 'NONE',  ( 0.0000000000000000000, 0.0000000000000000000, 1.000000000000000000 ) ) ;
#109 = DIRECTION ( 'NONE',  ( 0.0000000000000000000, 0.0000000000000000000, -1.000000000000000000 ) ) ;
#110 = ADVANCED_FACE ( 'NONE', ( #227 ), #35, .T. ) ;
#111 = AXIS2_PLACEMENT_3D ( 'NONE', #63, #148, #326 ) ;
#112 = CARTESIAN_POINT ( 'NONE',  ( 0.0000000000000000000, 0.0000000000000000000, 0.0000000000000000000 ) ) ;
#113 = ADVANCED_FACE ( 'NONE', ( #364 ), #237, .F. ) ;
#114 = ORIENTED_EDGE ( 'NONE', *, *, #127, .T. ) ;
#115 = DIRECTION ( 'NONE',  ( -0.0000000000000000000, 1.000000000000000000, -0.0000000000000000000 ) ) ;
#116 = EDGE_CURVE ( 'NONE', #6, #363, #347, .T. ) ;
#117 = DIRECTION ( 'NONE',  ( 0.0000000000000000000, 0.0000000000000000000, 1.000000000000000000 ) ) ;
#118 = CIRCLE ( 'NONE', #39, 1.000000000000001110 ) ;
#119 = ORIENTED_EDGE ( 'NONE', *, *, #9, .F. ) ;
#120 = CARTESIAN_POINT ( 'NONE',  ( 1.224646799147354686E-16, 1.999999999999999112, -1.000000000000001110 ) ) ;
#121 = EDGE_LOOP ( 'NONE', ( #373, #153 ) ) ;
#122 = PERSON_AND_ORGANIZATION ( #277, #152 ) ;
#123 = PRODUCT_DEFINITION ( 'UNKNOWN', '', #229, #126 ) ;
#124 = CONICAL_SURFACE ( 'NONE', #334, 4.500000000000000888, 0.1973955598498808028 ) ;
#125 = EDGE_LOOP ( 'NONE', ( #299, #193, #25, #181 ) ) ;
#126 = DESIGN_CONTEXT ( 'detailed design', #220, 'design' ) ;
#127 = EDGE_CURVE ( 'NONE', #267, #46, #50, .T. ) ;
#128 = APPLICATION_PROTOCOL_DEFINITION ( 'international standard', 'config_control_design', 1994, #304 ) ;
#129 = ORIENTED_EDGE ( 'NONE', *, *, #250, .F. ) ;
#130 = CC_DESIGN_SECURITY_CLASSIFICATION ( #282, ( #229 ) ) ;
#131 = PERSON_AND_ORGANIZATION_ROLE ( 'creator' ) ;
#132 = LOCAL_TIME ( 10, 28, 3.000000000000000000, #40 ) ;
#133 = CARTESIAN_POINT ( 'NONE',  ( 0.0000000000000000000, 0.0000000000000000000, 0.0000000000000000000 ) ) ;
#134 = ORIENTED_EDGE ( 'NONE', *, *, #180, .F. ) ;
#135 = PERSON_AND_ORGANIZATION ( #277, #152 ) ;
#136 = ORIENTED_EDGE ( 'NONE', *, *, #127, .F. ) ;
#137 = CARTESIAN_POINT ( 'NONE',  ( 0.0000000000000000000, 1.999999999999999112, 0.0000000000000000000 ) ) ;
#138 = CARTESIAN_POINT ( 'NONE',  ( 1.224646799147354686E-16, 7.273181975891072071, -1.000000000000001110 ) ) ;
#139 = CARTESIAN_POINT ( 'NONE',  ( 0.0000000000000000000, 1.999999999999999112, 1.000000000000001110 ) ) ;
#140 = COORDINATED_UNIVERSAL_TIME_OFFSET ( 9, 0, .AHEAD. ) ;
#141 = CONICAL_SURFACE ( 'NONE', #320, 4.500000000000000888, 0.1973955598498808028 ) ;
#142 = EDGE_CURVE ( 'NONE', #46, #261, #147, .T. ) ;
#143 = DIRECTION ( 'NONE',  ( -0.0000000000000000000, 1.000000000000000000, -0.0000000000000000000 ) ) ;
#144 = CARTESIAN_POINT ( 'NONE',  ( 2.449293598294707893E-16, 4.999999999999999112, -2.000000000000000888 ) ) ;
#145 = APPROVAL ( #102, 'UNSPECIFIED' ) ;
#146 = ORIENTED_EDGE ( 'NONE', *, *, #349, .T. ) ;
#147 = LINE ( 'NONE', #138, #212 ) ;
#148 = DIRECTION ( 'NONE',  ( 0.0000000000000000000, -1.000000000000000000, 0.0000000000000000000 ) ) ;
#149 = CARTESIAN_POINT ( 'NONE',  ( 0.0000000000000000000, 7.273181975891072071, 0.0000000000000000000 ) ) ;
#150 = DIRECTION ( 'NONE',  ( -0.0000000000000000000, 1.000000000000000000, -0.0000000000000000000 ) ) ;
#151 = AXIS2_PLACEMENT_3D ( 'NONE', #317, #378, #278 ) ;
#152 = ORGANIZATION ( 'UNSPECIFIED', 'UNSPECIFIED', '' ) ;
#153 = ORIENTED_EDGE ( 'NONE', *, *, #82, .F. ) ;
#154 = ORIENTED_EDGE ( 'NONE', *, *, #359, .F. ) ;
#155 = EDGE_CURVE ( 'NONE', #327, #6, #297, .T. ) ;
#156 = DIRECTION ( 'NONE',  ( 2.401729971581269180E-17, -0.9805806756909201116, 0.1961161351381840723 ) ) ;
#157 = DIRECTION ( 'NONE',  ( 0.0000000000000000000, 0.0000000000000000000, 1.000000000000000000 ) ) ;
#158 = LOCAL_TIME ( 10, 28, 3.000000000000000000, #231 ) ;
#159 = VECTOR ( 'NONE', #197, 1000.000000000000227 ) ;
#160 = CC_DESIGN_APPROVAL ( #257, ( #282 ) ) ;
#161 = DIRECTION ( 'NONE',  ( -0.0000000000000000000, 1.000000000000000000, -0.0000000000000000000 ) ) ;
#162 = DIRECTION ( 'NONE',  ( 0.0000000000000000000, 0.0000000000000000000, 1.000000000000000000 ) ) ;
#163 = MANIFOLD_SOLID_BREP ( 'Ì¨Ú¯Ä1', #34 ) ;
#164 = ORIENTED_EDGE ( 'NONE', *, *, #313, .F. ) ;
#165 = FACE_OUTER_BOUND ( 'NONE', #253, .T. ) ;
#166 = AXIS2_PLACEMENT_3D ( 'NONE', #3, #198, #117 ) ;
#167 = VERTEX_POINT ( 'NONE', #139 ) ;
#168 = CARTESIAN_POINT ( 'NONE',  ( 0.0000000000000000000, 7.273181975891072071, 2.000000000000000888 ) ) ;
#169 = CARTESIAN_POINT ( 'NONE',  ( 0.0000000000000000000, 3.999999999999999112, 0.0000000000000000000 ) ) ;
#170 = CC_DESIGN_APPROVAL ( #145, ( #229 ) ) ;
#171 = DIRECTION ( 'NONE',  ( -0.0000000000000000000, 1.000000000000000000, -0.0000000000000000000 ) ) ;
#172 = DIRECTION ( 'NONE',  ( -0.0000000000000000000, 1.000000000000000000, -0.0000000000000000000 ) ) ;
#173 = CYLINDRICAL_SURFACE ( 'NONE', #43, 1.000000000000001110 ) ;
#174 = DIRECTION ( 'NONE',  ( 0.0000000000000000000, 0.0000000000000000000, 1.000000000000000000 ) ) ;
#175 = ORIENTED_EDGE ( 'NONE', *, *, #12, .F. ) ;
#176 = FACE_OUTER_BOUND ( 'NONE', #213, .T. ) ;
#177 = CARTESIAN_POINT ( 'NONE',  ( 0.0000000000000000000, -8.673617379884035472E-16, 1.000000000000001110 ) ) ;
#178 = ORIENTED_EDGE ( 'NONE', *, *, #2, .F. ) ;
#179 = CARTESIAN_POINT ( 'NONE',  ( 1.000000000000001110, 1.999999999999999112, 0.0000000000000000000 ) ) ;
#180 = EDGE_CURVE ( 'NONE', #322, #265, #11, .T. ) ;
#181 = ORIENTED_EDGE ( 'NONE', *, *, #250, .T. ) ;
#182 = VERTEX_POINT ( 'NONE', #256 ) ;
#183 = CIRCLE ( 'NONE', #352, 3.660776772972364590 ) ;
#184 = CARTESIAN_POINT ( 'NONE',  ( 0.0000000000000000000, 1.999999999999999112, 2.000000000000000888 ) ) ;
#185 = PERSON_AND_ORGANIZATION_ROLE ( 'creator' ) ;
#186 = AXIS2_PLACEMENT_3D ( 'NONE', #289, #115, #239 ) ;
#187 =( LENGTH_UNIT ( ) NAMED_UNIT ( * ) SI_UNIT ( .MILLI., .METRE. ) );
#188 = ORIENTED_EDGE ( 'NONE', *, *, #155, .T. ) ;
#189 = DIRECTION ( 'NONE',  ( 0.0000000000000000000, -1.000000000000000000, 0.0000000000000000000 ) ) ;
#190 = DIRECTION ( 'NONE',  ( 0.0000000000000000000, 0.0000000000000000000, 1.000000000000000000 ) ) ;
#191 = DATE_AND_TIME ( #67, #158 ) ;
#192 = CIRCLE ( 'NONE', #302, 2.680196097281443812 ) ;
#193 = ORIENTED_EDGE ( 'NONE', *, *, #331, .T. ) ;
#194 = CC_DESIGN_DATE_AND_TIME_ASSIGNMENT ( #351, #246, ( #123 ) ) ;
#195 = CARTESIAN_POINT ( 'NONE',  ( 0.0000000000000000000, 1.999999999999999112, 0.0000000000000000000 ) ) ;
#196 = EDGE_CURVE ( 'NONE', #363, #211, #266, .T. ) ;
#197 = DIRECTION ( 'NONE',  ( 0.0000000000000000000, -0.9805806756909201116, -0.1961161351381840723 ) ) ;
#198 = DIRECTION ( 'NONE',  ( -0.0000000000000000000, 1.000000000000000000, -0.0000000000000000000 ) ) ;
#199 = ADVANCED_FACE ( 'NONE', ( #234, #202 ), #315, .F. ) ;
#200 = DIRECTION ( 'NONE',  ( -0.0000000000000000000, 1.000000000000000000, -0.0000000000000000000 ) ) ;
#201 = CALENDAR_DATE ( 2020, 7, 5 ) ;
#202 = FACE_BOUND ( 'NONE', #121, .T. ) ;
#203 = ORIENTED_EDGE ( 'NONE', *, *, #359, .T. ) ;
#204 =( GEOMETRIC_REPRESENTATION_CONTEXT ( 3 ) GLOBAL_UNCERTAINTY_ASSIGNED_CONTEXT ( ( #287 ) ) GLOBAL_UNIT_ASSIGNED_CONTEXT ( ( #187, #314, #370 ) ) REPRESENTATION_CONTEXT ( 'NONE', 'WORKASPACE' ) );
#205 = DIRECTION ( 'NONE',  ( 0.0000000000000000000, 0.0000000000000000000, 1.000000000000000000 ) ) ;
#206 = ADVANCED_BREP_SHAPE_REPRESENTATION ( 'C-30-SK-95-EP-UL', ( #163, #85 ), #204 ) ;
#207 = ORIENTED_EDGE ( 'NONE', *, *, #240, .F. ) ;
#208 = APPROVAL ( #368, 'UNSPECIFIED' ) ;
#209 = EDGE_CURVE ( 'NONE', #322, #182, #243, .T. ) ;
#210 = COORDINATED_UNIVERSAL_TIME_OFFSET ( 9, 0, .AHEAD. ) ;
#211 = VERTEX_POINT ( 'NONE', #144 ) ;
#212 = VECTOR ( 'NONE', #21, 1000.000000000000000 ) ;
#213 = EDGE_LOOP ( 'NONE', ( #146, #188 ) ) ;
#214 = CC_DESIGN_PERSON_AND_ORGANIZATION_ASSIGNMENT ( #122, #339, ( #229 ) ) ;
#215 = PERSON_AND_ORGANIZATION ( #277, #152 ) ;
#216 = CARTESIAN_POINT ( 'NONE',  ( 0.0000000000000000000, 4.999999999999999112, 0.0000000000000000000 ) ) ;
#217 = LINE ( 'NONE', #303, #244 ) ;
#218 = CARTESIAN_POINT ( 'NONE',  ( 0.0000000000000000000, 4.999999999999999112, 2.000000000000000888 ) ) ;
#219 = EDGE_CURVE ( 'NONE', #75, #36, #192, .T. ) ;
#220 = APPLICATION_CONTEXT ( 'configuration controlled 3d designs of mechanical parts and assemblies' ) ;
#221 = CARTESIAN_POINT ( 'NONE',  ( 0.0000000000000000000, 4.999999999999999112, -2.680196097281443812 ) ) ;
#222 = ORIENTED_EDGE ( 'NONE', *, *, #116, .T. ) ;
#223 = APPROVAL_PERSON_ORGANIZATION ( #215, #208, #15 ) ;
#224 = ORIENTED_EDGE ( 'NONE', *, *, #372, .T. ) ;
#225 = CC_DESIGN_APPROVAL ( #208, ( #123 ) ) ;
#226 = DIRECTION ( 'NONE',  ( 1.000000000000000000, 0.0000000000000000000, -1.224646799147353207E-16 ) ) ;
#227 = FACE_OUTER_BOUND ( 'NONE', #293, .T. ) ;
#228 = VECTOR ( 'NONE', #156, 1000.000000000000227 ) ;
#229 = PRODUCT_DEFINITION_FORMATION_WITH_SPECIFIED_SOURCE ( 'ANY', '', #77, .NOT_KNOWN. ) ;
#230 = DIRECTION ( 'NONE',  ( -0.0000000000000000000, 1.000000000000000000, 0.0000000000000000000 ) ) ;
#231 = COORDINATED_UNIVERSAL_TIME_OFFSET ( 9, 0, .AHEAD. ) ;
#232 = ADVANCED_FACE ( 'NONE', ( #356 ), #173, .F. ) ;
#233 = ORIENTED_EDGE ( 'NONE', *, *, #209, .F. ) ;
#234 = FACE_OUTER_BOUND ( 'NONE', #279, .T. ) ;
#235 = ADVANCED_FACE ( 'NONE', ( #93 ), #254, .F. ) ;
#236 = DIRECTION ( 'NONE',  ( 0.0000000000000000000, -0.0000000000000000000, -1.000000000000000000 ) ) ;
#237 = CYLINDRICAL_SURFACE ( 'NONE', #107, 2.000000000000000888 ) ;
#238 = CIRCLE ( 'NONE', #260, 1.000000000000000000 ) ;
#239 = DIRECTION ( 'NONE',  ( 0.0000000000000000000, 0.0000000000000000000, 1.000000000000000000 ) ) ;
#240 = EDGE_CURVE ( 'NONE', #261, #167, #379, .T. ) ;
#241 = DATE_AND_TIME ( #87, #45 ) ;
#242 = ORIENTED_EDGE ( 'NONE', *, *, #90, .T. ) ;
#243 = LINE ( 'NONE', #354, #159 ) ;
#244 = VECTOR ( 'NONE', #273, 1000.000000000000000 ) ;
#245 = DIRECTION ( 'NONE',  ( -1.000000000000000000, -0.0000000000000000000, -0.0000000000000000000 ) ) ;
#246 = DATE_TIME_ROLE ( 'creation_date' ) ;
#247 = PERSON_AND_ORGANIZATION_ROLE ( 'classification_officer' ) ;
#248 = APPROVAL_DATE_TIME ( #60, #208 ) ;
#249 = SECURITY_CLASSIFICATION_LEVEL ( 'unclassified' ) ;
#250 = EDGE_CURVE ( 'NONE', #182, #375, #337, .T. ) ;
#251 = DIRECTION ( 'NONE',  ( 0.0000000000000000000, -1.000000000000000000, 0.0000000000000000000 ) ) ;
#252 = CARTESIAN_POINT ( 'NONE',  ( 3.282293571622948372E-16, 3.999999999999999112, 2.680196097281443812 ) ) ;
#253 = EDGE_LOOP ( 'NONE', ( #129, #154 ) ) ;
#254 = CYLINDRICAL_SURFACE ( 'NONE', #348, 1.000000000000001110 ) ;
#255 = ORIENTED_EDGE ( 'NONE', *, *, #70, .F. ) ;
#256 = CARTESIAN_POINT ( 'NONE',  ( 0.0000000000000000000, 0.0000000000000000000, -4.500000000000000888 ) ) ;
#257 = APPROVAL ( #274, 'UNSPECIFIED' ) ;
#258 = DIRECTION ( 'NONE',  ( -0.0000000000000000000, 1.000000000000000000, -0.0000000000000000000 ) ) ;
#259 = DIRECTION ( 'NONE',  ( 0.0000000000000000000, 0.0000000000000000000, -1.000000000000000000 ) ) ;
#260 = AXIS2_PLACEMENT_3D ( 'NONE', #71, #245, #305 ) ;
#261 = VERTEX_POINT ( 'NONE', #120 ) ;
#262 = PLANE ( 'NONE',  #308 ) ;
#263 = PRODUCT_DEFINITION_SHAPE ( 'NONE', 'NONE',  #123 ) ;
#264 = LOCAL_TIME ( 10, 28, 3.000000000000000000, #210 ) ;
#265 = VERTEX_POINT ( 'NONE', #360 ) ;
#266 = CIRCLE ( 'NONE', #166, 2.000000000000000888 ) ;
#267 = VERTEX_POINT ( 'NONE', #177 ) ;
#268 = PERSON_AND_ORGANIZATION ( #277, #152 ) ;
#269 = ORIENTED_EDGE ( 'NONE', *, *, #142, .F. ) ;
#270 = APPROVAL_PERSON_ORGANIZATION ( #345, #145, #74 ) ;
#271 = FACE_OUTER_BOUND ( 'NONE', #298, .T. ) ;
#272 = EDGE_LOOP ( 'NONE', ( #114, #336 ) ) ;
#273 = DIRECTION ( 'NONE',  ( -0.0000000000000000000, 1.000000000000000000, -0.0000000000000000000 ) ) ;
#274 = APPROVAL_STATUS ( 'not_yet_approved' ) ;
#275 = ORIENTED_EDGE ( 'NONE', *, *, #116, .F. ) ;
#276 = CARTESIAN_POINT ( 'NONE',  ( 0.0000000000000000000, 1.999999999999999112, 0.0000000000000000000 ) ) ;
#277 = PERSON ( 'UNSPECIFIED', 'UNSPECIFIED', 'UNSPECIFIED', ('UNSPECIFIED'), ('UNSPECIFIED'), ('UNSPECIFIED') ) ;
#278 = DIRECTION ( 'NONE',  ( 0.0000000000000000000, 0.0000000000000000000, 1.000000000000000000 ) ) ;
#279 = EDGE_LOOP ( 'NONE', ( #365, #92 ) ) ;
#280 = CYLINDRICAL_SURFACE ( 'NONE', #56, 2.000000000000000888 ) ;
#281 = ORIENTED_EDGE ( 'NONE', *, *, #70, .T. ) ;
#282 = SECURITY_CLASSIFICATION ( '', '', #249 ) ;
#283 = CARTESIAN_POINT ( 'NONE',  ( 0.0000000000000000000, 4.999999999999999112, 0.0000000000000000000 ) ) ;
#284 = CARTESIAN_POINT ( 'NONE',  ( 1.224646799147354686E-16, -8.673617379884035472E-16, -1.000000000000001110 ) ) ;
#285 = PERSON_AND_ORGANIZATION ( #277, #152 ) ;
#286 = ORIENTED_EDGE ( 'NONE', *, *, #180, .T. ) ;
#287 = UNCERTAINTY_MEASURE_WITH_UNIT (LENGTH_MEASURE( 1.000000000000000082E-05 ), #187, 'distance_accuracy_value', 'NONE');
#288 = AXIS2_PLACEMENT_3D ( 'NONE', #324, #200, #89 ) ;
#289 = CARTESIAN_POINT ( 'NONE',  ( 0.0000000000000000000, -8.673617379884035472E-16, 0.0000000000000000000 ) ) ;
#290 = ADVANCED_FACE ( 'NONE', ( #165, #328 ), #262, .F. ) ;
#291 = AXIS2_PLACEMENT_3D ( 'NONE', #307, #344, #97 ) ;
#292 = DIRECTION ( 'NONE',  ( 0.0000000000000000000, 0.0000000000000000000, 1.000000000000000000 ) ) ;
#293 = EDGE_LOOP ( 'NONE', ( #255, #178, #105, #338 ) ) ;
#294 = FACE_OUTER_BOUND ( 'NONE', #95, .T. ) ;
#295 = ORIENTED_EDGE ( 'NONE', *, *, #23, .T. ) ;
#296 = CARTESIAN_POINT ( 'NONE',  ( 0.0000000000000000000, 1.999999999999999112, 0.0000000000000000000 ) ) ;
#297 = CIRCLE ( 'NONE', #377, 2.000000000000000888 ) ;
#298 = EDGE_LOOP ( 'NONE', ( #358, #88, #222, #355 ) ) ;
#299 = ORIENTED_EDGE ( 'NONE', *, *, #23, .F. ) ;
#300 = SHAPE_DEFINITION_REPRESENTATION ( #263, #206 ) ;
#301 = EDGE_LOOP ( 'NONE', ( #59, #224, #68, #275 ) ) ;
#302 = AXIS2_PLACEMENT_3D ( 'NONE', #4, #86, #29 ) ;
#303 = CARTESIAN_POINT ( 'NONE',  ( 0.0000000000000000000, 7.273181975891072071, 1.000000000000001110 ) ) ;
#304 = APPLICATION_CONTEXT ( 'configuration controlled 3d designs of mechanical parts and assemblies' ) ;
#305 = DIRECTION ( 'NONE',  ( 0.0000000000000000000, 0.0000000000000000000, 1.000000000000000000 ) ) ;
#306 = DIRECTION ( 'NONE',  ( 0.0000000000000000000, 0.0000000000000000000, 1.000000000000000000 ) ) ;
#307 = CARTESIAN_POINT ( 'NONE',  ( 0.0000000000000000000, 3.999999999999999112, 0.0000000000000000000 ) ) ;
#308 = AXIS2_PLACEMENT_3D ( 'NONE', #7, #230, #292 ) ;
#309 = DIRECTION ( 'NONE',  ( -0.0000000000000000000, 1.000000000000000000, -0.0000000000000000000 ) ) ;
#310 = DATE_AND_TIME ( #201, #132 ) ;
#311 = EDGE_LOOP ( 'NONE', ( #94, #207 ) ) ;
#312 = CIRCLE ( 'NONE', #16, 2.000000000000000888 ) ;
#313 = EDGE_CURVE ( 'NONE', #46, #267, #42, .T. ) ;
#314 =( NAMED_UNIT ( * ) PLANE_ANGLE_UNIT ( ) SI_UNIT ( $, .RADIAN. ) );
#315 = PLANE ( 'NONE',  #111 ) ;
#316 = DIRECTION ( 'NONE',  ( -0.0000000000000000000, 1.000000000000000000, -0.0000000000000000000 ) ) ;
#317 = CARTESIAN_POINT ( 'NONE',  ( 0.0000000000000000000, 4.196116135138181491, 0.0000000000000000000 ) ) ;
#318 = VECTOR ( 'NONE', #17, 1000.000000000000000 ) ;
#319 = DIRECTION ( 'NONE',  ( 0.0000000000000000000, 0.0000000000000000000, 1.000000000000000000 ) ) ;
#320 = AXIS2_PLACEMENT_3D ( 'NONE', #369, #189, #19 ) ;
#321 = PLANE ( 'NONE',  #361 ) ;
#322 = VERTEX_POINT ( 'NONE', #31 ) ;
#323 = ADVANCED_FACE ( 'NONE', ( #13, #176 ), #321, .F. ) ;
#324 = CARTESIAN_POINT ( 'NONE',  ( 0.0000000000000000000, 0.0000000000000000000, 0.0000000000000000000 ) ) ;
#325 = CC_DESIGN_PERSON_AND_ORGANIZATION_ASSIGNMENT ( #135, #44, ( #77 ) ) ;
#326 = DIRECTION ( 'NONE',  ( 0.0000000000000000000, -0.0000000000000000000, -1.000000000000000000 ) ) ;
#327 = VERTEX_POINT ( 'NONE', #61 ) ;
#328 = FACE_BOUND ( 'NONE', #272, .T. ) ;
#329 = TOROIDAL_SURFACE ( 'NONE', #291, 2.680196097281443812, 1.000000000000000000 ) ;
#330 = DIRECTION ( 'NONE',  ( 0.0000000000000000000, -1.000000000000000000, 0.0000000000000000000 ) ) ;
#331 = EDGE_CURVE ( 'NONE', #265, #322, #183, .T. ) ;
#332 = AXIS2_PLACEMENT_3D ( 'NONE', #296, #172, #57 ) ;
#333 = CALENDAR_DATE ( 2020, 7, 5 ) ;
#334 = AXIS2_PLACEMENT_3D ( 'NONE', #112, #251, #109 ) ;
#335 = CALENDAR_DATE ( 2020, 7, 5 ) ;
#336 = ORIENTED_EDGE ( 'NONE', *, *, #313, .T. ) ;
#337 = CIRCLE ( 'NONE', #288, 4.500000000000000888 ) ;
#338 = ORIENTED_EDGE ( 'NONE', *, *, #331, .F. ) ;
#339 = PERSON_AND_ORGANIZATION_ROLE ( 'design_supplier' ) ;
#340 = CARTESIAN_POINT ( 'NONE',  ( 5.510910596163089556E-16, 0.0000000000000000000, 4.500000000000000888 ) ) ;
#341 = MECHANICAL_CONTEXT ( 'NONE', #304, 'mechanical' ) ;
#342 = AXIS2_PLACEMENT_3D ( 'NONE', #216, #309, #101 ) ;
#343 = EDGE_LOOP ( 'NONE', ( #164, #106, #38, #119 ) ) ;
#344 = DIRECTION ( 'NONE',  ( 0.0000000000000000000, -1.000000000000000000, 0.0000000000000000000 ) ) ;
#345 = PERSON_AND_ORGANIZATION ( #277, #152 ) ;
#346 = ORIENTED_EDGE ( 'NONE', *, *, #219, .F. ) ;
#347 = LINE ( 'NONE', #168, #72 ) ;
#348 = AXIS2_PLACEMENT_3D ( 'NONE', #357, #353, #174 ) ;
#349 = EDGE_CURVE ( 'NONE', #6, #327, #18, .T. ) ;
#350 = CARTESIAN_POINT ( 'NONE',  ( 0.0000000000000000000, -8.673617379884035472E-16, 0.0000000000000000000 ) ) ;
#351 = DATE_AND_TIME ( #335, #264 ) ;
#352 = AXIS2_PLACEMENT_3D ( 'NONE', #37, #330, #205 ) ;
#353 = DIRECTION ( 'NONE',  ( -0.0000000000000000000, 1.000000000000000000, -0.0000000000000000000 ) ) ;
#354 = CARTESIAN_POINT ( 'NONE',  ( 0.0000000000000000000, 0.0000000000000000000, -4.500000000000000888 ) ) ;
#355 = ORIENTED_EDGE ( 'NONE', *, *, #196, .T. ) ;
#356 = FACE_OUTER_BOUND ( 'NONE', #343, .T. ) ;
#357 = CARTESIAN_POINT ( 'NONE',  ( 0.0000000000000000000, 7.273181975891072071, 0.0000000000000000000 ) ) ;
#358 = ORIENTED_EDGE ( 'NONE', *, *, #372, .F. ) ;
#359 = EDGE_CURVE ( 'NONE', #375, #182, #69, .T. ) ;
#360 = CARTESIAN_POINT ( 'NONE',  ( 4.997034576788337645E-16, 4.196116135138181491, 3.660776772972365034 ) ) ;
#361 = AXIS2_PLACEMENT_3D ( 'NONE', #179, #8, #236 ) ;
#362 = AXIS2_PLACEMENT_3D ( 'NONE', #252, #226, #381 ) ;
#363 = VERTEX_POINT ( 'NONE', #218 ) ;
#364 = FACE_OUTER_BOUND ( 'NONE', #301, .T. ) ;
#365 = ORIENTED_EDGE ( 'NONE', *, *, #2, .T. ) ;
#366 = PRODUCT_RELATED_PRODUCT_CATEGORY ( 'detail', '', ( #77 ) ) ;
#367 = PERSON_AND_ORGANIZATION ( #277, #152 ) ;
#368 = APPROVAL_STATUS ( 'not_yet_approved' ) ;
#369 = CARTESIAN_POINT ( 'NONE',  ( 0.0000000000000000000, 0.0000000000000000000, 0.0000000000000000000 ) ) ;
#370 =( NAMED_UNIT ( * ) SI_UNIT ( $, .STERADIAN. ) SOLID_ANGLE_UNIT ( ) );
#371 = APPROVAL_PERSON_ORGANIZATION ( #268, #257, #73 ) ;
#372 = EDGE_CURVE ( 'NONE', #327, #211, #91, .T. ) ;
#373 = ORIENTED_EDGE ( 'NONE', *, *, #196, .F. ) ;
#374 = FACE_OUTER_BOUND ( 'NONE', #125, .T. ) ;
#375 = VERTEX_POINT ( 'NONE', #64 ) ;
#376 = DIRECTION ( 'NONE',  ( 0.0000000000000000000, 0.0000000000000000000, 1.000000000000000000 ) ) ;
#377 = AXIS2_PLACEMENT_3D ( 'NONE', #137, #316, #108 ) ;
#378 = DIRECTION ( 'NONE',  ( 0.0000000000000000000, -1.000000000000000000, 0.0000000000000000000 ) ) ;
#379 = CIRCLE ( 'NONE', #332, 1.000000000000001110 ) ;
#380 = CC_DESIGN_PERSON_AND_ORGANIZATION_ASSIGNMENT ( #285, #185, ( #123 ) ) ;
#381 = DIRECTION ( 'NONE',  ( -1.224646799147353207E-16, 0.0000000000000000000, -1.000000000000000000 ) ) ;
ENDSEC;
END-ISO-10303-21;
