ISO-10303-21;
HEADER;
FILE_DESCRIPTION (( 'STEP AP203' ),
    '1' );
FILE_NAME ('C-30-RK-63-ÃÞÌ«ÙÄ.STEP',
    '2009-06-29T02:37:34',
    ( '11sw' ),
    ( '^LQ»¢®ïÐ' ),
    'SwSTEP 2.0',
    'SolidWorks 2007',
    '' );
FILE_SCHEMA (( 'CONFIG_CONTROL_DESIGN' ));
ENDSEC;

DATA;
#1 = DIRECTION ( 'NONE',  ( 0.0000000000000000000, 0.0000000000000000000, 1.000000000000000000 ) ) ;
#2 = DIRECTION ( 'NONE',  ( 0.0000000000000000000, 1.000000000000000000, 0.0000000000000000000 ) ) ;
#3 = DIRECTION ( 'NONE',  ( 0.0000000000000000000, 0.0000000000000000000, 1.000000000000000000 ) ) ;
#4 =( NAMED_UNIT ( * ) SI_UNIT ( $, .STERADIAN. ) SOLID_ANGLE_UNIT ( ) );
#5 = UNCERTAINTY_MEASURE_WITH_UNIT (LENGTH_MEASURE( 1.000000000000000100E-005 ), #272, 'distance_accuracy_value', 'NONE');
#6 = DIRECTION ( 'NONE',  ( 1.000000000000000000, 0.0000000000000000000, 0.0000000000000000000 ) ) ;
#7 =( GEOMETRIC_REPRESENTATION_CONTEXT ( 3 ) GLOBAL_UNCERTAINTY_ASSIGNED_CONTEXT ( ( #5 ) ) GLOBAL_UNIT_ASSIGNED_CONTEXT ( ( #272, #271, #4 ) ) REPRESENTATION_CONTEXT ( 'NONE', 'WORKASPACE' ) );
#8 = ADVANCED_BREP_SHAPE_REPRESENTATION ( 'C-30-RK-63-ÃÞÌ«ÙÄ', ( #31, #80 ), #7 ) ;
#9 = DIRECTION ( 'NONE',  ( 0.0000000000000000000, 1.000000000000000000, 0.0000000000000000000 ) ) ;
#10 = CARTESIAN_POINT ( 'NONE',  ( -5.009326287108706300E-010, -25.99999999650043500, 0.0000000000000000000 ) ) ;
#11 = AXIS2_PLACEMENT_3D ( 'NONE', #10, #9, #1 ) ;
#12 = CIRCLE ( 'NONE', #11, 31.50000000000000000 ) ;
#13 = DIRECTION ( 'NONE',  ( 0.0000000000000000000, 0.0000000000000000000, 1.000000000000000000 ) ) ;
#14 = CARTESIAN_POINT ( 'NONE',  ( -5.009287712008560900E-010, -25.99999999650043500, 31.50000000000000000 ) ) ;
#15 = DIRECTION ( 'NONE',  ( 3.394126946141994200E-017, -0.9608235911808944400, 0.2771606513021811500 ) ) ;
#16 = VECTOR ( 'NONE', #15, 1000.000000000000100 ) ;
#17 = CARTESIAN_POINT ( 'NONE',  ( -5.009287712008560900E-010, -25.99999999650043500, 31.50000000000000000 ) ) ;
#18 = LINE ( 'NONE', #17, #16 ) ;
#19 = CARTESIAN_POINT ( 'NONE',  ( -5.009295619834591200E-010, -3.614196739989554300, -25.04255675292955300 ) ) ;
#20 = CARTESIAN_POINT ( 'NONE',  ( -5.009326287108706300E-010, -3.614196739989554300, 25.04255675292955300 ) ) ;
#21 = DIRECTION ( 'NONE',  ( 0.0000000000000000000, 0.0000000000000000000, 1.000000000000000000 ) ) ;
#22 = DIRECTION ( 'NONE',  ( 0.0000000000000000000, 1.000000000000000000, 0.0000000000000000000 ) ) ;
#23 = CARTESIAN_POINT ( 'NONE',  ( -5.009326287108706300E-010, -3.614196739989554300, 0.0000000000000000000 ) ) ;
#24 = AXIS2_PLACEMENT_3D ( 'NONE', #23, #22, #21 ) ;
#25 = CIRCLE ( 'NONE', #24, 25.04255675292955300 ) ;
#26 = DIRECTION ( 'NONE',  ( 0.0000000000000000000, 0.0000000000000000000, -1.000000000000000000 ) ) ;
#27 = VERTEX_POINT ( 'NONE', #64 ) ;
#28 = ORIENTED_EDGE ( 'NONE', *, *, #29, .F. ) ;
#29 = EDGE_CURVE ( 'NONE', #146, #27, #63, .T. ) ;
#30 = ADVANCED_FACE ( 'NONE', ( #59 ), #58, .T. ) ;
#31 = MANIFOLD_SOLID_BREP ( 'NONE', #51 ) ;
#32 = ADVANCED_FACE ( 'NONE', ( #124 ), #120, .T. ) ;
#33 = EDGE_LOOP ( 'NONE', ( #34, #38, #41, #66 ) ) ;
#34 = ORIENTED_EDGE ( 'NONE', *, *, #35, .F. ) ;
#35 = EDGE_CURVE ( 'NONE', #36, #37, #25, .T. ) ;
#36 = VERTEX_POINT ( 'NONE', #20 ) ;
#37 = VERTEX_POINT ( 'NONE', #19 ) ;
#38 = ORIENTED_EDGE ( 'NONE', *, *, #39, .T. ) ;
#39 = EDGE_CURVE ( 'NONE', #36, #40, #18, .T. ) ;
#40 = VERTEX_POINT ( 'NONE', #14 ) ;
#41 = ORIENTED_EDGE ( 'NONE', *, *, #42, .T. ) ;
#42 = EDGE_CURVE ( 'NONE', #40, #43, #12, .T. ) ;
#43 = VERTEX_POINT ( 'NONE', #193 ) ;
#44 = EDGE_LOOP ( 'NONE', ( #45, #46, #49, #135 ) ) ;
#45 = ORIENTED_EDGE ( 'NONE', *, *, #35, .T. ) ;
#46 = ORIENTED_EDGE ( 'NONE', *, *, #47, .T. ) ;
#47 = EDGE_CURVE ( 'NONE', #37, #48, #186, .T. ) ;
#48 = VERTEX_POINT ( 'NONE', #209 ) ;
#49 = ORIENTED_EDGE ( 'NONE', *, *, #128, .F. ) ;
#50 = ORIENTED_EDGE ( 'NONE', *, *, #87, .T. ) ;
#51 = CLOSED_SHELL ( 'NONE', ( #32, #68, #142, #30, #77, #116, #96, #99, #97, #85, #81 ) ) ;
#52 = ORIENTED_EDGE ( 'NONE', *, *, #67, .T. ) ;
#53 = ORIENTED_EDGE ( 'NONE', *, *, #106, .T. ) ;
#54 = EDGE_LOOP ( 'NONE', ( #55, #56 ) ) ;
#55 = ORIENTED_EDGE ( 'NONE', *, *, #93, .T. ) ;
#56 = ORIENTED_EDGE ( 'NONE', *, *, #71, .T. ) ;
#57 = AXIS2_PLACEMENT_3D ( 'NONE', #123, #122, #121 ) ;
#58 = TOROIDAL_SURFACE ( 'NONE', #57, 20.23843879702507600, 4.999999999999999100 ) ;
#59 = FACE_OUTER_BOUND ( 'NONE', #44, .T. ) ;
#60 = DIRECTION ( 'NONE',  ( 0.0000000000000000000, 1.000000000000000000, 0.0000000000000000000 ) ) ;
#61 = VECTOR ( 'NONE', #60, 1000.000000000000000 ) ;
#62 = CARTESIAN_POINT ( 'NONE',  ( -5.009326287108706300E-010, 2.412507003500041800, 7.000000000000000900 ) ) ;
#63 = LINE ( 'NONE', #62, #61 ) ;
#64 = CARTESIAN_POINT ( 'NONE',  ( -5.009326287108706300E-010, 3.499566088305261500E-009, 6.999999999999999100 ) ) ;
#65 = CARTESIAN_POINT ( 'NONE',  ( 0.0000000000000000000, 0.0000000000000000000, 0.0000000000000000000 ) ) ;
#66 = ORIENTED_EDGE ( 'NONE', *, *, #67, .F. ) ;
#67 = EDGE_CURVE ( 'NONE', #37, #43, #157, .T. ) ;
#68 = ADVANCED_FACE ( 'NONE', ( #153 ), #152, .F. ) ;
#69 = EDGE_LOOP ( 'NONE', ( #70, #74, #136, #139 ) ) ;
#70 = ORIENTED_EDGE ( 'NONE', *, *, #71, .F. ) ;
#71 = EDGE_CURVE ( 'NONE', #72, #73, #188, .T. ) ;
#72 = VERTEX_POINT ( 'NONE', #205 ) ;
#73 = VERTEX_POINT ( 'NONE', #204 ) ;
#74 = ORIENTED_EDGE ( 'NONE', *, *, #75, .T. ) ;
#75 = EDGE_CURVE ( 'NONE', #72, #76, #203, .T. ) ;
#76 = VERTEX_POINT ( 'NONE', #199 ) ;
#77 = ADVANCED_FACE ( 'NONE', ( #198 ), #196, .T. ) ;
#78 = ORIENTED_EDGE ( 'NONE', *, *, #47, .F. ) ;
#79 = EDGE_CURVE ( 'NONE', #36, #127, #180, .T. ) ;
#80 = AXIS2_PLACEMENT_3D ( 'NONE', #65, #13, #6 ) ;
#81 = ADVANCED_FACE ( 'NONE', ( #175 ), #174, .T. ) ;
#82 = EDGE_LOOP ( 'NONE', ( #83, #84, #52, #50 ) ) ;
#83 = ORIENTED_EDGE ( 'NONE', *, *, #39, .F. ) ;
#84 = ORIENTED_EDGE ( 'NONE', *, *, #126, .F. ) ;
#85 = ADVANCED_FACE ( 'NONE', ( #173, #168 ), #167, .F. ) ;
#86 = ORIENTED_EDGE ( 'NONE', *, *, #87, .F. ) ;
#87 = EDGE_CURVE ( 'NONE', #43, #40, #162, .T. ) ;
#88 = ORIENTED_EDGE ( 'NONE', *, *, #42, .F. ) ;
#89 = EDGE_LOOP ( 'NONE', ( #86, #88 ) ) ;
#90 = ORIENTED_EDGE ( 'NONE', *, *, #75, .F. ) ;
#91 = ORIENTED_EDGE ( 'NONE', *, *, #93, .F. ) ;
#92 = ORIENTED_EDGE ( 'NONE', *, *, #140, .T. ) ;
#93 = EDGE_CURVE ( 'NONE', #73, #72, #220, .T. ) ;
#94 = EDGE_LOOP ( 'NONE', ( #90, #91, #92, #53 ) ) ;
#95 = EDGE_LOOP ( 'NONE', ( #111, #101 ) ) ;
#96 = ADVANCED_FACE ( 'NONE', ( #215 ), #214, .F. ) ;
#97 = ADVANCED_FACE ( 'NONE', ( #221 ), #222, .F. ) ;
#98 = EDGE_CURVE ( 'NONE', #146, #145, #228, .T. ) ;
#99 = ADVANCED_FACE ( 'NONE', ( #270, #241 ), #242, .F. ) ;
#100 = EDGE_LOOP ( 'NONE', ( #112, #107 ) ) ;
#101 = ORIENTED_EDGE ( 'NONE', *, *, #144, .T. ) ;
#102 = ORIENTED_EDGE ( 'NONE', *, *, #98, .F. ) ;
#103 = EDGE_LOOP ( 'NONE', ( #104, #102, #108, #105 ) ) ;
#104 = ORIENTED_EDGE ( 'NONE', *, *, #148, .F. ) ;
#105 = ORIENTED_EDGE ( 'NONE', *, *, #132, .T. ) ;
#106 = EDGE_CURVE ( 'NONE', #138, #76, #257, .T. ) ;
#107 = ORIENTED_EDGE ( 'NONE', *, *, #137, .F. ) ;
#108 = ORIENTED_EDGE ( 'NONE', *, *, #29, .T. ) ;
#109 = ORIENTED_EDGE ( 'NONE', *, *, #128, .T. ) ;
#110 = ORIENTED_EDGE ( 'NONE', *, *, #129, .T. ) ;
#111 = ORIENTED_EDGE ( 'NONE', *, *, #98, .T. ) ;
#112 = ORIENTED_EDGE ( 'NONE', *, *, #106, .F. ) ;
#113 = ORIENTED_EDGE ( 'NONE', *, *, #151, .F. ) ;
#114 = EDGE_LOOP ( 'NONE', ( #109, #110 ) ) ;
#115 = ORIENTED_EDGE ( 'NONE', *, *, #132, .F. ) ;
#116 = ADVANCED_FACE ( 'NONE', ( #283, #240 ), #292, .F. ) ;
#117 = DIRECTION ( 'NONE',  ( 0.0000000000000000000, -1.000000000000000000, 0.0000000000000000000 ) ) ;
#118 = CARTESIAN_POINT ( 'NONE',  ( -5.009326287108706300E-010, -25.99999999650043500, 0.0000000000000000000 ) ) ;
#119 = AXIS2_PLACEMENT_3D ( 'NONE', #118, #117, #26 ) ;
#120 = CONICAL_SURFACE ( 'NONE', #119, 31.50000000000000000, 0.2808377246212029300 ) ;
#121 = DIRECTION ( 'NONE',  ( 0.0000000000000000000, 0.0000000000000000000, 1.000000000000000000 ) ) ;
#122 = DIRECTION ( 'NONE',  ( 0.0000000000000000000, 1.000000000000000000, 0.0000000000000000000 ) ) ;
#123 = CARTESIAN_POINT ( 'NONE',  ( -5.009326287108706300E-010, -4.999999996500434000, 0.0000000000000000000 ) ) ;
#124 = FACE_OUTER_BOUND ( 'NONE', #33, .T. ) ;
#125 = ORIENTED_EDGE ( 'NONE', *, *, #126, .T. ) ;
#126 = EDGE_CURVE ( 'NONE', #37, #36, #235, .T. ) ;
#127 = VERTEX_POINT ( 'NONE', #291 ) ;
#128 = EDGE_CURVE ( 'NONE', #127, #48, #304, .T. ) ;
#129 = EDGE_CURVE ( 'NONE', #48, #127, #237, .T. ) ;
#130 = EDGE_LOOP ( 'NONE', ( #115, #113 ) ) ;
#131 = ORIENTED_EDGE ( 'NONE', *, *, #129, .F. ) ;
#132 = EDGE_CURVE ( 'NONE', #27, #149, #298, .T. ) ;
#133 = ORIENTED_EDGE ( 'NONE', *, *, #79, .T. ) ;
#134 = EDGE_LOOP ( 'NONE', ( #78, #125, #133, #131 ) ) ;
#135 = ORIENTED_EDGE ( 'NONE', *, *, #79, .F. ) ;
#136 = ORIENTED_EDGE ( 'NONE', *, *, #137, .T. ) ;
#137 = EDGE_CURVE ( 'NONE', #76, #138, #247, .T. ) ;
#138 = VERTEX_POINT ( 'NONE', #248 ) ;
#139 = ORIENTED_EDGE ( 'NONE', *, *, #140, .F. ) ;
#140 = EDGE_CURVE ( 'NONE', #73, #138, #251, .T. ) ;
#141 = EDGE_LOOP ( 'NONE', ( #143, #147, #150, #28 ) ) ;
#142 = ADVANCED_FACE ( 'NONE', ( #295 ), #293, .F. ) ;
#143 = ORIENTED_EDGE ( 'NONE', *, *, #144, .F. ) ;
#144 = EDGE_CURVE ( 'NONE', #145, #146, #286, .T. ) ;
#145 = VERTEX_POINT ( 'NONE', #231 ) ;
#146 = VERTEX_POINT ( 'NONE', #230 ) ;
#147 = ORIENTED_EDGE ( 'NONE', *, *, #148, .T. ) ;
#148 = EDGE_CURVE ( 'NONE', #145, #149, #267, .T. ) ;
#149 = VERTEX_POINT ( 'NONE', #263 ) ;
#150 = ORIENTED_EDGE ( 'NONE', *, *, #151, .T. ) ;
#151 = EDGE_CURVE ( 'NONE', #149, #27, #262, .T. ) ;
#152 = CYLINDRICAL_SURFACE ( 'NONE', #192, 3.500000000000000900 ) ;
#153 = FACE_OUTER_BOUND ( 'NONE', #69, .T. ) ;
#154 = DIRECTION ( 'NONE',  ( 0.0000000000000000000, -0.9608235911808944400, -0.2771606513021811500 ) ) ;
#155 = VECTOR ( 'NONE', #154, 1000.000000000000100 ) ;
#156 = CARTESIAN_POINT ( 'NONE',  ( -5.009326287108706300E-010, -25.99999999650043500, -31.50000000000000000 ) ) ;
#157 = LINE ( 'NONE', #156, #155 ) ;
#158 = DIRECTION ( 'NONE',  ( 0.0000000000000000000, 0.0000000000000000000, 1.000000000000000000 ) ) ;
#159 = DIRECTION ( 'NONE',  ( 0.0000000000000000000, 1.000000000000000000, 0.0000000000000000000 ) ) ;
#160 = CARTESIAN_POINT ( 'NONE',  ( -5.009326287108706300E-010, -25.99999999650043500, 0.0000000000000000000 ) ) ;
#161 = AXIS2_PLACEMENT_3D ( 'NONE', #160, #159, #158 ) ;
#162 = CIRCLE ( 'NONE', #161, 31.50000000000000000 ) ;
#163 = DIRECTION ( 'NONE',  ( 0.0000000000000000000, 0.0000000000000000000, 1.000000000000000000 ) ) ;
#164 = DIRECTION ( 'NONE',  ( 0.0000000000000000000, 1.000000000000000000, 0.0000000000000000000 ) ) ;
#165 = CARTESIAN_POINT ( 'NONE',  ( 3.499999999499068700, -25.99999999650043500, 0.0000000000000000000 ) ) ;
#166 = AXIS2_PLACEMENT_3D ( 'NONE', #165, #164, #163 ) ;
#167 = PLANE ( 'NONE',  #166 ) ;
#168 = FACE_BOUND ( 'NONE', #54, .T. ) ;
#169 = DIRECTION ( 'NONE',  ( 0.0000000000000000000, 0.0000000000000000000, -1.000000000000000000 ) ) ;
#170 = DIRECTION ( 'NONE',  ( 0.0000000000000000000, -1.000000000000000000, 0.0000000000000000000 ) ) ;
#171 = CARTESIAN_POINT ( 'NONE',  ( -5.009326287108706300E-010, -25.99999999650043500, 0.0000000000000000000 ) ) ;
#172 = AXIS2_PLACEMENT_3D ( 'NONE', #171, #170, #169 ) ;
#173 = FACE_OUTER_BOUND ( 'NONE', #89, .T. ) ;
#174 = CONICAL_SURFACE ( 'NONE', #172, 31.50000000000000000, 0.2808377246212029300 ) ;
#175 = FACE_OUTER_BOUND ( 'NONE', #82, .T. ) ;
#176 = DIRECTION ( 'NONE',  ( 0.0000000000000000000, 0.0000000000000000000, 1.000000000000000000 ) ) ;
#177 = DIRECTION ( 'NONE',  ( -1.000000000000000000, 0.0000000000000000000, 0.0000000000000000000 ) ) ;
#178 = CARTESIAN_POINT ( 'NONE',  ( -5.009326287108706300E-010, -4.999999996500434000, 20.23843879702507600 ) ) ;
#179 = AXIS2_PLACEMENT_3D ( 'NONE', #178, #177, #176 ) ;
#180 = CIRCLE ( 'NONE', #179, 4.999999999999997300 ) ;
#181 = DIRECTION ( 'NONE',  ( 0.0000000000000000000, 0.0000000000000000000, 1.000000000000000000 ) ) ;
#182 = DIRECTION ( 'NONE',  ( 1.224606353814300100E-016, 0.0000000000000000000, -1.000000000000000000 ) ) ;
#183 = DIRECTION ( 'NONE',  ( 1.000000000000000000, 0.0000000000000000000, 1.224606353822377300E-016 ) ) ;
#184 = AXIS2_PLACEMENT_3D ( 'NONE', #185, #183, #182 ) ;
#185 = CARTESIAN_POINT ( 'NONE',  ( -5.009301502987964500E-010, -4.999999996500434000, -20.23843879702507600 ) ) ;
#186 = CIRCLE ( 'NONE', #184, 4.999999999999997300 ) ;
#187 = AXIS2_PLACEMENT_3D ( 'NONE', #208, #207, #206 ) ;
#188 = CIRCLE ( 'NONE', #187, 3.500000000000001300 ) ;
#189 = DIRECTION ( 'NONE',  ( 0.0000000000000000000, 0.0000000000000000000, 1.000000000000000000 ) ) ;
#190 = DIRECTION ( 'NONE',  ( 0.0000000000000000000, 1.000000000000000000, 0.0000000000000000000 ) ) ;
#191 = CARTESIAN_POINT ( 'NONE',  ( -5.009326287108706300E-010, 2.412507003500041800, 0.0000000000000000000 ) ) ;
#192 = AXIS2_PLACEMENT_3D ( 'NONE', #191, #190, #189 ) ;
#193 = CARTESIAN_POINT ( 'NONE',  ( -5.009326287108706300E-010, -25.99999999650043500, -31.50000000000000000 ) ) ;
#194 = DIRECTION ( 'NONE',  ( 0.0000000000000000000, 1.000000000000000000, 0.0000000000000000000 ) ) ;
#195 = AXIS2_PLACEMENT_3D ( 'NONE', #197, #194, #181 ) ;
#196 = TOROIDAL_SURFACE ( 'NONE', #195, 20.23843879702507600, 4.999999999999999100 ) ;
#197 = CARTESIAN_POINT ( 'NONE',  ( -5.009326287108706300E-010, -4.999999996500434000, 0.0000000000000000000 ) ) ;
#198 = FACE_OUTER_BOUND ( 'NONE', #134, .T. ) ;
#199 = CARTESIAN_POINT ( 'NONE',  ( -5.009322000986467900E-010, -14.99999999650043500, -3.500000000000000400 ) ) ;
#200 = DIRECTION ( 'NONE',  ( 0.0000000000000000000, 1.000000000000000000, 0.0000000000000000000 ) ) ;
#201 = VECTOR ( 'NONE', #200, 1000.000000000000000 ) ;
#202 = CARTESIAN_POINT ( 'NONE',  ( -5.009322000986467900E-010, 2.412507003500041800, -3.500000000000000900 ) ) ;
#203 = LINE ( 'NONE', #202, #201 ) ;
#204 = CARTESIAN_POINT ( 'NONE',  ( -5.009326287108706300E-010, -25.99999999650043500, 3.500000000000001300 ) ) ;
#205 = CARTESIAN_POINT ( 'NONE',  ( -5.009322000986467900E-010, -25.99999999650043500, -3.500000000000001800 ) ) ;
#206 = DIRECTION ( 'NONE',  ( 0.0000000000000000000, 0.0000000000000000000, 1.000000000000000000 ) ) ;
#207 = DIRECTION ( 'NONE',  ( 0.0000000000000000000, 1.000000000000000000, 0.0000000000000000000 ) ) ;
#208 = CARTESIAN_POINT ( 'NONE',  ( -5.009326287108706300E-010, -25.99999999650043500, 0.0000000000000000000 ) ) ;
#209 = CARTESIAN_POINT ( 'NONE',  ( -5.009298561411277300E-010, 3.499566088305261500E-009, -20.23843879702504700 ) ) ;
#210 = DIRECTION ( 'NONE',  ( 0.0000000000000000000, 0.0000000000000000000, 1.000000000000000000 ) ) ;
#211 = DIRECTION ( 'NONE',  ( 0.0000000000000000000, 1.000000000000000000, 0.0000000000000000000 ) ) ;
#212 = CARTESIAN_POINT ( 'NONE',  ( -5.009326287108706300E-010, 2.412507003500041800, 0.0000000000000000000 ) ) ;
#213 = AXIS2_PLACEMENT_3D ( 'NONE', #212, #211, #210 ) ;
#214 = CYLINDRICAL_SURFACE ( 'NONE', #213, 7.000000000000000900 ) ;
#215 = FACE_OUTER_BOUND ( 'NONE', #103, .T. ) ;
#216 = DIRECTION ( 'NONE',  ( 0.0000000000000000000, 0.0000000000000000000, 1.000000000000000000 ) ) ;
#217 = DIRECTION ( 'NONE',  ( 0.0000000000000000000, 1.000000000000000000, 0.0000000000000000000 ) ) ;
#218 = CARTESIAN_POINT ( 'NONE',  ( -5.009326287108706300E-010, -25.99999999650043500, 0.0000000000000000000 ) ) ;
#219 = AXIS2_PLACEMENT_3D ( 'NONE', #218, #217, #216 ) ;
#220 = CIRCLE ( 'NONE', #219, 3.500000000000001300 ) ;
#221 = FACE_OUTER_BOUND ( 'NONE', #94, .T. ) ;
#222 = CYLINDRICAL_SURFACE ( 'NONE', #225, 3.500000000000000900 ) ;
#223 = DIRECTION ( 'NONE',  ( 0.0000000000000000000, 1.000000000000000000, 0.0000000000000000000 ) ) ;
#224 = CARTESIAN_POINT ( 'NONE',  ( -5.009326287108706300E-010, 2.412507003500041800, 0.0000000000000000000 ) ) ;
#225 = AXIS2_PLACEMENT_3D ( 'NONE', #224, #223, #229 ) ;
#226 = CARTESIAN_POINT ( 'NONE',  ( -5.009326287108706300E-010, -14.99999999650043500, 0.0000000000000000000 ) ) ;
#227 = AXIS2_PLACEMENT_3D ( 'NONE', #226, #2, #3 ) ;
#228 = CIRCLE ( 'NONE', #227, 7.000000000000002700 ) ;
#229 = DIRECTION ( 'NONE',  ( 0.0000000000000000000, 0.0000000000000000000, 1.000000000000000000 ) ) ;
#230 = CARTESIAN_POINT ( 'NONE',  ( -5.009326287108706300E-010, -14.99999999650043500, 7.000000000000002700 ) ) ;
#231 = CARTESIAN_POINT ( 'NONE',  ( -5.009317714864229600E-010, -14.99999999650043500, -7.000000000000002700 ) ) ;
#232 = DIRECTION ( 'NONE',  ( 0.0000000000000000000, 0.0000000000000000000, 1.000000000000000000 ) ) ;
#233 = DIRECTION ( 'NONE',  ( 0.0000000000000000000, 1.000000000000000000, 0.0000000000000000000 ) ) ;
#234 = AXIS2_PLACEMENT_3D ( 'NONE', #282, #281, #280 ) ;
#235 = CIRCLE ( 'NONE', #234, 25.04255675292955300 ) ;
#236 = CARTESIAN_POINT ( 'NONE',  ( -5.009326287108706300E-010, 3.499566088305261500E-009, 0.0000000000000000000 ) ) ;
#237 = CIRCLE ( 'NONE', #254, 20.23843879702504700 ) ;
#238 = CARTESIAN_POINT ( 'NONE',  ( -5.009326287108706300E-010, 3.499566088305261500E-009, 0.0000000000000000000 ) ) ;
#239 = DIRECTION ( 'NONE',  ( 0.0000000000000000000, 0.0000000000000000000, -1.000000000000000000 ) ) ;
#240 = FACE_OUTER_BOUND ( 'NONE', #114, .T. ) ;
#241 = FACE_OUTER_BOUND ( 'NONE', #95, .T. ) ;
#242 = PLANE ( 'NONE',  #258 ) ;
#243 = DIRECTION ( 'NONE',  ( 0.0000000000000000000, 0.0000000000000000000, 1.000000000000000000 ) ) ;
#244 = DIRECTION ( 'NONE',  ( 0.0000000000000000000, 1.000000000000000000, 0.0000000000000000000 ) ) ;
#245 = CARTESIAN_POINT ( 'NONE',  ( -5.009326287108706300E-010, -14.99999999650043500, 0.0000000000000000000 ) ) ;
#246 = AXIS2_PLACEMENT_3D ( 'NONE', #245, #244, #243 ) ;
#247 = CIRCLE ( 'NONE', #246, 3.500000000000000400 ) ;
#248 = CARTESIAN_POINT ( 'NONE',  ( -5.009326287108706300E-010, -14.99999999650043500, 3.500000000000000400 ) ) ;
#249 = VECTOR ( 'NONE', #296, 1000.000000000000000 ) ;
#250 = CARTESIAN_POINT ( 'NONE',  ( -5.009326287108706300E-010, 2.412507003500041800, 3.500000000000000900 ) ) ;
#251 = LINE ( 'NONE', #250, #249 ) ;
#252 = DIRECTION ( 'NONE',  ( 0.0000000000000000000, 0.0000000000000000000, 1.000000000000000000 ) ) ;
#253 = DIRECTION ( 'NONE',  ( 0.0000000000000000000, 1.000000000000000000, 0.0000000000000000000 ) ) ;
#254 = AXIS2_PLACEMENT_3D ( 'NONE', #236, #253, #252 ) ;
#255 = DIRECTION ( 'NONE',  ( 0.0000000000000000000, 0.0000000000000000000, -1.000000000000000000 ) ) ;
#256 = AXIS2_PLACEMENT_3D ( 'NONE', #279, #278, #277 ) ;
#257 = CIRCLE ( 'NONE', #256, 3.500000000000000400 ) ;
#258 = AXIS2_PLACEMENT_3D ( 'NONE', #269, #268, #239 ) ;
#259 = DIRECTION ( 'NONE',  ( 0.0000000000000000000, 0.0000000000000000000, 1.000000000000000000 ) ) ;
#260 = DIRECTION ( 'NONE',  ( 0.0000000000000000000, 1.000000000000000000, 0.0000000000000000000 ) ) ;
#261 = AXIS2_PLACEMENT_3D ( 'NONE', #290, #260, #259 ) ;
#262 = CIRCLE ( 'NONE', #276, 6.999999999999999100 ) ;
#263 = CARTESIAN_POINT ( 'NONE',  ( -5.009317714864229600E-010, 3.499566088305261500E-009, -6.999999999999999100 ) ) ;
#264 = DIRECTION ( 'NONE',  ( 0.0000000000000000000, 1.000000000000000000, 0.0000000000000000000 ) ) ;
#265 = VECTOR ( 'NONE', #264, 1000.000000000000000 ) ;
#266 = CARTESIAN_POINT ( 'NONE',  ( -5.009317714864229600E-010, 2.412507003500041800, -7.000000000000000900 ) ) ;
#267 = LINE ( 'NONE', #266, #265 ) ;
#268 = DIRECTION ( 'NONE',  ( 0.0000000000000000000, -1.000000000000000000, 0.0000000000000000000 ) ) ;
#269 = CARTESIAN_POINT ( 'NONE',  ( 6.999999999499070000, -14.99999999650043500, 0.0000000000000000000 ) ) ;
#270 = FACE_BOUND ( 'NONE', #100, .T. ) ;
#271 =( NAMED_UNIT ( * ) PLANE_ANGLE_UNIT ( ) SI_UNIT ( $, .RADIAN. ) );
#272 =( LENGTH_UNIT ( ) NAMED_UNIT ( * ) SI_UNIT ( .MILLI., .METRE. ) );
#273 = DIRECTION ( 'NONE',  ( 0.0000000000000000000, 0.0000000000000000000, 1.000000000000000000 ) ) ;
#274 = DIRECTION ( 'NONE',  ( 0.0000000000000000000, 1.000000000000000000, 0.0000000000000000000 ) ) ;
#275 = CARTESIAN_POINT ( 'NONE',  ( -5.009326287108706300E-010, 3.499566088305261500E-009, 0.0000000000000000000 ) ) ;
#276 = AXIS2_PLACEMENT_3D ( 'NONE', #275, #274, #273 ) ;
#277 = DIRECTION ( 'NONE',  ( 0.0000000000000000000, 0.0000000000000000000, 1.000000000000000000 ) ) ;
#278 = DIRECTION ( 'NONE',  ( 0.0000000000000000000, 1.000000000000000000, 0.0000000000000000000 ) ) ;
#279 = CARTESIAN_POINT ( 'NONE',  ( -5.009326287108706300E-010, -14.99999999650043500, 0.0000000000000000000 ) ) ;
#280 = DIRECTION ( 'NONE',  ( 0.0000000000000000000, 0.0000000000000000000, 1.000000000000000000 ) ) ;
#281 = DIRECTION ( 'NONE',  ( 0.0000000000000000000, 1.000000000000000000, 0.0000000000000000000 ) ) ;
#282 = CARTESIAN_POINT ( 'NONE',  ( -5.009326287108706300E-010, -3.614196739989554300, 0.0000000000000000000 ) ) ;
#283 = FACE_BOUND ( 'NONE', #130, .T. ) ;
#284 = CARTESIAN_POINT ( 'NONE',  ( -5.009326287108706300E-010, -14.99999999650043500, 0.0000000000000000000 ) ) ;
#285 = AXIS2_PLACEMENT_3D ( 'NONE', #284, #233, #232 ) ;
#286 = CIRCLE ( 'NONE', #285, 7.000000000000002700 ) ;
#287 = DIRECTION ( 'NONE',  ( 0.0000000000000000000, 0.0000000000000000000, 1.000000000000000000 ) ) ;
#288 = DIRECTION ( 'NONE',  ( 0.0000000000000000000, 1.000000000000000000, 0.0000000000000000000 ) ) ;
#289 = CARTESIAN_POINT ( 'NONE',  ( -5.009326287108706300E-010, 2.412507003500041800, 0.0000000000000000000 ) ) ;
#290 = CARTESIAN_POINT ( 'NONE',  ( -5.009326287108706300E-010, 3.499566088305261500E-009, 0.0000000000000000000 ) ) ;
#291 = CARTESIAN_POINT ( 'NONE',  ( -5.009326287108706300E-010, 3.499566088305261500E-009, 20.23843879702504700 ) ) ;
#292 = PLANE ( 'NONE',  #303 ) ;
#293 = CYLINDRICAL_SURFACE ( 'NONE', #294, 7.000000000000000900 ) ;
#294 = AXIS2_PLACEMENT_3D ( 'NONE', #289, #288, #287 ) ;
#295 = FACE_OUTER_BOUND ( 'NONE', #141, .T. ) ;
#296 = DIRECTION ( 'NONE',  ( 0.0000000000000000000, 1.000000000000000000, 0.0000000000000000000 ) ) ;
#297 = AXIS2_PLACEMENT_3D ( 'NONE', #238, #300, #299 ) ;
#298 = CIRCLE ( 'NONE', #297, 6.999999999999999100 ) ;
#299 = DIRECTION ( 'NONE',  ( 0.0000000000000000000, 0.0000000000000000000, 1.000000000000000000 ) ) ;
#300 = DIRECTION ( 'NONE',  ( 0.0000000000000000000, 1.000000000000000000, 0.0000000000000000000 ) ) ;
#301 = DIRECTION ( 'NONE',  ( 0.0000000000000000000, -1.000000000000000000, 0.0000000000000000000 ) ) ;
#302 = CARTESIAN_POINT ( 'NONE',  ( 20.23843879652411500, 3.499565925674935600E-009, 0.0000000000000000000 ) ) ;
#303 = AXIS2_PLACEMENT_3D ( 'NONE', #302, #301, #255 ) ;
#304 = CIRCLE ( 'NONE', #261, 20.23843879702504700 ) ;
#305 = CC_DESIGN_DATE_AND_TIME_ASSIGNMENT ( #307, #306, ( #325 ) ) ;
#306 = DATE_TIME_ROLE ( 'creation_date' ) ;
#307 = DATE_AND_TIME ( #308, #309 ) ;
#308 = CALENDAR_DATE ( 2009, 29, 6 ) ;
#309 = LOCAL_TIME ( 11, 37, 34.00000000000000000, #310 ) ;
#310 = COORDINATED_UNIVERSAL_TIME_OFFSET ( 9, 0, .AHEAD. ) ;
#311 = CC_DESIGN_PERSON_AND_ORGANIZATION_ASSIGNMENT ( #313, #312, ( #325 ) ) ;
#312 = PERSON_AND_ORGANIZATION_ROLE ( 'creator' ) ;
#313 = PERSON_AND_ORGANIZATION ( #333, #332 ) ;
#314 = CC_DESIGN_APPROVAL ( #322, ( #325 ) ) ;
#315 = APPROVAL_DATE_TIME ( #316, #322 ) ;
#316 = DATE_AND_TIME ( #317, #318 ) ;
#317 = CALENDAR_DATE ( 2009, 29, 6 ) ;
#318 = LOCAL_TIME ( 11, 37, 34.00000000000000000, #319 ) ;
#319 = COORDINATED_UNIVERSAL_TIME_OFFSET ( 9, 0, .AHEAD. ) ;
#320 = APPROVAL_PERSON_ORGANIZATION ( #324, #322, #321 ) ;
#321 = APPROVAL_ROLE ( '' ) ;
#322 = APPROVAL ( #323, 'UNSPECIFIED' ) ;
#323 = APPROVAL_STATUS ( 'not_yet_approved' ) ;
#324 = PERSON_AND_ORGANIZATION ( #333, #332 ) ;
#325 = PRODUCT_DEFINITION ( 'UNKNOWN', '', #350, #326 ) ;
#326 = DESIGN_CONTEXT ( 'detailed design', #328, 'design' ) ;
#327 = APPLICATION_PROTOCOL_DEFINITION ( 'international standard', 'config_control_design', 1994, #328 ) ;
#328 = APPLICATION_CONTEXT ( 'configuration controlled 3d designs of mechanical parts and assemblies' ) ;
#329 = CC_DESIGN_PERSON_AND_ORGANIZATION_ASSIGNMENT ( #331, #330, ( #334 ) ) ;
#330 = PERSON_AND_ORGANIZATION_ROLE ( 'design_owner' ) ;
#331 = PERSON_AND_ORGANIZATION ( #333, #332 ) ;
#332 = ORGANIZATION ( 'UNSPECIFIED', 'UNSPECIFIED', '' ) ;
#333 = PERSON ( 'UNSPECIFIED', 'UNSPECIFIED', 'UNSPECIFIED', ('UNSPECIFIED'), ('UNSPECIFIED'), ('UNSPECIFIED') ) ;
#334 = PRODUCT ( 'C-30-RK-63-ÃÞÌ«ÙÄ', 'C-30-RK-63-ÃÞÌ«ÙÄ', '', ( #335 ) ) ;
#335 = MECHANICAL_CONTEXT ( 'NONE', #337, 'mechanical' ) ;
#336 = APPLICATION_PROTOCOL_DEFINITION ( 'international standard', 'config_control_design', 1994, #337 ) ;
#337 = APPLICATION_CONTEXT ( 'configuration controlled 3d designs of mechanical parts and assemblies' ) ;
#338 = COORDINATED_UNIVERSAL_TIME_OFFSET ( 9, 0, .AHEAD. ) ;
#339 = APPROVAL_PERSON_ORGANIZATION ( #354, #353, #355 ) ;
#340 = DATE_AND_TIME ( #348, #349 ) ;
#341 = COORDINATED_UNIVERSAL_TIME_OFFSET ( 9, 0, .AHEAD. ) ;
#342 = CC_DESIGN_PERSON_AND_ORGANIZATION_ASSIGNMENT ( #344, #343, ( #345 ) ) ;
#343 = PERSON_AND_ORGANIZATION_ROLE ( 'classification_officer' ) ;
#344 = PERSON_AND_ORGANIZATION ( #333, #332 ) ;
#345 = SECURITY_CLASSIFICATION ( '', '', #368 ) ;
#346 = CC_DESIGN_DATE_AND_TIME_ASSIGNMENT ( #340, #347, ( #345 ) ) ;
#347 = DATE_TIME_ROLE ( 'classification_date' ) ;
#348 = CALENDAR_DATE ( 2009, 29, 6 ) ;
#349 = LOCAL_TIME ( 11, 37, 34.00000000000000000, #341 ) ;
#350 = PRODUCT_DEFINITION_FORMATION_WITH_SPECIFIED_SOURCE ( 'ANY', '', #334, .NOT_KNOWN. ) ;
#351 = PERSON_AND_ORGANIZATION ( #333, #332 ) ;
#352 = APPROVAL_STATUS ( 'not_yet_approved' ) ;
#353 = APPROVAL ( #352, 'UNSPECIFIED' ) ;
#354 = PERSON_AND_ORGANIZATION ( #333, #332 ) ;
#355 = APPROVAL_ROLE ( '' ) ;
#356 = DATE_AND_TIME ( #374, #375 ) ;
#357 = CC_DESIGN_APPROVAL ( #365, ( #345 ) ) ;
#358 = APPROVAL_DATE_TIME ( #359, #365 ) ;
#359 = DATE_AND_TIME ( #360, #361 ) ;
#360 = CALENDAR_DATE ( 2009, 29, 6 ) ;
#361 = LOCAL_TIME ( 11, 37, 34.00000000000000000, #362 ) ;
#362 = COORDINATED_UNIVERSAL_TIME_OFFSET ( 9, 0, .AHEAD. ) ;
#363 = APPROVAL_PERSON_ORGANIZATION ( #367, #365, #364 ) ;
#364 = APPROVAL_ROLE ( '' ) ;
#365 = APPROVAL ( #366, 'UNSPECIFIED' ) ;
#366 = APPROVAL_STATUS ( 'not_yet_approved' ) ;
#367 = PERSON_AND_ORGANIZATION ( #333, #332 ) ;
#368 = SECURITY_CLASSIFICATION_LEVEL ( 'unclassified' ) ;
#369 = CC_DESIGN_PERSON_AND_ORGANIZATION_ASSIGNMENT ( #371, #370, ( #350 ) ) ;
#370 = PERSON_AND_ORGANIZATION_ROLE ( 'design_supplier' ) ;
#371 = PERSON_AND_ORGANIZATION ( #333, #332 ) ;
#372 = CC_DESIGN_PERSON_AND_ORGANIZATION_ASSIGNMENT ( #351, #376, ( #350 ) ) ;
#373 = APPROVAL_DATE_TIME ( #356, #353 ) ;
#374 = CALENDAR_DATE ( 2009, 29, 6 ) ;
#375 = LOCAL_TIME ( 11, 37, 34.00000000000000000, #338 ) ;
#376 = PERSON_AND_ORGANIZATION_ROLE ( 'creator' ) ;
#377 = CC_DESIGN_APPROVAL ( #353, ( #350 ) ) ;
#378 = SHAPE_DEFINITION_REPRESENTATION ( #379, #8 ) ;
#379 = PRODUCT_DEFINITION_SHAPE ( 'NONE', 'NONE',  #325 ) ;
#380 = PRODUCT_RELATED_PRODUCT_CATEGORY ( 'detail', '', ( #334 ) ) ;
#381 = CC_DESIGN_SECURITY_CLASSIFICATION ( #345, ( #350 ) ) ;
ENDSEC;
END-ISO-10303-21;
