ISO-10303-21;
HEADER;
FILE_DESCRIPTION (( 'STEP AP203' ),
    '1' );
FILE_NAME ('C-30-RK-63-gray.STEP',
    '2009-06-29T02:36:24',
    ( '11sw' ),
    ( '^LQ»¢®ïÐ' ),
    'SwSTEP 2.0',
    'SolidWorks 2007',
    '' );
FILE_SCHEMA (( 'CONFIG_CONTROL_DESIGN' ));
ENDSEC;

DATA;
#1 = CARTESIAN_POINT ( 'NONE',  ( -5.009326287108706300E-010, -3.614196739989554300, 0.0000000000000000000 ) ) ;
#2 = DIRECTION ( 'NONE',  ( 0.0000000000000000000, 1.000000000000000000, 0.0000000000000000000 ) ) ;
#3 = DIRECTION ( 'NONE',  ( 0.0000000000000000000, 0.0000000000000000000, 1.000000000000000000 ) ) ;
#4 = APPROVAL_DATE_TIME ( #6, #117 ) ;
#5 = CC_DESIGN_APPROVAL ( #117, ( #102 ) ) ;
#6 = DATE_AND_TIME ( #112, #113 ) ;
#7 = CIRCLE ( 'NONE', #8, 25.04255675292955300 ) ;
#8 = AXIS2_PLACEMENT_3D ( 'NONE', #1, #2, #3 ) ;
#9 = VERTEX_POINT ( 'NONE', #111 ) ;
#10 = ORIENTED_EDGE ( 'NONE', *, *, #38, .T. ) ;
#11 = EDGE_CURVE ( 'NONE', #17, #12, #110, .T. ) ;
#12 = VERTEX_POINT ( 'NONE', #106 ) ;
#13 = EDGE_CURVE ( 'NONE', #17, #18, #7, .T. ) ;
#14 = VERTEX_POINT ( 'NONE', #230 ) ;
#15 = VERTEX_POINT ( 'NONE', #201 ) ;
#16 = ORIENTED_EDGE ( 'NONE', *, *, #13, .F. ) ;
#17 = VERTEX_POINT ( 'NONE', #256 ) ;
#18 = VERTEX_POINT ( 'NONE', #237 ) ;
#19 = ORIENTED_EDGE ( 'NONE', *, *, #11, .T. ) ;
#20 = ORIENTED_EDGE ( 'NONE', *, *, #21, .F. ) ;
#21 = EDGE_CURVE ( 'NONE', #18, #33, #200, .T. ) ;
#22 = EDGE_CURVE ( 'NONE', #97, #23, #229, .T. ) ;
#23 = VERTEX_POINT ( 'NONE', #228 ) ;
#24 = ADVANCED_FACE ( 'NONE', ( #227 ), #226, .F. ) ;
#25 = EDGE_LOOP ( 'NONE', ( #36, #96, #32, #92 ) ) ;
#26 = ORIENTED_EDGE ( 'NONE', *, *, #27, .F. ) ;
#27 = EDGE_CURVE ( 'NONE', #9, #95, #242, .T. ) ;
#28 = EDGE_CURVE ( 'NONE', #94, #9, #238, .T. ) ;
#29 = ADVANCED_FACE ( 'NONE', ( #236 ), #220, .F. ) ;
#30 = EDGE_LOOP ( 'NONE', ( #93, #10, #41, #26 ) ) ;
#31 = EDGE_CURVE ( 'NONE', #14, #97, #221, .T. ) ;
#32 = ORIENTED_EDGE ( 'NONE', *, *, #22, .T. ) ;
#33 = VERTEX_POINT ( 'NONE', #213 ) ;
#34 = EDGE_CURVE ( 'NONE', #12, #33, #212, .T. ) ;
#35 = ORIENTED_EDGE ( 'NONE', *, *, #34, .T. ) ;
#36 = ORIENTED_EDGE ( 'NONE', *, *, #37, .F. ) ;
#37 = EDGE_CURVE ( 'NONE', #14, #15, #207, .T. ) ;
#38 = EDGE_CURVE ( 'NONE', #94, #39, #202, .T. ) ;
#39 = VERTEX_POINT ( 'NONE', #160 ) ;
#40 = EDGE_CURVE ( 'NONE', #39, #95, #159, .T. ) ;
#41 = ORIENTED_EDGE ( 'NONE', *, *, #40, .T. ) ;
#42 = ORIENTED_EDGE ( 'NONE', *, *, #28, .T. ) ;
#43 = ADVANCED_FACE ( 'NONE', ( #154 ), #153, .T. ) ;
#44 = EDGE_LOOP ( 'NONE', ( #45, #46, #47, #48 ) ) ;
#45 = ORIENTED_EDGE ( 'NONE', *, *, #11, .F. ) ;
#46 = ORIENTED_EDGE ( 'NONE', *, *, #54, .F. ) ;
#47 = ORIENTED_EDGE ( 'NONE', *, *, #21, .T. ) ;
#48 = ORIENTED_EDGE ( 'NONE', *, *, #80, .T. ) ;
#49 = CLOSED_SHELL ( 'NONE', ( #100, #29, #24, #86, #50, #58, #125, #66, #74, #77, #43 ) ) ;
#50 = ADVANCED_FACE ( 'NONE', ( #147 ), #146, .T. ) ;
#51 = EDGE_LOOP ( 'NONE', ( #52, #53, #55, #56 ) ) ;
#52 = ORIENTED_EDGE ( 'NONE', *, *, #88, .F. ) ;
#53 = ORIENTED_EDGE ( 'NONE', *, *, #54, .T. ) ;
#54 = EDGE_CURVE ( 'NONE', #18, #17, #142, .T. ) ;
#55 = ORIENTED_EDGE ( 'NONE', *, *, #84, .T. ) ;
#56 = ORIENTED_EDGE ( 'NONE', *, *, #57, .F. ) ;
#57 = EDGE_CURVE ( 'NONE', #89, #132, #137, .T. ) ;
#58 = ADVANCED_FACE ( 'NONE', ( #322, #321 ), #320, .F. ) ;
#59 = EDGE_LOOP ( 'NONE', ( #60, #62 ) ) ;
#60 = ORIENTED_EDGE ( 'NONE', *, *, #61, .F. ) ;
#61 = EDGE_CURVE ( 'NONE', #23, #97, #315, .T. ) ;
#62 = ORIENTED_EDGE ( 'NONE', *, *, #22, .F. ) ;
#63 = EDGE_LOOP ( 'NONE', ( #123, #124 ) ) ;
#64 = ORIENTED_EDGE ( 'NONE', *, *, #91, .T. ) ;
#65 = ORIENTED_EDGE ( 'NONE', *, *, #61, .T. ) ;
#66 = ADVANCED_FACE ( 'NONE', ( #310, #309 ), #308, .F. ) ;
#67 = EDGE_LOOP ( 'NONE', ( #68, #70 ) ) ;
#68 = ORIENTED_EDGE ( 'NONE', *, *, #69, .F. ) ;
#69 = EDGE_CURVE ( 'NONE', #95, #39, #303, .T. ) ;
#70 = ORIENTED_EDGE ( 'NONE', *, *, #40, .F. ) ;
#71 = EDGE_LOOP ( 'NONE', ( #72, #73 ) ) ;
#72 = ORIENTED_EDGE ( 'NONE', *, *, #129, .T. ) ;
#73 = ORIENTED_EDGE ( 'NONE', *, *, #37, .T. ) ;
#74 = ADVANCED_FACE ( 'NONE', ( #298 ), #297, .F. ) ;
#75 = EDGE_LOOP ( 'NONE', ( #76, #119, #121, #122 ) ) ;
#76 = ORIENTED_EDGE ( 'NONE', *, *, #38, .F. ) ;
#77 = ADVANCED_FACE ( 'NONE', ( #291, #290 ), #296, .F. ) ;
#78 = EDGE_LOOP ( 'NONE', ( #79, #81 ) ) ;
#79 = ORIENTED_EDGE ( 'NONE', *, *, #80, .F. ) ;
#80 = EDGE_CURVE ( 'NONE', #33, #12, #267, .T. ) ;
#81 = ORIENTED_EDGE ( 'NONE', *, *, #34, .F. ) ;
#82 = EDGE_LOOP ( 'NONE', ( #133, #42 ) ) ;
#83 = ORIENTED_EDGE ( 'NONE', *, *, #84, .F. ) ;
#84 = EDGE_CURVE ( 'NONE', #17, #132, #262, .T. ) ;
#85 = ORIENTED_EDGE ( 'NONE', *, *, #13, .T. ) ;
#86 = ADVANCED_FACE ( 'NONE', ( #257 ), #288, .T. ) ;
#87 = EDGE_LOOP ( 'NONE', ( #85, #90, #130, #83 ) ) ;
#88 = EDGE_CURVE ( 'NONE', #18, #89, #283, .T. ) ;
#89 = VERTEX_POINT ( 'NONE', #279 ) ;
#90 = ORIENTED_EDGE ( 'NONE', *, *, #88, .T. ) ;
#91 = EDGE_CURVE ( 'NONE', #15, #23, #278, .T. ) ;
#92 = ORIENTED_EDGE ( 'NONE', *, *, #91, .F. ) ;
#93 = ORIENTED_EDGE ( 'NONE', *, *, #28, .F. ) ;
#94 = VERTEX_POINT ( 'NONE', #274 ) ;
#95 = VERTEX_POINT ( 'NONE', #273 ) ;
#96 = ORIENTED_EDGE ( 'NONE', *, *, #31, .T. ) ;
#97 = VERTEX_POINT ( 'NONE', #272 ) ;
#98 = EDGE_LOOP ( 'NONE', ( #16, #19, #35, #20 ) ) ;
#99 = MANIFOLD_SOLID_BREP ( 'NONE', #49 ) ;
#100 = ADVANCED_FACE ( 'NONE', ( #196 ), #194, .T. ) ;
#101 = PERSON_AND_ORGANIZATION ( #249, #248 ) ;
#102 = PRODUCT_DEFINITION ( 'UNKNOWN', '', #334, #103 ) ;
#103 = DESIGN_CONTEXT ( 'detailed design', #105, 'design' ) ;
#104 = APPLICATION_PROTOCOL_DEFINITION ( 'international standard', 'config_control_design', 1994, #105 ) ;
#105 = APPLICATION_CONTEXT ( 'configuration controlled 3d designs of mechanical parts and assemblies' ) ;
#106 = CARTESIAN_POINT ( 'NONE',  ( -5.009287712008560900E-010, -25.99999999650043500, 31.50000000000000000 ) ) ;
#107 = DIRECTION ( 'NONE',  ( 3.394126946141994200E-017, -0.9608235911808944400, 0.2771606513021811500 ) ) ;
#108 = VECTOR ( 'NONE', #107, 1000.000000000000100 ) ;
#109 = CARTESIAN_POINT ( 'NONE',  ( -5.009287712008560900E-010, -25.99999999650043500, 31.50000000000000000 ) ) ;
#110 = LINE ( 'NONE', #109, #108 ) ;
#111 = CARTESIAN_POINT ( 'NONE',  ( -5.009326287108706300E-010, -25.99999999650043500, 3.500000000000001300 ) ) ;
#112 = CALENDAR_DATE ( 2009, 29, 6 ) ;
#113 = LOCAL_TIME ( 11, 36, 24.00000000000000000, #114 ) ;
#114 = COORDINATED_UNIVERSAL_TIME_OFFSET ( 9, 0, .AHEAD. ) ;
#115 = APPROVAL_PERSON_ORGANIZATION ( #101, #117, #116 ) ;
#116 = APPROVAL_ROLE ( '' ) ;
#117 = APPROVAL ( #118, 'UNSPECIFIED' ) ;
#118 = APPROVAL_STATUS ( 'not_yet_approved' ) ;
#119 = ORIENTED_EDGE ( 'NONE', *, *, #120, .F. ) ;
#120 = EDGE_CURVE ( 'NONE', #9, #94, #189, .T. ) ;
#121 = ORIENTED_EDGE ( 'NONE', *, *, #27, .T. ) ;
#122 = ORIENTED_EDGE ( 'NONE', *, *, #69, .T. ) ;
#123 = ORIENTED_EDGE ( 'NONE', *, *, #131, .T. ) ;
#124 = ORIENTED_EDGE ( 'NONE', *, *, #57, .T. ) ;
#125 = ADVANCED_FACE ( 'NONE', ( #190 ), #182, .F. ) ;
#126 = EDGE_LOOP ( 'NONE', ( #127, #128, #64, #65 ) ) ;
#127 = ORIENTED_EDGE ( 'NONE', *, *, #31, .F. ) ;
#128 = ORIENTED_EDGE ( 'NONE', *, *, #129, .F. ) ;
#129 = EDGE_CURVE ( 'NONE', #15, #14, #178, .T. ) ;
#130 = ORIENTED_EDGE ( 'NONE', *, *, #131, .F. ) ;
#131 = EDGE_CURVE ( 'NONE', #132, #89, #174, .T. ) ;
#132 = VERTEX_POINT ( 'NONE', #169 ) ;
#133 = ORIENTED_EDGE ( 'NONE', *, *, #120, .T. ) ;
#134 = DIRECTION ( 'NONE',  ( 0.0000000000000000000, 1.000000000000000000, 0.0000000000000000000 ) ) ;
#135 = CARTESIAN_POINT ( 'NONE',  ( -5.009326287108706300E-010, 3.499566088305261500E-009, 0.0000000000000000000 ) ) ;
#136 = AXIS2_PLACEMENT_3D ( 'NONE', #135, #134, #323 ) ;
#137 = CIRCLE ( 'NONE', #136, 20.23843879702504700 ) ;
#138 = DIRECTION ( 'NONE',  ( 0.0000000000000000000, 0.0000000000000000000, 1.000000000000000000 ) ) ;
#139 = DIRECTION ( 'NONE',  ( 0.0000000000000000000, 1.000000000000000000, 0.0000000000000000000 ) ) ;
#140 = CARTESIAN_POINT ( 'NONE',  ( -5.009326287108706300E-010, -3.614196739989554300, 0.0000000000000000000 ) ) ;
#141 = AXIS2_PLACEMENT_3D ( 'NONE', #140, #139, #138 ) ;
#142 = CIRCLE ( 'NONE', #141, 25.04255675292955300 ) ;
#143 = DIRECTION ( 'NONE',  ( 0.0000000000000000000, 0.0000000000000000000, 1.000000000000000000 ) ) ;
#144 = DIRECTION ( 'NONE',  ( 0.0000000000000000000, 1.000000000000000000, 0.0000000000000000000 ) ) ;
#145 = AXIS2_PLACEMENT_3D ( 'NONE', #152, #144, #143 ) ;
#146 = TOROIDAL_SURFACE ( 'NONE', #145, 20.23843879702507600, 4.999999999999999100 ) ;
#147 = FACE_OUTER_BOUND ( 'NONE', #51, .T. ) ;
#148 = DIRECTION ( 'NONE',  ( 0.0000000000000000000, 0.0000000000000000000, -1.000000000000000000 ) ) ;
#149 = DIRECTION ( 'NONE',  ( 0.0000000000000000000, -1.000000000000000000, 0.0000000000000000000 ) ) ;
#150 = CARTESIAN_POINT ( 'NONE',  ( -5.009326287108706300E-010, -25.99999999650043500, 0.0000000000000000000 ) ) ;
#151 = AXIS2_PLACEMENT_3D ( 'NONE', #150, #149, #148 ) ;
#152 = CARTESIAN_POINT ( 'NONE',  ( -5.009326287108706300E-010, -4.999999996500434000, 0.0000000000000000000 ) ) ;
#153 = CONICAL_SURFACE ( 'NONE', #151, 31.50000000000000000, 0.2808377246212029300 ) ;
#154 = FACE_OUTER_BOUND ( 'NONE', #44, .T. ) ;
#155 = DIRECTION ( 'NONE',  ( 0.0000000000000000000, 0.0000000000000000000, 1.000000000000000000 ) ) ;
#156 = DIRECTION ( 'NONE',  ( 0.0000000000000000000, 1.000000000000000000, 0.0000000000000000000 ) ) ;
#157 = CARTESIAN_POINT ( 'NONE',  ( -5.009326287108706300E-010, -14.99999999650043500, 0.0000000000000000000 ) ) ;
#158 = AXIS2_PLACEMENT_3D ( 'NONE', #157, #156, #155 ) ;
#159 = CIRCLE ( 'NONE', #158, 3.500000000000000400 ) ;
#160 = CARTESIAN_POINT ( 'NONE',  ( -5.009322000986467900E-010, -14.99999999650043500, -3.500000000000000400 ) ) ;
#161 = DIRECTION ( 'NONE',  ( 0.0000000000000000000, 1.000000000000000000, 0.0000000000000000000 ) ) ;
#162 = VECTOR ( 'NONE', #161, 1000.000000000000000 ) ;
#163 = CARTESIAN_POINT ( 'NONE',  ( -5.009322000986467900E-010, 2.412507003500041800, -3.500000000000000900 ) ) ;
#164 = DIRECTION ( 'NONE',  ( 0.0000000000000000000, 0.0000000000000000000, 1.000000000000000000 ) ) ;
#165 = DIRECTION ( 'NONE',  ( 0.0000000000000000000, 1.000000000000000000, 0.0000000000000000000 ) ) ;
#166 = CARTESIAN_POINT ( 'NONE',  ( -5.009326287108706300E-010, 3.499566088305261500E-009, 0.0000000000000000000 ) ) ;
#167 = AXIS2_PLACEMENT_3D ( 'NONE', #166, #165, #164 ) ;
#168 = CARTESIAN_POINT ( 'NONE',  ( 0.0000000000000000000, 0.0000000000000000000, 0.0000000000000000000 ) ) ;
#169 = CARTESIAN_POINT ( 'NONE',  ( -5.009326287108706300E-010, 3.499566088305261500E-009, 20.23843879702504700 ) ) ;
#170 = DIRECTION ( 'NONE',  ( 0.0000000000000000000, 0.0000000000000000000, 1.000000000000000000 ) ) ;
#171 = DIRECTION ( 'NONE',  ( 0.0000000000000000000, 1.000000000000000000, 0.0000000000000000000 ) ) ;
#172 = CARTESIAN_POINT ( 'NONE',  ( -5.009326287108706300E-010, 3.499566088305261500E-009, 0.0000000000000000000 ) ) ;
#173 = AXIS2_PLACEMENT_3D ( 'NONE', #172, #171, #170 ) ;
#174 = CIRCLE ( 'NONE', #173, 20.23843879702504700 ) ;
#175 = DIRECTION ( 'NONE',  ( 0.0000000000000000000, 0.0000000000000000000, 1.000000000000000000 ) ) ;
#176 = DIRECTION ( 'NONE',  ( 0.0000000000000000000, 1.000000000000000000, 0.0000000000000000000 ) ) ;
#177 = AXIS2_PLACEMENT_3D ( 'NONE', #183, #176, #175 ) ;
#178 = CIRCLE ( 'NONE', #177, 7.000000000000002700 ) ;
#179 = DIRECTION ( 'NONE',  ( 0.0000000000000000000, 0.0000000000000000000, 1.000000000000000000 ) ) ;
#180 = DIRECTION ( 'NONE',  ( 0.0000000000000000000, 1.000000000000000000, 0.0000000000000000000 ) ) ;
#181 = AXIS2_PLACEMENT_3D ( 'NONE', #184, #180, #179 ) ;
#182 = CYLINDRICAL_SURFACE ( 'NONE', #181, 7.000000000000000900 ) ;
#183 = CARTESIAN_POINT ( 'NONE',  ( -5.009326287108706300E-010, -14.99999999650043500, 0.0000000000000000000 ) ) ;
#184 = CARTESIAN_POINT ( 'NONE',  ( -5.009326287108706300E-010, 2.412507003500041800, 0.0000000000000000000 ) ) ;
#185 = DIRECTION ( 'NONE',  ( 0.0000000000000000000, 0.0000000000000000000, 1.000000000000000000 ) ) ;
#186 = DIRECTION ( 'NONE',  ( 0.0000000000000000000, 1.000000000000000000, 0.0000000000000000000 ) ) ;
#187 = CARTESIAN_POINT ( 'NONE',  ( -5.009326287108706300E-010, -25.99999999650043500, 0.0000000000000000000 ) ) ;
#188 = AXIS2_PLACEMENT_3D ( 'NONE', #187, #186, #185 ) ;
#189 = CIRCLE ( 'NONE', #188, 3.500000000000001300 ) ;
#190 = FACE_OUTER_BOUND ( 'NONE', #126, .T. ) ;
#191 = DIRECTION ( 'NONE',  ( 0.0000000000000000000, 0.0000000000000000000, -1.000000000000000000 ) ) ;
#192 = DIRECTION ( 'NONE',  ( 0.0000000000000000000, -1.000000000000000000, 0.0000000000000000000 ) ) ;
#193 = AXIS2_PLACEMENT_3D ( 'NONE', #195, #192, #191 ) ;
#194 = CONICAL_SURFACE ( 'NONE', #193, 31.50000000000000000, 0.2808377246212029300 ) ;
#195 = CARTESIAN_POINT ( 'NONE',  ( -5.009326287108706300E-010, -25.99999999650043500, 0.0000000000000000000 ) ) ;
#196 = FACE_OUTER_BOUND ( 'NONE', #98, .T. ) ;
#197 = DIRECTION ( 'NONE',  ( 0.0000000000000000000, -0.9608235911808944400, -0.2771606513021811500 ) ) ;
#198 = VECTOR ( 'NONE', #197, 1000.000000000000100 ) ;
#199 = CARTESIAN_POINT ( 'NONE',  ( -5.009326287108706300E-010, -25.99999999650043500, -31.50000000000000000 ) ) ;
#200 = LINE ( 'NONE', #199, #198 ) ;
#201 = CARTESIAN_POINT ( 'NONE',  ( -5.009326287108706300E-010, -14.99999999650043500, 7.000000000000002700 ) ) ;
#202 = LINE ( 'NONE', #163, #162 ) ;
#203 = DIRECTION ( 'NONE',  ( 0.0000000000000000000, 0.0000000000000000000, 1.000000000000000000 ) ) ;
#204 = DIRECTION ( 'NONE',  ( 0.0000000000000000000, 1.000000000000000000, 0.0000000000000000000 ) ) ;
#205 = CARTESIAN_POINT ( 'NONE',  ( -5.009326287108706300E-010, -14.99999999650043500, 0.0000000000000000000 ) ) ;
#206 = AXIS2_PLACEMENT_3D ( 'NONE', #205, #204, #203 ) ;
#207 = CIRCLE ( 'NONE', #206, 7.000000000000002700 ) ;
#208 = DIRECTION ( 'NONE',  ( 0.0000000000000000000, 0.0000000000000000000, 1.000000000000000000 ) ) ;
#209 = DIRECTION ( 'NONE',  ( 0.0000000000000000000, 1.000000000000000000, 0.0000000000000000000 ) ) ;
#210 = CARTESIAN_POINT ( 'NONE',  ( -5.009326287108706300E-010, -25.99999999650043500, 0.0000000000000000000 ) ) ;
#211 = AXIS2_PLACEMENT_3D ( 'NONE', #210, #209, #208 ) ;
#212 = CIRCLE ( 'NONE', #211, 31.50000000000000000 ) ;
#213 = CARTESIAN_POINT ( 'NONE',  ( -5.009326287108706300E-010, -25.99999999650043500, -31.50000000000000000 ) ) ;
#214 = DIRECTION ( 'NONE',  ( 0.0000000000000000000, 1.000000000000000000, 0.0000000000000000000 ) ) ;
#215 = VECTOR ( 'NONE', #214, 1000.000000000000000 ) ;
#216 = CARTESIAN_POINT ( 'NONE',  ( -5.009317714864229600E-010, 2.412507003500041800, -7.000000000000000900 ) ) ;
#217 = DIRECTION ( 'NONE',  ( 0.0000000000000000000, 0.0000000000000000000, 1.000000000000000000 ) ) ;
#218 = DIRECTION ( 'NONE',  ( 0.0000000000000000000, 1.000000000000000000, 0.0000000000000000000 ) ) ;
#219 = AXIS2_PLACEMENT_3D ( 'NONE', #231, #218, #217 ) ;
#220 = CYLINDRICAL_SURFACE ( 'NONE', #219, 3.500000000000000900 ) ;
#221 = LINE ( 'NONE', #216, #215 ) ;
#222 = UNCERTAINTY_MEASURE_WITH_UNIT (LENGTH_MEASURE( 1.000000000000000100E-005 ), #225, 'distance_accuracy_value', 'NONE');
#223 =( NAMED_UNIT ( * ) SI_UNIT ( $, .STERADIAN. ) SOLID_ANGLE_UNIT ( ) );
#224 =( NAMED_UNIT ( * ) PLANE_ANGLE_UNIT ( ) SI_UNIT ( $, .RADIAN. ) );
#225 =( LENGTH_UNIT ( ) NAMED_UNIT ( * ) SI_UNIT ( .MILLI., .METRE. ) );
#226 = CYLINDRICAL_SURFACE ( 'NONE', #255, 7.000000000000000900 ) ;
#227 = FACE_OUTER_BOUND ( 'NONE', #25, .T. ) ;
#228 = CARTESIAN_POINT ( 'NONE',  ( -5.009326287108706300E-010, 3.499566088305261500E-009, 6.999999999999999100 ) ) ;
#229 = CIRCLE ( 'NONE', #167, 6.999999999999999100 ) ;
#230 = CARTESIAN_POINT ( 'NONE',  ( -5.009317714864229600E-010, -14.99999999650043500, -7.000000000000002700 ) ) ;
#231 = CARTESIAN_POINT ( 'NONE',  ( -5.009326287108706300E-010, 2.412507003500041800, 0.0000000000000000000 ) ) ;
#232 = DIRECTION ( 'NONE',  ( 0.0000000000000000000, 0.0000000000000000000, 1.000000000000000000 ) ) ;
#233 = DIRECTION ( 'NONE',  ( 0.0000000000000000000, 1.000000000000000000, 0.0000000000000000000 ) ) ;
#234 = CARTESIAN_POINT ( 'NONE',  ( -5.009326287108706300E-010, -25.99999999650043500, 0.0000000000000000000 ) ) ;
#235 = AXIS2_PLACEMENT_3D ( 'NONE', #234, #233, #232 ) ;
#236 = FACE_OUTER_BOUND ( 'NONE', #30, .T. ) ;
#237 = CARTESIAN_POINT ( 'NONE',  ( -5.009295619834591200E-010, -3.614196739989554300, -25.04255675292955300 ) ) ;
#238 = CIRCLE ( 'NONE', #235, 3.500000000000001300 ) ;
#239 = DIRECTION ( 'NONE',  ( 0.0000000000000000000, 1.000000000000000000, 0.0000000000000000000 ) ) ;
#240 = VECTOR ( 'NONE', #239, 1000.000000000000000 ) ;
#241 = CARTESIAN_POINT ( 'NONE',  ( -5.009326287108706300E-010, 2.412507003500041800, 3.500000000000000900 ) ) ;
#242 = LINE ( 'NONE', #241, #240 ) ;
#243 = DIRECTION ( 'NONE',  ( 0.0000000000000000000, 0.0000000000000000000, 1.000000000000000000 ) ) ;
#244 = DIRECTION ( 'NONE',  ( 0.0000000000000000000, 1.000000000000000000, 0.0000000000000000000 ) ) ;
#245 = CC_DESIGN_PERSON_AND_ORGANIZATION_ASSIGNMENT ( #247, #246, ( #250 ) ) ;
#246 = PERSON_AND_ORGANIZATION_ROLE ( 'design_owner' ) ;
#247 = PERSON_AND_ORGANIZATION ( #249, #248 ) ;
#248 = ORGANIZATION ( 'UNSPECIFIED', 'UNSPECIFIED', '' ) ;
#249 = PERSON ( 'UNSPECIFIED', 'UNSPECIFIED', 'UNSPECIFIED', ('UNSPECIFIED'), ('UNSPECIFIED'), ('UNSPECIFIED') ) ;
#250 = PRODUCT ( 'C-30-RK-63-gray', 'C-30-RK-63-gray', '', ( #251 ) ) ;
#251 = MECHANICAL_CONTEXT ( 'NONE', #253, 'mechanical' ) ;
#252 = APPLICATION_PROTOCOL_DEFINITION ( 'international standard', 'config_control_design', 1994, #253 ) ;
#253 = APPLICATION_CONTEXT ( 'configuration controlled 3d designs of mechanical parts and assemblies' ) ;
#254 = CARTESIAN_POINT ( 'NONE',  ( -5.009326287108706300E-010, 2.412507003500041800, 0.0000000000000000000 ) ) ;
#255 = AXIS2_PLACEMENT_3D ( 'NONE', #254, #244, #243 ) ;
#256 = CARTESIAN_POINT ( 'NONE',  ( -5.009326287108706300E-010, -3.614196739989554300, 25.04255675292955300 ) ) ;
#257 = FACE_OUTER_BOUND ( 'NONE', #87, .T. ) ;
#258 = DIRECTION ( 'NONE',  ( 0.0000000000000000000, 0.0000000000000000000, 1.000000000000000000 ) ) ;
#259 = DIRECTION ( 'NONE',  ( -1.000000000000000000, 0.0000000000000000000, 0.0000000000000000000 ) ) ;
#260 = CARTESIAN_POINT ( 'NONE',  ( -5.009326287108706300E-010, -4.999999996500434000, 20.23843879702507600 ) ) ;
#261 = AXIS2_PLACEMENT_3D ( 'NONE', #260, #259, #258 ) ;
#262 = CIRCLE ( 'NONE', #261, 4.999999999999997300 ) ;
#263 = DIRECTION ( 'NONE',  ( 0.0000000000000000000, 0.0000000000000000000, 1.000000000000000000 ) ) ;
#264 = DIRECTION ( 'NONE',  ( 0.0000000000000000000, 1.000000000000000000, 0.0000000000000000000 ) ) ;
#265 = CARTESIAN_POINT ( 'NONE',  ( -5.009326287108706300E-010, -25.99999999650043500, 0.0000000000000000000 ) ) ;
#266 = AXIS2_PLACEMENT_3D ( 'NONE', #265, #264, #263 ) ;
#267 = CIRCLE ( 'NONE', #266, 31.50000000000000000 ) ;
#268 = DIRECTION ( 'NONE',  ( 0.0000000000000000000, 0.0000000000000000000, 1.000000000000000000 ) ) ;
#269 = DIRECTION ( 'NONE',  ( 0.0000000000000000000, 1.000000000000000000, 0.0000000000000000000 ) ) ;
#270 = CARTESIAN_POINT ( 'NONE',  ( 3.499999999499068700, -25.99999999650043500, 0.0000000000000000000 ) ) ;
#271 = AXIS2_PLACEMENT_3D ( 'NONE', #270, #269, #268 ) ;
#272 = CARTESIAN_POINT ( 'NONE',  ( -5.009317714864229600E-010, 3.499566088305261500E-009, -6.999999999999999100 ) ) ;
#273 = CARTESIAN_POINT ( 'NONE',  ( -5.009326287108706300E-010, -14.99999999650043500, 3.500000000000000400 ) ) ;
#274 = CARTESIAN_POINT ( 'NONE',  ( -5.009322000986467900E-010, -25.99999999650043500, -3.500000000000001800 ) ) ;
#275 = DIRECTION ( 'NONE',  ( 0.0000000000000000000, 1.000000000000000000, 0.0000000000000000000 ) ) ;
#276 = VECTOR ( 'NONE', #275, 1000.000000000000000 ) ;
#277 = CARTESIAN_POINT ( 'NONE',  ( -5.009326287108706300E-010, 2.412507003500041800, 7.000000000000000900 ) ) ;
#278 = LINE ( 'NONE', #277, #276 ) ;
#279 = CARTESIAN_POINT ( 'NONE',  ( -5.009298561411277300E-010, 3.499566088305261500E-009, -20.23843879702504700 ) ) ;
#280 = DIRECTION ( 'NONE',  ( 1.224606353814300100E-016, 0.0000000000000000000, -1.000000000000000000 ) ) ;
#281 = DIRECTION ( 'NONE',  ( 1.000000000000000000, 0.0000000000000000000, 1.224606353822377300E-016 ) ) ;
#282 = AXIS2_PLACEMENT_3D ( 'NONE', #289, #281, #280 ) ;
#283 = CIRCLE ( 'NONE', #282, 4.999999999999997300 ) ;
#284 = DIRECTION ( 'NONE',  ( 0.0000000000000000000, 0.0000000000000000000, 1.000000000000000000 ) ) ;
#285 = DIRECTION ( 'NONE',  ( 0.0000000000000000000, 1.000000000000000000, 0.0000000000000000000 ) ) ;
#286 = CARTESIAN_POINT ( 'NONE',  ( -5.009326287108706300E-010, -4.999999996500434000, 0.0000000000000000000 ) ) ;
#287 = AXIS2_PLACEMENT_3D ( 'NONE', #286, #285, #284 ) ;
#288 = TOROIDAL_SURFACE ( 'NONE', #287, 20.23843879702507600, 4.999999999999999100 ) ;
#289 = CARTESIAN_POINT ( 'NONE',  ( -5.009301502987964500E-010, -4.999999996500434000, -20.23843879702507600 ) ) ;
#290 = FACE_BOUND ( 'NONE', #82, .T. ) ;
#291 = FACE_OUTER_BOUND ( 'NONE', #78, .T. ) ;
#292 = DIRECTION ( 'NONE',  ( 0.0000000000000000000, 0.0000000000000000000, 1.000000000000000000 ) ) ;
#293 = DIRECTION ( 'NONE',  ( 0.0000000000000000000, 1.000000000000000000, 0.0000000000000000000 ) ) ;
#294 = CARTESIAN_POINT ( 'NONE',  ( -5.009326287108706300E-010, 2.412507003500041800, 0.0000000000000000000 ) ) ;
#295 = AXIS2_PLACEMENT_3D ( 'NONE', #294, #293, #292 ) ;
#296 = PLANE ( 'NONE',  #271 ) ;
#297 = CYLINDRICAL_SURFACE ( 'NONE', #295, 3.500000000000000900 ) ;
#298 = FACE_OUTER_BOUND ( 'NONE', #75, .T. ) ;
#299 = DIRECTION ( 'NONE',  ( 0.0000000000000000000, 0.0000000000000000000, 1.000000000000000000 ) ) ;
#300 = DIRECTION ( 'NONE',  ( 0.0000000000000000000, 1.000000000000000000, 0.0000000000000000000 ) ) ;
#301 = CARTESIAN_POINT ( 'NONE',  ( -5.009326287108706300E-010, -14.99999999650043500, 0.0000000000000000000 ) ) ;
#302 = AXIS2_PLACEMENT_3D ( 'NONE', #301, #300, #299 ) ;
#303 = CIRCLE ( 'NONE', #302, 3.500000000000000400 ) ;
#304 = DIRECTION ( 'NONE',  ( 0.0000000000000000000, 0.0000000000000000000, -1.000000000000000000 ) ) ;
#305 = DIRECTION ( 'NONE',  ( 0.0000000000000000000, -1.000000000000000000, 0.0000000000000000000 ) ) ;
#306 = CARTESIAN_POINT ( 'NONE',  ( 6.999999999499070000, -14.99999999650043500, 0.0000000000000000000 ) ) ;
#307 = AXIS2_PLACEMENT_3D ( 'NONE', #306, #305, #304 ) ;
#308 = PLANE ( 'NONE',  #307 ) ;
#309 = FACE_OUTER_BOUND ( 'NONE', #71, .T. ) ;
#310 = FACE_BOUND ( 'NONE', #67, .T. ) ;
#311 = DIRECTION ( 'NONE',  ( 0.0000000000000000000, 0.0000000000000000000, 1.000000000000000000 ) ) ;
#312 = DIRECTION ( 'NONE',  ( 0.0000000000000000000, 1.000000000000000000, 0.0000000000000000000 ) ) ;
#313 = CARTESIAN_POINT ( 'NONE',  ( -5.009326287108706300E-010, 3.499566088305261500E-009, 0.0000000000000000000 ) ) ;
#314 = AXIS2_PLACEMENT_3D ( 'NONE', #313, #312, #311 ) ;
#315 = CIRCLE ( 'NONE', #314, 6.999999999999999100 ) ;
#316 = DIRECTION ( 'NONE',  ( 0.0000000000000000000, 0.0000000000000000000, -1.000000000000000000 ) ) ;
#317 = DIRECTION ( 'NONE',  ( 0.0000000000000000000, -1.000000000000000000, 0.0000000000000000000 ) ) ;
#318 = CARTESIAN_POINT ( 'NONE',  ( 20.23843879652411500, 3.499565925674935600E-009, 0.0000000000000000000 ) ) ;
#319 = AXIS2_PLACEMENT_3D ( 'NONE', #318, #317, #316 ) ;
#320 = PLANE ( 'NONE',  #319 ) ;
#321 = FACE_OUTER_BOUND ( 'NONE', #63, .T. ) ;
#322 = FACE_BOUND ( 'NONE', #59, .T. ) ;
#323 = DIRECTION ( 'NONE',  ( 0.0000000000000000000, 0.0000000000000000000, 1.000000000000000000 ) ) ;
#324 = DIRECTION ( 'NONE',  ( 1.000000000000000000, 0.0000000000000000000, 0.0000000000000000000 ) ) ;
#325 = DIRECTION ( 'NONE',  ( 0.0000000000000000000, 0.0000000000000000000, 1.000000000000000000 ) ) ;
#326 = AXIS2_PLACEMENT_3D ( 'NONE', #168, #325, #324 ) ;
#327 = ADVANCED_BREP_SHAPE_REPRESENTATION ( 'C-30-RK-63-gray', ( #99, #326 ), #328 ) ;
#328 =( GEOMETRIC_REPRESENTATION_CONTEXT ( 3 ) GLOBAL_UNCERTAINTY_ASSIGNED_CONTEXT ( ( #222 ) ) GLOBAL_UNIT_ASSIGNED_CONTEXT ( ( #225, #224, #223 ) ) REPRESENTATION_CONTEXT ( 'NONE', 'WORKASPACE' ) );
#329 = DATE_AND_TIME ( #330, #331 ) ;
#330 = CALENDAR_DATE ( 2009, 29, 6 ) ;
#331 = LOCAL_TIME ( 11, 36, 24.00000000000000000, #332 ) ;
#332 = COORDINATED_UNIVERSAL_TIME_OFFSET ( 9, 0, .AHEAD. ) ;
#333 = CC_DESIGN_PERSON_AND_ORGANIZATION_ASSIGNMENT ( #336, #335, ( #337 ) ) ;
#334 = PRODUCT_DEFINITION_FORMATION_WITH_SPECIFIED_SOURCE ( 'ANY', '', #250, .NOT_KNOWN. ) ;
#335 = PERSON_AND_ORGANIZATION_ROLE ( 'classification_officer' ) ;
#336 = PERSON_AND_ORGANIZATION ( #249, #248 ) ;
#337 = SECURITY_CLASSIFICATION ( '', '', #338 ) ;
#338 = SECURITY_CLASSIFICATION_LEVEL ( 'unclassified' ) ;
#339 = CC_DESIGN_PERSON_AND_ORGANIZATION_ASSIGNMENT ( #357, #356, ( #334 ) ) ;
#340 = PERSON_AND_ORGANIZATION ( #249, #248 ) ;
#341 = PERSON_AND_ORGANIZATION_ROLE ( 'creator' ) ;
#342 = PERSON_AND_ORGANIZATION ( #249, #248 ) ;
#343 = CC_DESIGN_APPROVAL ( #352, ( #334 ) ) ;
#344 = APPROVAL_DATE_TIME ( #348, #352 ) ;
#345 = CALENDAR_DATE ( 2009, 29, 6 ) ;
#346 = LOCAL_TIME ( 11, 36, 24.00000000000000000, #349 ) ;
#347 = PERSON_AND_ORGANIZATION_ROLE ( 'creator' ) ;
#348 = DATE_AND_TIME ( #345, #346 ) ;
#349 = COORDINATED_UNIVERSAL_TIME_OFFSET ( 9, 0, .AHEAD. ) ;
#350 = APPROVAL_PERSON_ORGANIZATION ( #354, #352, #351 ) ;
#351 = APPROVAL_ROLE ( '' ) ;
#352 = APPROVAL ( #353, 'UNSPECIFIED' ) ;
#353 = APPROVAL_STATUS ( 'not_yet_approved' ) ;
#354 = PERSON_AND_ORGANIZATION ( #249, #248 ) ;
#355 = COORDINATED_UNIVERSAL_TIME_OFFSET ( 9, 0, .AHEAD. ) ;
#356 = PERSON_AND_ORGANIZATION_ROLE ( 'design_supplier' ) ;
#357 = PERSON_AND_ORGANIZATION ( #249, #248 ) ;
#358 = CC_DESIGN_PERSON_AND_ORGANIZATION_ASSIGNMENT ( #342, #341, ( #334 ) ) ;
#359 = DATE_AND_TIME ( #360, #368 ) ;
#360 = CALENDAR_DATE ( 2009, 29, 6 ) ;
#361 = APPROVAL_PERSON_ORGANIZATION ( #365, #363, #362 ) ;
#362 = APPROVAL_ROLE ( '' ) ;
#363 = APPROVAL ( #364, 'UNSPECIFIED' ) ;
#364 = APPROVAL_STATUS ( 'not_yet_approved' ) ;
#365 = PERSON_AND_ORGANIZATION ( #249, #248 ) ;
#366 = CC_DESIGN_DATE_AND_TIME_ASSIGNMENT ( #329, #367, ( #337 ) ) ;
#367 = DATE_TIME_ROLE ( 'classification_date' ) ;
#368 = LOCAL_TIME ( 11, 36, 24.00000000000000000, #355 ) ;
#369 = SHAPE_DEFINITION_REPRESENTATION ( #370, #327 ) ;
#370 = PRODUCT_DEFINITION_SHAPE ( 'NONE', 'NONE',  #102 ) ;
#371 = PRODUCT_RELATED_PRODUCT_CATEGORY ( 'detail', '', ( #250 ) ) ;
#372 = CC_DESIGN_DATE_AND_TIME_ASSIGNMENT ( #359, #373, ( #102 ) ) ;
#373 = DATE_TIME_ROLE ( 'creation_date' ) ;
#374 = CC_DESIGN_PERSON_AND_ORGANIZATION_ASSIGNMENT ( #340, #347, ( #102 ) ) ;
#375 = CC_DESIGN_SECURITY_CLASSIFICATION ( #337, ( #334 ) ) ;
#376 = CC_DESIGN_APPROVAL ( #363, ( #337 ) ) ;
#377 = APPROVAL_DATE_TIME ( #378, #363 ) ;
#378 = DATE_AND_TIME ( #379, #380 ) ;
#379 = CALENDAR_DATE ( 2009, 29, 6 ) ;
#380 = LOCAL_TIME ( 11, 36, 24.00000000000000000, #381 ) ;
#381 = COORDINATED_UNIVERSAL_TIME_OFFSET ( 9, 0, .AHEAD. ) ;
ENDSEC;
END-ISO-10303-21;
