ISO-10303-21;
HEADER;
FILE_DESCRIPTION (( 'STEP AP203' ),
    '1' );
FILE_NAME ('C-30-RK-63.STEP',
    '2009-06-26T07:24:11',
    ( '11sw' ),
    ( '^LQ»¢®ïÐ' ),
    'SwSTEP 2.0',
    'SolidWorks 2007',
    '' );
FILE_SCHEMA (( 'CONFIG_CONTROL_DESIGN' ));
ENDSEC;

DATA;
#1 = EDGE_LOOP ( 'NONE', ( #10, #12, #17, #19 ) ) ;
#2 = EDGE_CURVE ( 'NONE', #54, #42, #289, .T. ) ;
#3 = VERTEX_POINT ( 'NONE', #285 ) ;
#4 = ADVANCED_FACE ( 'NONE', ( #284 ), #282, .F. ) ;
#5 = VERTEX_POINT ( 'NONE', #278 ) ;
#6 = EDGE_CURVE ( 'NONE', #8, #9, #277, .T. ) ;
#7 = VERTEX_POINT ( 'NONE', #272 ) ;
#8 = VERTEX_POINT ( 'NONE', #271 ) ;
#9 = VERTEX_POINT ( 'NONE', #270 ) ;
#10 = ORIENTED_EDGE ( 'NONE', *, *, #6, .F. ) ;
#11 = VERTEX_POINT ( 'NONE', #269 ) ;
#12 = ORIENTED_EDGE ( 'NONE', *, *, #13, .T. ) ;
#13 = EDGE_CURVE ( 'NONE', #8, #7, #268, .T. ) ;
#14 = EDGE_LOOP ( 'NONE', ( #21, #28, #29, #25 ) ) ;
#15 = EDGE_CURVE ( 'NONE', #7, #11, #264, .T. ) ;
#16 = EDGE_CURVE ( 'NONE', #55, #3, #259, .T. ) ;
#17 = ORIENTED_EDGE ( 'NONE', *, *, #15, .T. ) ;
#18 = ADVANCED_FACE ( 'NONE', ( #254 ), #253, .F. ) ;
#19 = ORIENTED_EDGE ( 'NONE', *, *, #20, .F. ) ;
#20 = EDGE_CURVE ( 'NONE', #9, #11, #252, .T. ) ;
#21 = ORIENTED_EDGE ( 'NONE', *, *, #16, .F. ) ;
#22 = EDGE_CURVE ( 'NONE', #35, #30, #244, .T. ) ;
#23 = EDGE_CURVE ( 'NONE', #55, #24, #239, .T. ) ;
#24 = VERTEX_POINT ( 'NONE', #235 ) ;
#25 = ORIENTED_EDGE ( 'NONE', *, *, #75, .F. ) ;
#26 = ORIENTED_EDGE ( 'NONE', *, *, #39, .T. ) ;
#27 = ORIENTED_EDGE ( 'NONE', *, *, #22, .F. ) ;
#28 = ORIENTED_EDGE ( 'NONE', *, *, #23, .T. ) ;
#29 = ORIENTED_EDGE ( 'NONE', *, *, #48, .T. ) ;
#30 = VERTEX_POINT ( 'NONE', #234 ) ;
#31 = ORIENTED_EDGE ( 'NONE', *, *, #119, .F. ) ;
#32 = EDGE_CURVE ( 'NONE', #54, #56, #232, .T. ) ;
#33 = EDGE_CURVE ( 'NONE', #30, #35, #227, .T. ) ;
#34 = ORIENTED_EDGE ( 'NONE', *, *, #32, .T. ) ;
#35 = VERTEX_POINT ( 'NONE', #223 ) ;
#36 = ADVANCED_FACE ( 'NONE', ( #222 ), #220, .T. ) ;
#37 = EDGE_LOOP ( 'NONE', ( #31, #34, #26, #27 ) ) ;
#38 = ORIENTED_EDGE ( 'NONE', *, *, #33, .F. ) ;
#39 = EDGE_CURVE ( 'NONE', #56, #30, #216, .T. ) ;
#40 = ORIENTED_EDGE ( 'NONE', *, *, #39, .F. ) ;
#41 = EDGE_CURVE ( 'NONE', #46, #42, #211, .T. ) ;
#42 = VERTEX_POINT ( 'NONE', #206 ) ;
#43 = ORIENTED_EDGE ( 'NONE', *, *, #2, .F. ) ;
#44 = ORIENTED_EDGE ( 'NONE', *, *, #41, .T. ) ;
#45 = EDGE_CURVE ( 'NONE', #56, #46, #205, .T. ) ;
#46 = VERTEX_POINT ( 'NONE', #200 ) ;
#47 = EDGE_CURVE ( 'NONE', #56, #54, #201, .T. ) ;
#48 = EDGE_CURVE ( 'NONE', #24, #5, #195, .T. ) ;
#49 = MANIFOLD_SOLID_BREP ( 'NONE', #81 ) ;
#50 = ADVANCED_FACE ( 'NONE', ( #190 ), #189, .T. ) ;
#51 = EDGE_LOOP ( 'NONE', ( #53, #52, #44, #43 ) ) ;
#52 = ORIENTED_EDGE ( 'NONE', *, *, #45, .T. ) ;
#53 = ORIENTED_EDGE ( 'NONE', *, *, #47, .F. ) ;
#54 = VERTEX_POINT ( 'NONE', #184 ) ;
#55 = VERTEX_POINT ( 'NONE', #183 ) ;
#56 = VERTEX_POINT ( 'NONE', #182 ) ;
#57 = ORIENTED_EDGE ( 'NONE', *, *, #119, .T. ) ;
#58 = ORIENTED_EDGE ( 'NONE', *, *, #117, .T. ) ;
#59 = ORIENTED_EDGE ( 'NONE', *, *, #16, .T. ) ;
#60 = ADVANCED_FACE ( 'NONE', ( #181 ), #178, .F. ) ;
#61 = EDGE_LOOP ( 'NONE', ( #62, #63, #65, #66 ) ) ;
#62 = ORIENTED_EDGE ( 'NONE', *, *, #13, .F. ) ;
#63 = ORIENTED_EDGE ( 'NONE', *, *, #64, .F. ) ;
#64 = EDGE_CURVE ( 'NONE', #9, #8, #179, .T. ) ;
#65 = ORIENTED_EDGE ( 'NONE', *, *, #20, .T. ) ;
#66 = ORIENTED_EDGE ( 'NONE', *, *, #69, .T. ) ;
#67 = ADVANCED_FACE ( 'NONE', ( #170, #169 ), #168, .F. ) ;
#68 = EDGE_LOOP ( 'NONE', ( #74, #57, #38, #40 ) ) ;
#69 = EDGE_CURVE ( 'NONE', #11, #7, #109, .T. ) ;
#70 = ORIENTED_EDGE ( 'NONE', *, *, #15, .F. ) ;
#71 = EDGE_LOOP ( 'NONE', ( #58, #59 ) ) ;
#72 = EDGE_CURVE ( 'NONE', #5, #24, #104, .T. ) ;
#73 = EDGE_LOOP ( 'NONE', ( #135, #136 ) ) ;
#74 = ORIENTED_EDGE ( 'NONE', *, *, #47, .T. ) ;
#75 = EDGE_CURVE ( 'NONE', #3, #5, #99, .T. ) ;
#76 = ADVANCED_FACE ( 'NONE', ( #95 ), #93, .T. ) ;
#77 = ORIENTED_EDGE ( 'NONE', *, *, #45, .F. ) ;
#78 = ORIENTED_EDGE ( 'NONE', *, *, #32, .F. ) ;
#79 = ORIENTED_EDGE ( 'NONE', *, *, #2, .T. ) ;
#80 = ORIENTED_EDGE ( 'NONE', *, *, #122, .T. ) ;
#81 = CLOSED_SHELL ( 'NONE', ( #50, #4, #18, #76, #36, #82, #131, #113, #60, #67, #127 ) ) ;
#82 = ADVANCED_FACE ( 'NONE', ( #89, #88 ), #87, .F. ) ;
#83 = ORIENTED_EDGE ( 'NONE', *, *, #48, .F. ) ;
#84 = DIRECTION ( 'NONE',  ( 0.0000000000000000000, -1.000000000000000000, 0.0000000000000000000 ) ) ;
#85 = CARTESIAN_POINT ( 'NONE',  ( 20.23843879652411500, 3.499565925674935600E-009, 0.0000000000000000000 ) ) ;
#86 = AXIS2_PLACEMENT_3D ( 'NONE', #85, #84, #166 ) ;
#87 = PLANE ( 'NONE',  #86 ) ;
#88 = FACE_OUTER_BOUND ( 'NONE', #73, .T. ) ;
#89 = FACE_BOUND ( 'NONE', #118, .T. ) ;
#90 = DIRECTION ( 'NONE',  ( 0.0000000000000000000, 0.0000000000000000000, 1.000000000000000000 ) ) ;
#91 = DIRECTION ( 'NONE',  ( 0.0000000000000000000, 1.000000000000000000, 0.0000000000000000000 ) ) ;
#92 = AXIS2_PLACEMENT_3D ( 'NONE', #94, #91, #90 ) ;
#93 = TOROIDAL_SURFACE ( 'NONE', #92, 20.23843879702507600, 4.999999999999999100 ) ;
#94 = CARTESIAN_POINT ( 'NONE',  ( -5.009326287108706300E-010, -4.999999996500434000, 0.0000000000000000000 ) ) ;
#95 = FACE_OUTER_BOUND ( 'NONE', #68, .T. ) ;
#96 = DIRECTION ( 'NONE',  ( 0.0000000000000000000, 1.000000000000000000, 0.0000000000000000000 ) ) ;
#97 = VECTOR ( 'NONE', #96, 1000.000000000000000 ) ;
#98 = CARTESIAN_POINT ( 'NONE',  ( -5.009326287108706300E-010, 2.412507003500041800, 7.000000000000000900 ) ) ;
#99 = LINE ( 'NONE', #98, #97 ) ;
#100 = DIRECTION ( 'NONE',  ( 0.0000000000000000000, 0.0000000000000000000, 1.000000000000000000 ) ) ;
#101 = DIRECTION ( 'NONE',  ( 0.0000000000000000000, 1.000000000000000000, 0.0000000000000000000 ) ) ;
#102 = CARTESIAN_POINT ( 'NONE',  ( -5.009326287108706300E-010, 3.499566088305261500E-009, 0.0000000000000000000 ) ) ;
#103 = AXIS2_PLACEMENT_3D ( 'NONE', #102, #101, #100 ) ;
#104 = CIRCLE ( 'NONE', #103, 6.999999999999999100 ) ;
#105 = DIRECTION ( 'NONE',  ( 0.0000000000000000000, 0.0000000000000000000, 1.000000000000000000 ) ) ;
#106 = DIRECTION ( 'NONE',  ( 0.0000000000000000000, 1.000000000000000000, 0.0000000000000000000 ) ) ;
#107 = CARTESIAN_POINT ( 'NONE',  ( -5.009326287108706300E-010, -14.99999999650043500, 0.0000000000000000000 ) ) ;
#108 = AXIS2_PLACEMENT_3D ( 'NONE', #107, #106, #105 ) ;
#109 = CIRCLE ( 'NONE', #108, 3.500000000000000400 ) ;
#110 = DIRECTION ( 'NONE',  ( 0.0000000000000000000, 0.0000000000000000000, 1.000000000000000000 ) ) ;
#111 = DIRECTION ( 'NONE',  ( 0.0000000000000000000, 1.000000000000000000, 0.0000000000000000000 ) ) ;
#112 = AXIS2_PLACEMENT_3D ( 'NONE', #167, #111, #110 ) ;
#113 = ADVANCED_FACE ( 'NONE', ( #165, #164 ), #163, .F. ) ;
#114 = ORIENTED_EDGE ( 'NONE', *, *, #69, .F. ) ;
#115 = ORIENTED_EDGE ( 'NONE', *, *, #72, .F. ) ;
#116 = ORIENTED_EDGE ( 'NONE', *, *, #117, .F. ) ;
#117 = EDGE_CURVE ( 'NONE', #3, #55, #158, .T. ) ;
#118 = EDGE_LOOP ( 'NONE', ( #115, #83 ) ) ;
#119 = EDGE_CURVE ( 'NONE', #54, #35, #153, .T. ) ;
#120 = EDGE_LOOP ( 'NONE', ( #121, #123 ) ) ;
#121 = ORIENTED_EDGE ( 'NONE', *, *, #122, .F. ) ;
#122 = EDGE_CURVE ( 'NONE', #42, #46, #148, .T. ) ;
#123 = ORIENTED_EDGE ( 'NONE', *, *, #41, .F. ) ;
#124 = EDGE_LOOP ( 'NONE', ( #125, #126 ) ) ;
#125 = ORIENTED_EDGE ( 'NONE', *, *, #64, .T. ) ;
#126 = ORIENTED_EDGE ( 'NONE', *, *, #6, .T. ) ;
#127 = ADVANCED_FACE ( 'NONE', ( #143 ), #142, .T. ) ;
#128 = EDGE_LOOP ( 'NONE', ( #77, #78, #79, #80 ) ) ;
#129 = EDGE_LOOP ( 'NONE', ( #114, #70 ) ) ;
#130 = EDGE_LOOP ( 'NONE', ( #132, #116, #133, #134 ) ) ;
#131 = ADVANCED_FACE ( 'NONE', ( #137 ), #291, .F. ) ;
#132 = ORIENTED_EDGE ( 'NONE', *, *, #23, .F. ) ;
#133 = ORIENTED_EDGE ( 'NONE', *, *, #75, .T. ) ;
#134 = ORIENTED_EDGE ( 'NONE', *, *, #72, .T. ) ;
#135 = ORIENTED_EDGE ( 'NONE', *, *, #33, .T. ) ;
#136 = ORIENTED_EDGE ( 'NONE', *, *, #22, .T. ) ;
#137 = FACE_OUTER_BOUND ( 'NONE', #130, .T. ) ;
#138 = DIRECTION ( 'NONE',  ( 0.0000000000000000000, 0.0000000000000000000, -1.000000000000000000 ) ) ;
#139 = DIRECTION ( 'NONE',  ( 0.0000000000000000000, -1.000000000000000000, 0.0000000000000000000 ) ) ;
#140 = CARTESIAN_POINT ( 'NONE',  ( -5.009326287108706300E-010, -25.99999999650043500, 0.0000000000000000000 ) ) ;
#141 = AXIS2_PLACEMENT_3D ( 'NONE', #140, #139, #138 ) ;
#142 = CONICAL_SURFACE ( 'NONE', #141, 31.50000000000000000, 0.2808377246212029300 ) ;
#143 = FACE_OUTER_BOUND ( 'NONE', #128, .T. ) ;
#144 = DIRECTION ( 'NONE',  ( 0.0000000000000000000, 0.0000000000000000000, 1.000000000000000000 ) ) ;
#145 = DIRECTION ( 'NONE',  ( 0.0000000000000000000, 1.000000000000000000, 0.0000000000000000000 ) ) ;
#146 = CARTESIAN_POINT ( 'NONE',  ( -5.009326287108706300E-010, -25.99999999650043500, 0.0000000000000000000 ) ) ;
#147 = AXIS2_PLACEMENT_3D ( 'NONE', #146, #145, #144 ) ;
#148 = CIRCLE ( 'NONE', #147, 31.50000000000000000 ) ;
#149 = DIRECTION ( 'NONE',  ( 1.224606353814300100E-016, 0.0000000000000000000, -1.000000000000000000 ) ) ;
#150 = DIRECTION ( 'NONE',  ( 1.000000000000000000, 0.0000000000000000000, 1.224606353822377300E-016 ) ) ;
#151 = CARTESIAN_POINT ( 'NONE',  ( -5.009301502987964500E-010, -4.999999996500434000, -20.23843879702507600 ) ) ;
#152 = AXIS2_PLACEMENT_3D ( 'NONE', #151, #150, #149 ) ;
#153 = CIRCLE ( 'NONE', #152, 4.999999999999997300 ) ;
#154 = DIRECTION ( 'NONE',  ( 0.0000000000000000000, 0.0000000000000000000, 1.000000000000000000 ) ) ;
#155 = DIRECTION ( 'NONE',  ( 0.0000000000000000000, 1.000000000000000000, 0.0000000000000000000 ) ) ;
#156 = CARTESIAN_POINT ( 'NONE',  ( -5.009326287108706300E-010, -14.99999999650043500, 0.0000000000000000000 ) ) ;
#157 = AXIS2_PLACEMENT_3D ( 'NONE', #156, #155, #154 ) ;
#158 = CIRCLE ( 'NONE', #157, 7.000000000000002700 ) ;
#159 = DIRECTION ( 'NONE',  ( 0.0000000000000000000, 0.0000000000000000000, -1.000000000000000000 ) ) ;
#160 = DIRECTION ( 'NONE',  ( 0.0000000000000000000, -1.000000000000000000, 0.0000000000000000000 ) ) ;
#161 = CARTESIAN_POINT ( 'NONE',  ( 6.999999999499070000, -14.99999999650043500, 0.0000000000000000000 ) ) ;
#162 = AXIS2_PLACEMENT_3D ( 'NONE', #161, #160, #159 ) ;
#163 = PLANE ( 'NONE',  #162 ) ;
#164 = FACE_OUTER_BOUND ( 'NONE', #71, .T. ) ;
#165 = FACE_BOUND ( 'NONE', #129, .T. ) ;
#166 = DIRECTION ( 'NONE',  ( 0.0000000000000000000, 0.0000000000000000000, -1.000000000000000000 ) ) ;
#167 = CARTESIAN_POINT ( 'NONE',  ( 3.499999999499068700, -25.99999999650043500, 0.0000000000000000000 ) ) ;
#168 = PLANE ( 'NONE',  #112 ) ;
#169 = FACE_BOUND ( 'NONE', #124, .T. ) ;
#170 = FACE_OUTER_BOUND ( 'NONE', #120, .T. ) ;
#171 = DIRECTION ( 'NONE',  ( 0.0000000000000000000, 0.0000000000000000000, 1.000000000000000000 ) ) ;
#172 = DIRECTION ( 'NONE',  ( 0.0000000000000000000, 1.000000000000000000, 0.0000000000000000000 ) ) ;
#173 = CARTESIAN_POINT ( 'NONE',  ( -5.009326287108706300E-010, -25.99999999650043500, 0.0000000000000000000 ) ) ;
#174 = AXIS2_PLACEMENT_3D ( 'NONE', #173, #172, #171 ) ;
#175 = DIRECTION ( 'NONE',  ( 0.0000000000000000000, 0.0000000000000000000, 1.000000000000000000 ) ) ;
#176 = DIRECTION ( 'NONE',  ( 0.0000000000000000000, 1.000000000000000000, 0.0000000000000000000 ) ) ;
#177 = AXIS2_PLACEMENT_3D ( 'NONE', #180, #176, #175 ) ;
#178 = CYLINDRICAL_SURFACE ( 'NONE', #177, 3.500000000000000900 ) ;
#179 = CIRCLE ( 'NONE', #174, 3.500000000000001300 ) ;
#180 = CARTESIAN_POINT ( 'NONE',  ( -5.009326287108706300E-010, 2.412507003500041800, 0.0000000000000000000 ) ) ;
#181 = FACE_OUTER_BOUND ( 'NONE', #61, .T. ) ;
#182 = CARTESIAN_POINT ( 'NONE',  ( -5.009326287108706300E-010, -3.614196739989554300, 25.04255675292955300 ) ) ;
#183 = CARTESIAN_POINT ( 'NONE',  ( -5.009317714864229600E-010, -14.99999999650043500, -7.000000000000002700 ) ) ;
#184 = CARTESIAN_POINT ( 'NONE',  ( -5.009295619834591200E-010, -3.614196739989554300, -25.04255675292955300 ) ) ;
#185 = DIRECTION ( 'NONE',  ( 0.0000000000000000000, 0.0000000000000000000, -1.000000000000000000 ) ) ;
#186 = DIRECTION ( 'NONE',  ( 0.0000000000000000000, -1.000000000000000000, 0.0000000000000000000 ) ) ;
#187 = CARTESIAN_POINT ( 'NONE',  ( -5.009326287108706300E-010, -25.99999999650043500, 0.0000000000000000000 ) ) ;
#188 = AXIS2_PLACEMENT_3D ( 'NONE', #187, #186, #185 ) ;
#189 = CONICAL_SURFACE ( 'NONE', #188, 31.50000000000000000, 0.2808377246212029300 ) ;
#190 = FACE_OUTER_BOUND ( 'NONE', #51, .T. ) ;
#191 = DIRECTION ( 'NONE',  ( 0.0000000000000000000, 0.0000000000000000000, 1.000000000000000000 ) ) ;
#192 = DIRECTION ( 'NONE',  ( 0.0000000000000000000, 1.000000000000000000, 0.0000000000000000000 ) ) ;
#193 = CARTESIAN_POINT ( 'NONE',  ( -5.009326287108706300E-010, 3.499566088305261500E-009, 0.0000000000000000000 ) ) ;
#194 = AXIS2_PLACEMENT_3D ( 'NONE', #193, #192, #191 ) ;
#195 = CIRCLE ( 'NONE', #194, 6.999999999999999100 ) ;
#196 = DIRECTION ( 'NONE',  ( 0.0000000000000000000, 0.0000000000000000000, 1.000000000000000000 ) ) ;
#197 = DIRECTION ( 'NONE',  ( 0.0000000000000000000, 1.000000000000000000, 0.0000000000000000000 ) ) ;
#198 = CARTESIAN_POINT ( 'NONE',  ( -5.009326287108706300E-010, -3.614196739989554300, 0.0000000000000000000 ) ) ;
#199 = AXIS2_PLACEMENT_3D ( 'NONE', #198, #197, #196 ) ;
#200 = CARTESIAN_POINT ( 'NONE',  ( -5.009287712008560900E-010, -25.99999999650043500, 31.50000000000000000 ) ) ;
#201 = CIRCLE ( 'NONE', #199, 25.04255675292955300 ) ;
#202 = DIRECTION ( 'NONE',  ( 3.394126946141994200E-017, -0.9608235911808944400, 0.2771606513021811500 ) ) ;
#203 = VECTOR ( 'NONE', #202, 1000.000000000000100 ) ;
#204 = CARTESIAN_POINT ( 'NONE',  ( -5.009287712008560900E-010, -25.99999999650043500, 31.50000000000000000 ) ) ;
#205 = LINE ( 'NONE', #204, #203 ) ;
#206 = CARTESIAN_POINT ( 'NONE',  ( -5.009326287108706300E-010, -25.99999999650043500, -31.50000000000000000 ) ) ;
#207 = DIRECTION ( 'NONE',  ( 0.0000000000000000000, 0.0000000000000000000, 1.000000000000000000 ) ) ;
#208 = DIRECTION ( 'NONE',  ( 0.0000000000000000000, 1.000000000000000000, 0.0000000000000000000 ) ) ;
#209 = CARTESIAN_POINT ( 'NONE',  ( -5.009326287108706300E-010, -25.99999999650043500, 0.0000000000000000000 ) ) ;
#210 = AXIS2_PLACEMENT_3D ( 'NONE', #209, #208, #207 ) ;
#211 = CIRCLE ( 'NONE', #210, 31.50000000000000000 ) ;
#212 = DIRECTION ( 'NONE',  ( 0.0000000000000000000, 0.0000000000000000000, 1.000000000000000000 ) ) ;
#213 = DIRECTION ( 'NONE',  ( -1.000000000000000000, 0.0000000000000000000, 0.0000000000000000000 ) ) ;
#214 = CARTESIAN_POINT ( 'NONE',  ( -5.009326287108706300E-010, -4.999999996500434000, 20.23843879702507600 ) ) ;
#215 = AXIS2_PLACEMENT_3D ( 'NONE', #214, #213, #212 ) ;
#216 = CIRCLE ( 'NONE', #215, 4.999999999999997300 ) ;
#217 = DIRECTION ( 'NONE',  ( 0.0000000000000000000, 0.0000000000000000000, 1.000000000000000000 ) ) ;
#218 = DIRECTION ( 'NONE',  ( 0.0000000000000000000, 1.000000000000000000, 0.0000000000000000000 ) ) ;
#219 = AXIS2_PLACEMENT_3D ( 'NONE', #221, #218, #217 ) ;
#220 = TOROIDAL_SURFACE ( 'NONE', #219, 20.23843879702507600, 4.999999999999999100 ) ;
#221 = CARTESIAN_POINT ( 'NONE',  ( -5.009326287108706300E-010, -4.999999996500434000, 0.0000000000000000000 ) ) ;
#222 = FACE_OUTER_BOUND ( 'NONE', #37, .T. ) ;
#223 = CARTESIAN_POINT ( 'NONE',  ( -5.009298561411277300E-010, 3.499566088305261500E-009, -20.23843879702504700 ) ) ;
#224 = DIRECTION ( 'NONE',  ( 0.0000000000000000000, 0.0000000000000000000, 1.000000000000000000 ) ) ;
#225 = DIRECTION ( 'NONE',  ( 0.0000000000000000000, 1.000000000000000000, 0.0000000000000000000 ) ) ;
#226 = AXIS2_PLACEMENT_3D ( 'NONE', #233, #225, #224 ) ;
#227 = CIRCLE ( 'NONE', #226, 20.23843879702504700 ) ;
#228 = DIRECTION ( 'NONE',  ( 0.0000000000000000000, 0.0000000000000000000, 1.000000000000000000 ) ) ;
#229 = DIRECTION ( 'NONE',  ( 0.0000000000000000000, 1.000000000000000000, 0.0000000000000000000 ) ) ;
#230 = CARTESIAN_POINT ( 'NONE',  ( -5.009326287108706300E-010, -3.614196739989554300, 0.0000000000000000000 ) ) ;
#231 = AXIS2_PLACEMENT_3D ( 'NONE', #230, #229, #228 ) ;
#232 = CIRCLE ( 'NONE', #231, 25.04255675292955300 ) ;
#233 = CARTESIAN_POINT ( 'NONE',  ( -5.009326287108706300E-010, 3.499566088305261500E-009, 0.0000000000000000000 ) ) ;
#234 = CARTESIAN_POINT ( 'NONE',  ( -5.009326287108706300E-010, 3.499566088305261500E-009, 20.23843879702504700 ) ) ;
#235 = CARTESIAN_POINT ( 'NONE',  ( -5.009317714864229600E-010, 3.499566088305261500E-009, -6.999999999999999100 ) ) ;
#236 = DIRECTION ( 'NONE',  ( 0.0000000000000000000, 1.000000000000000000, 0.0000000000000000000 ) ) ;
#237 = VECTOR ( 'NONE', #236, 1000.000000000000000 ) ;
#238 = CARTESIAN_POINT ( 'NONE',  ( -5.009317714864229600E-010, 2.412507003500041800, -7.000000000000000900 ) ) ;
#239 = LINE ( 'NONE', #238, #237 ) ;
#240 = DIRECTION ( 'NONE',  ( 0.0000000000000000000, 0.0000000000000000000, 1.000000000000000000 ) ) ;
#241 = DIRECTION ( 'NONE',  ( 0.0000000000000000000, 1.000000000000000000, 0.0000000000000000000 ) ) ;
#242 = CARTESIAN_POINT ( 'NONE',  ( -5.009326287108706300E-010, 3.499566088305261500E-009, 0.0000000000000000000 ) ) ;
#243 = AXIS2_PLACEMENT_3D ( 'NONE', #242, #241, #240 ) ;
#244 = CIRCLE ( 'NONE', #243, 20.23843879702504700 ) ;
#245 = DIRECTION ( 'NONE',  ( 0.0000000000000000000, 1.000000000000000000, 0.0000000000000000000 ) ) ;
#246 = VECTOR ( 'NONE', #245, 1000.000000000000000 ) ;
#247 = CARTESIAN_POINT ( 'NONE',  ( -5.009326287108706300E-010, 2.412507003500041800, 3.500000000000000900 ) ) ;
#248 = DIRECTION ( 'NONE',  ( 0.0000000000000000000, 0.0000000000000000000, 1.000000000000000000 ) ) ;
#249 = DIRECTION ( 'NONE',  ( 0.0000000000000000000, 1.000000000000000000, 0.0000000000000000000 ) ) ;
#250 = CARTESIAN_POINT ( 'NONE',  ( -5.009326287108706300E-010, 2.412507003500041800, 0.0000000000000000000 ) ) ;
#251 = AXIS2_PLACEMENT_3D ( 'NONE', #250, #249, #248 ) ;
#252 = LINE ( 'NONE', #247, #246 ) ;
#253 = CYLINDRICAL_SURFACE ( 'NONE', #251, 7.000000000000000900 ) ;
#254 = FACE_OUTER_BOUND ( 'NONE', #14, .T. ) ;
#255 = DIRECTION ( 'NONE',  ( 0.0000000000000000000, 0.0000000000000000000, 1.000000000000000000 ) ) ;
#256 = DIRECTION ( 'NONE',  ( 0.0000000000000000000, 1.000000000000000000, 0.0000000000000000000 ) ) ;
#257 = CARTESIAN_POINT ( 'NONE',  ( -5.009326287108706300E-010, -14.99999999650043500, 0.0000000000000000000 ) ) ;
#258 = AXIS2_PLACEMENT_3D ( 'NONE', #257, #256, #255 ) ;
#259 = CIRCLE ( 'NONE', #258, 7.000000000000002700 ) ;
#260 = DIRECTION ( 'NONE',  ( 0.0000000000000000000, 0.0000000000000000000, 1.000000000000000000 ) ) ;
#261 = DIRECTION ( 'NONE',  ( 0.0000000000000000000, 1.000000000000000000, 0.0000000000000000000 ) ) ;
#262 = CARTESIAN_POINT ( 'NONE',  ( -5.009326287108706300E-010, -14.99999999650043500, 0.0000000000000000000 ) ) ;
#263 = AXIS2_PLACEMENT_3D ( 'NONE', #262, #261, #260 ) ;
#264 = CIRCLE ( 'NONE', #263, 3.500000000000000400 ) ;
#265 = DIRECTION ( 'NONE',  ( 0.0000000000000000000, 1.000000000000000000, 0.0000000000000000000 ) ) ;
#266 = VECTOR ( 'NONE', #265, 1000.000000000000000 ) ;
#267 = CARTESIAN_POINT ( 'NONE',  ( -5.009322000986467900E-010, 2.412507003500041800, -3.500000000000000900 ) ) ;
#268 = LINE ( 'NONE', #267, #266 ) ;
#269 = CARTESIAN_POINT ( 'NONE',  ( -5.009326287108706300E-010, -14.99999999650043500, 3.500000000000000400 ) ) ;
#270 = CARTESIAN_POINT ( 'NONE',  ( -5.009326287108706300E-010, -25.99999999650043500, 3.500000000000001300 ) ) ;
#271 = CARTESIAN_POINT ( 'NONE',  ( -5.009322000986467900E-010, -25.99999999650043500, -3.500000000000001300 ) ) ;
#272 = CARTESIAN_POINT ( 'NONE',  ( -5.009322000986467900E-010, -14.99999999650043500, -3.500000000000000400 ) ) ;
#273 = DIRECTION ( 'NONE',  ( 0.0000000000000000000, 0.0000000000000000000, 1.000000000000000000 ) ) ;
#274 = DIRECTION ( 'NONE',  ( 0.0000000000000000000, 1.000000000000000000, 0.0000000000000000000 ) ) ;
#275 = CARTESIAN_POINT ( 'NONE',  ( -5.009326287108706300E-010, -25.99999999650043500, 0.0000000000000000000 ) ) ;
#276 = AXIS2_PLACEMENT_3D ( 'NONE', #275, #274, #273 ) ;
#277 = CIRCLE ( 'NONE', #276, 3.500000000000001300 ) ;
#278 = CARTESIAN_POINT ( 'NONE',  ( -5.009326287108706300E-010, 3.499566088305261500E-009, 6.999999999999999100 ) ) ;
#279 = DIRECTION ( 'NONE',  ( 0.0000000000000000000, 0.0000000000000000000, 1.000000000000000000 ) ) ;
#280 = DIRECTION ( 'NONE',  ( 0.0000000000000000000, 1.000000000000000000, 0.0000000000000000000 ) ) ;
#281 = AXIS2_PLACEMENT_3D ( 'NONE', #283, #280, #279 ) ;
#282 = CYLINDRICAL_SURFACE ( 'NONE', #281, 3.500000000000000900 ) ;
#283 = CARTESIAN_POINT ( 'NONE',  ( -5.009326287108706300E-010, 2.412507003500041800, 0.0000000000000000000 ) ) ;
#284 = FACE_OUTER_BOUND ( 'NONE', #1, .T. ) ;
#285 = CARTESIAN_POINT ( 'NONE',  ( -5.009326287108706300E-010, -14.99999999650043500, 7.000000000000002700 ) ) ;
#286 = DIRECTION ( 'NONE',  ( 0.0000000000000000000, -0.9608235911808944400, -0.2771606513021811500 ) ) ;
#287 = VECTOR ( 'NONE', #286, 1000.000000000000100 ) ;
#288 = CARTESIAN_POINT ( 'NONE',  ( -5.009326287108706300E-010, -25.99999999650043500, -31.50000000000000000 ) ) ;
#289 = LINE ( 'NONE', #288, #287 ) ;
#290 = CARTESIAN_POINT ( 'NONE',  ( -5.009326287108706300E-010, 2.412507003500041800, 0.0000000000000000000 ) ) ;
#291 = CYLINDRICAL_SURFACE ( 'NONE', #296, 7.000000000000000900 ) ;
#292 =( LENGTH_UNIT ( ) NAMED_UNIT ( * ) SI_UNIT ( .MILLI., .METRE. ) );
#293 = DIRECTION ( 'NONE',  ( 0.0000000000000000000, 0.0000000000000000000, 1.000000000000000000 ) ) ;
#294 = DIRECTION ( 'NONE',  ( 0.0000000000000000000, 0.0000000000000000000, 1.000000000000000000 ) ) ;
#295 = DIRECTION ( 'NONE',  ( 0.0000000000000000000, 1.000000000000000000, 0.0000000000000000000 ) ) ;
#296 = AXIS2_PLACEMENT_3D ( 'NONE', #290, #295, #294 ) ;
#297 = PRODUCT_DEFINITION_SHAPE ( 'NONE', 'NONE',  #360 ) ;
#298 = PRODUCT_RELATED_PRODUCT_CATEGORY ( 'detail', '', ( #369 ) ) ;
#299 = CC_DESIGN_SECURITY_CLASSIFICATION ( #320, ( #339 ) ) ;
#300 = CC_DESIGN_APPROVAL ( #308, ( #320 ) ) ;
#301 = APPROVAL_DATE_TIME ( #302, #308 ) ;
#302 = DATE_AND_TIME ( #303, #304 ) ;
#303 = CALENDAR_DATE ( 2009, 26, 6 ) ;
#304 = LOCAL_TIME ( 16, 24, 11.00000000000000000, #305 ) ;
#305 = COORDINATED_UNIVERSAL_TIME_OFFSET ( 9, 0, .AHEAD. ) ;
#306 = APPROVAL_PERSON_ORGANIZATION ( #310, #308, #307 ) ;
#307 = APPROVAL_ROLE ( '' ) ;
#308 = APPROVAL ( #309, 'UNSPECIFIED' ) ;
#309 = APPROVAL_STATUS ( 'not_yet_approved' ) ;
#310 = PERSON_AND_ORGANIZATION ( #368, #367 ) ;
#311 = CC_DESIGN_DATE_AND_TIME_ASSIGNMENT ( #313, #312, ( #320 ) ) ;
#312 = DATE_TIME_ROLE ( 'classification_date' ) ;
#313 = DATE_AND_TIME ( #314, #315 ) ;
#314 = CALENDAR_DATE ( 2009, 26, 6 ) ;
#315 = LOCAL_TIME ( 16, 24, 11.00000000000000000, #316 ) ;
#316 = COORDINATED_UNIVERSAL_TIME_OFFSET ( 9, 0, .AHEAD. ) ;
#317 = CC_DESIGN_PERSON_AND_ORGANIZATION_ASSIGNMENT ( #319, #318, ( #320 ) ) ;
#318 = PERSON_AND_ORGANIZATION_ROLE ( 'classification_officer' ) ;
#319 = PERSON_AND_ORGANIZATION ( #368, #367 ) ;
#320 = SECURITY_CLASSIFICATION ( '', '', #321 ) ;
#321 = SECURITY_CLASSIFICATION_LEVEL ( 'unclassified' ) ;
#322 = CC_DESIGN_PERSON_AND_ORGANIZATION_ASSIGNMENT ( #324, #323, ( #339 ) ) ;
#323 = PERSON_AND_ORGANIZATION_ROLE ( 'design_supplier' ) ;
#324 = PERSON_AND_ORGANIZATION ( #368, #367 ) ;
#325 = CC_DESIGN_PERSON_AND_ORGANIZATION_ASSIGNMENT ( #327, #326, ( #339 ) ) ;
#326 = PERSON_AND_ORGANIZATION_ROLE ( 'creator' ) ;
#327 = PERSON_AND_ORGANIZATION ( #368, #367 ) ;
#328 = CC_DESIGN_APPROVAL ( #336, ( #339 ) ) ;
#329 = APPROVAL_DATE_TIME ( #330, #336 ) ;
#330 = DATE_AND_TIME ( #331, #332 ) ;
#331 = CALENDAR_DATE ( 2009, 26, 6 ) ;
#332 = LOCAL_TIME ( 16, 24, 11.00000000000000000, #333 ) ;
#333 = COORDINATED_UNIVERSAL_TIME_OFFSET ( 9, 0, .AHEAD. ) ;
#334 = APPROVAL_PERSON_ORGANIZATION ( #338, #336, #335 ) ;
#335 = APPROVAL_ROLE ( '' ) ;
#336 = APPROVAL ( #337, 'UNSPECIFIED' ) ;
#337 = APPROVAL_STATUS ( 'not_yet_approved' ) ;
#338 = PERSON_AND_ORGANIZATION ( #368, #367 ) ;
#339 = PRODUCT_DEFINITION_FORMATION_WITH_SPECIFIED_SOURCE ( 'ANY', '', #369, .NOT_KNOWN. ) ;
#340 = CC_DESIGN_DATE_AND_TIME_ASSIGNMENT ( #342, #341, ( #360 ) ) ;
#341 = DATE_TIME_ROLE ( 'creation_date' ) ;
#342 = DATE_AND_TIME ( #343, #344 ) ;
#343 = CALENDAR_DATE ( 2009, 26, 6 ) ;
#344 = LOCAL_TIME ( 16, 24, 11.00000000000000000, #345 ) ;
#345 = COORDINATED_UNIVERSAL_TIME_OFFSET ( 9, 0, .AHEAD. ) ;
#346 = CC_DESIGN_PERSON_AND_ORGANIZATION_ASSIGNMENT ( #348, #347, ( #360 ) ) ;
#347 = PERSON_AND_ORGANIZATION_ROLE ( 'creator' ) ;
#348 = PERSON_AND_ORGANIZATION ( #368, #367 ) ;
#349 = CC_DESIGN_APPROVAL ( #357, ( #360 ) ) ;
#350 = APPROVAL_DATE_TIME ( #351, #357 ) ;
#351 = DATE_AND_TIME ( #352, #353 ) ;
#352 = CALENDAR_DATE ( 2009, 26, 6 ) ;
#353 = LOCAL_TIME ( 16, 24, 11.00000000000000000, #354 ) ;
#354 = COORDINATED_UNIVERSAL_TIME_OFFSET ( 9, 0, .AHEAD. ) ;
#355 = APPROVAL_PERSON_ORGANIZATION ( #359, #357, #356 ) ;
#356 = APPROVAL_ROLE ( '' ) ;
#357 = APPROVAL ( #358, 'UNSPECIFIED' ) ;
#358 = APPROVAL_STATUS ( 'not_yet_approved' ) ;
#359 = PERSON_AND_ORGANIZATION ( #368, #367 ) ;
#360 = PRODUCT_DEFINITION ( 'UNKNOWN', '', #339, #361 ) ;
#361 = DESIGN_CONTEXT ( 'detailed design', #363, 'design' ) ;
#362 = APPLICATION_PROTOCOL_DEFINITION ( 'international standard', 'config_control_design', 1994, #363 ) ;
#363 = APPLICATION_CONTEXT ( 'configuration controlled 3d designs of mechanical parts and assemblies' ) ;
#364 = CC_DESIGN_PERSON_AND_ORGANIZATION_ASSIGNMENT ( #366, #365, ( #369 ) ) ;
#365 = PERSON_AND_ORGANIZATION_ROLE ( 'design_owner' ) ;
#366 = PERSON_AND_ORGANIZATION ( #368, #367 ) ;
#367 = ORGANIZATION ( 'UNSPECIFIED', 'UNSPECIFIED', '' ) ;
#368 = PERSON ( 'UNSPECIFIED', 'UNSPECIFIED', 'UNSPECIFIED', ('UNSPECIFIED'), ('UNSPECIFIED'), ('UNSPECIFIED') ) ;
#369 = PRODUCT ( 'C-30-RK-63', 'C-30-RK-63', '', ( #370 ) ) ;
#370 = MECHANICAL_CONTEXT ( 'NONE', #372, 'mechanical' ) ;
#371 = APPLICATION_PROTOCOL_DEFINITION ( 'international standard', 'config_control_design', 1994, #372 ) ;
#372 = APPLICATION_CONTEXT ( 'configuration controlled 3d designs of mechanical parts and assemblies' ) ;
#373 = DIRECTION ( 'NONE',  ( 1.000000000000000000, 0.0000000000000000000, 0.0000000000000000000 ) ) ;
#374 = CARTESIAN_POINT ( 'NONE',  ( 0.0000000000000000000, 0.0000000000000000000, 0.0000000000000000000 ) ) ;
#375 = AXIS2_PLACEMENT_3D ( 'NONE', #374, #293, #373 ) ;
#376 = SHAPE_DEFINITION_REPRESENTATION ( #297, #377 ) ;
#377 = ADVANCED_BREP_SHAPE_REPRESENTATION ( 'C-30-RK-63', ( #49, #375 ), #378 ) ;
#378 =( GEOMETRIC_REPRESENTATION_CONTEXT ( 3 ) GLOBAL_UNCERTAINTY_ASSIGNED_CONTEXT ( ( #379 ) ) GLOBAL_UNIT_ASSIGNED_CONTEXT ( ( #292, #381, #380 ) ) REPRESENTATION_CONTEXT ( 'NONE', 'WORKASPACE' ) );
#379 = UNCERTAINTY_MEASURE_WITH_UNIT (LENGTH_MEASURE( 1.000000000000000100E-005 ), #292, 'distance_accuracy_value', 'NONE');
#380 =( NAMED_UNIT ( * ) SI_UNIT ( $, .STERADIAN. ) SOLID_ANGLE_UNIT ( ) );
#381 =( NAMED_UNIT ( * ) PLANE_ANGLE_UNIT ( ) SI_UNIT ( $, .RADIAN. ) );
ENDSEC;
END-ISO-10303-21;
