ISO-10303-21;
HEADER;
FILE_DESCRIPTION (( 'STEP AP203' ),
    '1' );
FILE_NAME ('C-30-RK-45-ÃÞÌ«ÙÄ.STEP',
    '2009-06-29T02:32:29',
    ( '11sw' ),
    ( '^LQ»¢®ïÐ' ),
    'SwSTEP 2.0',
    'SolidWorks 2007',
    '' );
FILE_SCHEMA (( 'CONFIG_CONTROL_DESIGN' ));
ENDSEC;

DATA;
#1 = EDGE_LOOP ( 'NONE', ( #33, #5 ) ) ;
#2 = ORIENTED_EDGE ( 'NONE', *, *, #159, .F. ) ;
#3 = ORIENTED_EDGE ( 'NONE', *, *, #156, .F. ) ;
#4 = ADVANCED_FACE ( 'NONE', ( #108 ), #104, .F. ) ;
#5 = ORIENTED_EDGE ( 'NONE', *, *, #36, .T. ) ;
#6 = ORIENTED_EDGE ( 'NONE', *, *, #13, .F. ) ;
#7 = EDGE_LOOP ( 'NONE', ( #3, #6, #10, #12 ) ) ;
#8 = ADVANCED_FACE ( 'NONE', ( #106, #105 ), #68, .F. ) ;
#9 = ORIENTED_EDGE ( 'NONE', *, *, #13, .T. ) ;
#10 = ORIENTED_EDGE ( 'NONE', *, *, #110, .T. ) ;
#11 = EDGE_LOOP ( 'NONE', ( #15, #17 ) ) ;
#12 = ORIENTED_EDGE ( 'NONE', *, *, #40, .T. ) ;
#13 = EDGE_CURVE ( 'NONE', #55, #54, #62, .T. ) ;
#14 = EDGE_CURVE ( 'NONE', #194, #162, #56, .T. ) ;
#15 = ORIENTED_EDGE ( 'NONE', *, *, #14, .F. ) ;
#16 = EDGE_LOOP ( 'NONE', ( #9, #20 ) ) ;
#17 = ORIENTED_EDGE ( 'NONE', *, *, #190, .F. ) ;
#18 = EDGE_LOOP ( 'NONE', ( #48, #49, #97, #193 ) ) ;
#19 = ADVANCED_FACE ( 'NONE', ( #57 ), #149, .F. ) ;
#20 = ORIENTED_EDGE ( 'NONE', *, *, #53, .T. ) ;
#21 = EDGE_LOOP ( 'NONE', ( #22, #46, #28, #29 ) ) ;
#22 = ORIENTED_EDGE ( 'NONE', *, *, #166, .F. ) ;
#23 = ADVANCED_FACE ( 'NONE', ( #150 ), #145, .T. ) ;
#24 = ORIENTED_EDGE ( 'NONE', *, *, #98, .T. ) ;
#25 = ORIENTED_EDGE ( 'NONE', *, *, #100, .T. ) ;
#26 = ORIENTED_EDGE ( 'NONE', *, *, #32, .F. ) ;
#27 = ORIENTED_EDGE ( 'NONE', *, *, #121, .F. ) ;
#28 = ORIENTED_EDGE ( 'NONE', *, *, #192, .T. ) ;
#29 = ORIENTED_EDGE ( 'NONE', *, *, #14, .T. ) ;
#30 = ADVANCED_FACE ( 'NONE', ( #144, #143 ), #138, .F. ) ;
#31 = EDGE_LOOP ( 'NONE', ( #24, #25 ) ) ;
#32 = EDGE_CURVE ( 'NONE', #120, #118, #131, .T. ) ;
#33 = ORIENTED_EDGE ( 'NONE', *, *, #186, .T. ) ;
#34 = ORIENTED_EDGE ( 'NONE', *, *, #40, .F. ) ;
#35 = ADVANCED_FACE ( 'NONE', ( #132, #127 ), #95, .F. ) ;
#36 = EDGE_CURVE ( 'NONE', #184, #187, #89, .T. ) ;
#37 = EDGE_LOOP ( 'NONE', ( #34, #2 ) ) ;
#38 = ORIENTED_EDGE ( 'NONE', *, *, #189, .T. ) ;
#39 = ORIENTED_EDGE ( 'NONE', *, *, #42, .T. ) ;
#40 = EDGE_CURVE ( 'NONE', #160, #157, #84, .T. ) ;
#41 = ORIENTED_EDGE ( 'NONE', *, *, #36, .F. ) ;
#42 = EDGE_CURVE ( 'NONE', #115, #126, #79, .T. ) ;
#43 = ORIENTED_EDGE ( 'NONE', *, *, #183, .F. ) ;
#44 = ADVANCED_FACE ( 'NONE', ( #80 ), #73, .T. ) ;
#45 = EDGE_LOOP ( 'NONE', ( #43, #39, #38, #41 ) ) ;
#46 = ORIENTED_EDGE ( 'NONE', *, *, #98, .F. ) ;
#47 = EDGE_LOOP ( 'NONE', ( #26, #27 ) ) ;
#48 = ORIENTED_EDGE ( 'NONE', *, *, #117, .F. ) ;
#49 = ORIENTED_EDGE ( 'NONE', *, *, #42, .F. ) ;
#50 = ADVANCED_FACE ( 'NONE', ( #74 ), #182, .F. ) ;
#51 = EDGE_LOOP ( 'NONE', ( #52, #155, #158, #109 ) ) ;
#52 = ORIENTED_EDGE ( 'NONE', *, *, #53, .F. ) ;
#53 = EDGE_CURVE ( 'NONE', #54, #55, #175, .T. ) ;
#54 = VERTEX_POINT ( 'NONE', #230 ) ;
#55 = VERTEX_POINT ( 'NONE', #240 ) ;
#56 = CIRCLE ( 'NONE', #154, 2.500000000000000000 ) ;
#57 = FACE_OUTER_BOUND ( 'NONE', #21, .T. ) ;
#58 = DIRECTION ( 'NONE',  ( 0.0000000000000000000, 0.0000000000000000000, 1.000000000000000000 ) ) ;
#59 = DIRECTION ( 'NONE',  ( 0.0000000000000000000, 1.000000000000000000, 0.0000000000000000000 ) ) ;
#60 = CARTESIAN_POINT ( 'NONE',  ( -5.009326287108706300E-010, -11.99999999650043500, 0.0000000000000000000 ) ) ;
#61 = AXIS2_PLACEMENT_3D ( 'NONE', #60, #59, #58 ) ;
#62 = CIRCLE ( 'NONE', #61, 6.000000000000001800 ) ;
#63 = CARTESIAN_POINT ( 'NONE',  ( -5.009326287108706300E-010, -11.99999999650043500, 0.0000000000000000000 ) ) ;
#64 = DIRECTION ( 'NONE',  ( 0.0000000000000000000, 0.0000000000000000000, -1.000000000000000000 ) ) ;
#65 = DIRECTION ( 'NONE',  ( 0.0000000000000000000, -1.000000000000000000, 0.0000000000000000000 ) ) ;
#66 = CARTESIAN_POINT ( 'NONE',  ( 5.999999999499069100, -11.99999999650043500, 0.0000000000000000000 ) ) ;
#67 = AXIS2_PLACEMENT_3D ( 'NONE', #66, #65, #64 ) ;
#68 = PLANE ( 'NONE',  #67 ) ;
#69 = DIRECTION ( 'NONE',  ( 0.0000000000000000000, 0.0000000000000000000, 1.000000000000000000 ) ) ;
#70 = DIRECTION ( 'NONE',  ( 0.0000000000000000000, 0.0000000000000000000, 1.000000000000000000 ) ) ;
#71 = DIRECTION ( 'NONE',  ( 0.0000000000000000000, 1.000000000000000000, 0.0000000000000000000 ) ) ;
#72 = AXIS2_PLACEMENT_3D ( 'NONE', #75, #71, #70 ) ;
#73 = TOROIDAL_SURFACE ( 'NONE', #72, 14.58864031391771100, 3.499999999999999600 ) ;
#74 = FACE_OUTER_BOUND ( 'NONE', #51, .T. ) ;
#75 = CARTESIAN_POINT ( 'NONE',  ( -5.009326287108706300E-010, -3.499999996500434000, 0.0000000000000000000 ) ) ;
#76 = DIRECTION ( 'NONE',  ( 0.0000000000000000000, 0.0000000000000000000, 1.000000000000000000 ) ) ;
#77 = DIRECTION ( 'NONE',  ( 0.0000000000000000000, 1.000000000000000000, 0.0000000000000000000 ) ) ;
#78 = AXIS2_PLACEMENT_3D ( 'NONE', #85, #77, #76 ) ;
#79 = CIRCLE ( 'NONE', #78, 18.03012733136332500 ) ;
#80 = FACE_OUTER_BOUND ( 'NONE', #45, .T. ) ;
#81 = DIRECTION ( 'NONE',  ( 0.0000000000000000000, 0.0000000000000000000, 1.000000000000000000 ) ) ;
#82 = DIRECTION ( 'NONE',  ( 0.0000000000000000000, 1.000000000000000000, 0.0000000000000000000 ) ) ;
#83 = AXIS2_PLACEMENT_3D ( 'NONE', #90, #82, #81 ) ;
#84 = CIRCLE ( 'NONE', #83, 6.000000000000000000 ) ;
#85 = CARTESIAN_POINT ( 'NONE',  ( -5.009326287108706300E-010, -2.862687585862377900, 0.0000000000000000000 ) ) ;
#86 = DIRECTION ( 'NONE',  ( 0.0000000000000000000, 0.0000000000000000000, 1.000000000000000000 ) ) ;
#87 = DIRECTION ( 'NONE',  ( 0.0000000000000000000, 1.000000000000000000, 0.0000000000000000000 ) ) ;
#88 = AXIS2_PLACEMENT_3D ( 'NONE', #96, #87, #86 ) ;
#89 = CIRCLE ( 'NONE', #88, 14.58864031391769000 ) ;
#90 = CARTESIAN_POINT ( 'NONE',  ( -5.009326287108706300E-010, 3.499565220943523500E-009, 0.0000000000000000000 ) ) ;
#91 = DIRECTION ( 'NONE',  ( 0.0000000000000000000, 0.0000000000000000000, -1.000000000000000000 ) ) ;
#92 = DIRECTION ( 'NONE',  ( 0.0000000000000000000, -1.000000000000000000, 0.0000000000000000000 ) ) ;
#93 = CARTESIAN_POINT ( 'NONE',  ( 14.58864031341675700, 3.499565423374446900E-009, 0.0000000000000000000 ) ) ;
#94 = AXIS2_PLACEMENT_3D ( 'NONE', #93, #92, #91 ) ;
#95 = PLANE ( 'NONE',  #94 ) ;
#96 = CARTESIAN_POINT ( 'NONE',  ( -5.009326287108706300E-010, 3.499565654624392500E-009, 0.0000000000000000000 ) ) ;
#97 = ORIENTED_EDGE ( 'NONE', *, *, #168, .T. ) ;
#98 = EDGE_CURVE ( 'NONE', #164, #101, #227, .T. ) ;
#99 = ORIENTED_EDGE ( 'NONE', *, *, #100, .F. ) ;
#100 = EDGE_CURVE ( 'NONE', #101, #164, #228, .T. ) ;
#101 = VERTEX_POINT ( 'NONE', #208 ) ;
#102 = DIRECTION ( 'NONE',  ( 0.0000000000000000000, 1.000000000000000000, 0.0000000000000000000 ) ) ;
#103 = AXIS2_PLACEMENT_3D ( 'NONE', #107, #102, #69 ) ;
#104 = CYLINDRICAL_SURFACE ( 'NONE', #103, 6.000000000000000900 ) ;
#105 = FACE_OUTER_BOUND ( 'NONE', #16, .T. ) ;
#106 = FACE_BOUND ( 'NONE', #11, .T. ) ;
#107 = CARTESIAN_POINT ( 'NONE',  ( -5.009326287108706300E-010, 2.412507003500041800, 0.0000000000000000000 ) ) ;
#108 = FACE_OUTER_BOUND ( 'NONE', #7, .T. ) ;
#109 = ORIENTED_EDGE ( 'NONE', *, *, #110, .F. ) ;
#110 = EDGE_CURVE ( 'NONE', #55, #160, #207, .T. ) ;
#111 = ADVANCED_FACE ( 'NONE', ( #237 ), #234, .T. ) ;
#112 = EDGE_LOOP ( 'NONE', ( #113, #114, #185, #188 ) ) ;
#113 = ORIENTED_EDGE ( 'NONE', *, *, #125, .T. ) ;
#114 = ORIENTED_EDGE ( 'NONE', *, *, #183, .T. ) ;
#115 = VERTEX_POINT ( 'NONE', #235 ) ;
#116 = ORIENTED_EDGE ( 'NONE', *, *, #117, .T. ) ;
#117 = EDGE_CURVE ( 'NONE', #126, #118, #263, .T. ) ;
#118 = VERTEX_POINT ( 'NONE', #259 ) ;
#119 = ORIENTED_EDGE ( 'NONE', *, *, #121, .T. ) ;
#120 = VERTEX_POINT ( 'NONE', #258 ) ;
#121 = EDGE_CURVE ( 'NONE', #118, #120, #257, .T. ) ;
#122 = ADVANCED_FACE ( 'NONE', ( #219 ), #218, .T. ) ;
#123 = EDGE_LOOP ( 'NONE', ( #124, #116, #119, #167 ) ) ;
#124 = ORIENTED_EDGE ( 'NONE', *, *, #125, .F. ) ;
#125 = EDGE_CURVE ( 'NONE', #126, #115, #217, .T. ) ;
#126 = VERTEX_POINT ( 'NONE', #201 ) ;
#127 = FACE_OUTER_BOUND ( 'NONE', #1, .T. ) ;
#128 = DIRECTION ( 'NONE',  ( 0.0000000000000000000, 0.0000000000000000000, 1.000000000000000000 ) ) ;
#129 = DIRECTION ( 'NONE',  ( 0.0000000000000000000, 1.000000000000000000, 0.0000000000000000000 ) ) ;
#130 = AXIS2_PLACEMENT_3D ( 'NONE', #137, #129, #128 ) ;
#131 = CIRCLE ( 'NONE', #130, 22.50000000000000000 ) ;
#132 = FACE_BOUND ( 'NONE', #37, .T. ) ;
#133 = DIRECTION ( 'NONE',  ( 0.0000000000000000000, 0.0000000000000000000, 1.000000000000000000 ) ) ;
#134 = DIRECTION ( 'NONE',  ( 0.0000000000000000000, 1.000000000000000000, 0.0000000000000000000 ) ) ;
#135 = CARTESIAN_POINT ( 'NONE',  ( 2.499999999499069100, -26.99999999650043500, 0.0000000000000000000 ) ) ;
#136 = AXIS2_PLACEMENT_3D ( 'NONE', #135, #134, #133 ) ;
#137 = CARTESIAN_POINT ( 'NONE',  ( -5.009326287108706300E-010, -26.99999999650043500, 0.0000000000000000000 ) ) ;
#138 = PLANE ( 'NONE',  #136 ) ;
#139 = DIRECTION ( 'NONE',  ( 0.0000000000000000000, 0.0000000000000000000, -1.000000000000000000 ) ) ;
#140 = DIRECTION ( 'NONE',  ( 0.0000000000000000000, -1.000000000000000000, 0.0000000000000000000 ) ) ;
#141 = CARTESIAN_POINT ( 'NONE',  ( -5.009326287108706300E-010, -26.99999999650043500, 0.0000000000000000000 ) ) ;
#142 = AXIS2_PLACEMENT_3D ( 'NONE', #141, #140, #139 ) ;
#143 = FACE_BOUND ( 'NONE', #31, .T. ) ;
#144 = FACE_OUTER_BOUND ( 'NONE', #47, .T. ) ;
#145 = CONICAL_SURFACE ( 'NONE', #142, 22.50000000000000000, 0.1831108172624840400 ) ;
#146 = DIRECTION ( 'NONE',  ( 0.0000000000000000000, 0.0000000000000000000, 1.000000000000000000 ) ) ;
#147 = DIRECTION ( 'NONE',  ( 0.0000000000000000000, 1.000000000000000000, 0.0000000000000000000 ) ) ;
#148 = AXIS2_PLACEMENT_3D ( 'NONE', #151, #147, #146 ) ;
#149 = CYLINDRICAL_SURFACE ( 'NONE', #148, 2.500000000000000900 ) ;
#150 = FACE_OUTER_BOUND ( 'NONE', #18, .T. ) ;
#151 = CARTESIAN_POINT ( 'NONE',  ( -5.009326287108706300E-010, 2.412507003500041800, 0.0000000000000000000 ) ) ;
#152 = DIRECTION ( 'NONE',  ( 0.0000000000000000000, 0.0000000000000000000, 1.000000000000000000 ) ) ;
#153 = DIRECTION ( 'NONE',  ( 0.0000000000000000000, 1.000000000000000000, 0.0000000000000000000 ) ) ;
#154 = AXIS2_PLACEMENT_3D ( 'NONE', #63, #153, #152 ) ;
#155 = ORIENTED_EDGE ( 'NONE', *, *, #156, .T. ) ;
#156 = EDGE_CURVE ( 'NONE', #54, #157, #200, .T. ) ;
#157 = VERTEX_POINT ( 'NONE', #196 ) ;
#158 = ORIENTED_EDGE ( 'NONE', *, *, #159, .T. ) ;
#159 = EDGE_CURVE ( 'NONE', #157, #160, #256, .T. ) ;
#160 = VERTEX_POINT ( 'NONE', #252 ) ;
#161 = MANIFOLD_SOLID_BREP ( 'NONE', #171 ) ;
#162 = VERTEX_POINT ( 'NONE', #251 ) ;
#163 = ORIENTED_EDGE ( 'NONE', *, *, #190, .T. ) ;
#164 = VERTEX_POINT ( 'NONE', #250 ) ;
#165 = ORIENTED_EDGE ( 'NONE', *, *, #166, .T. ) ;
#166 = EDGE_CURVE ( 'NONE', #101, #162, #249, .T. ) ;
#167 = ORIENTED_EDGE ( 'NONE', *, *, #168, .F. ) ;
#168 = EDGE_CURVE ( 'NONE', #115, #120, #245, .T. ) ;
#169 = ADVANCED_FACE ( 'NONE', ( #265 ), #264, .F. ) ;
#170 = EDGE_LOOP ( 'NONE', ( #99, #165, #163, #191 ) ) ;
#171 = CLOSED_SHELL ( 'NONE', ( #122, #169, #50, #111, #44, #35, #4, #8, #19, #30, #23 ) ) ;
#172 = DIRECTION ( 'NONE',  ( 0.0000000000000000000, 0.0000000000000000000, 1.000000000000000000 ) ) ;
#173 = DIRECTION ( 'NONE',  ( 0.0000000000000000000, 1.000000000000000000, 0.0000000000000000000 ) ) ;
#174 = AXIS2_PLACEMENT_3D ( 'NONE', #181, #173, #172 ) ;
#175 = CIRCLE ( 'NONE', #174, 6.000000000000001800 ) ;
#176 = DIRECTION ( 'NONE',  ( 1.000000000000000000, 0.0000000000000000000, 1.224606353822377300E-016 ) ) ;
#177 = DIRECTION ( 'NONE',  ( 0.0000000000000000000, 0.0000000000000000000, 1.000000000000000000 ) ) ;
#178 = DIRECTION ( 'NONE',  ( 0.0000000000000000000, 1.000000000000000000, 0.0000000000000000000 ) ) ;
#179 = CARTESIAN_POINT ( 'NONE',  ( -5.009326287108706300E-010, 2.412507003500041800, 0.0000000000000000000 ) ) ;
#180 = AXIS2_PLACEMENT_3D ( 'NONE', #179, #178, #177 ) ;
#181 = CARTESIAN_POINT ( 'NONE',  ( -5.009326287108706300E-010, -11.99999999650043500, 0.0000000000000000000 ) ) ;
#182 = CYLINDRICAL_SURFACE ( 'NONE', #180, 6.000000000000000900 ) ;
#183 = EDGE_CURVE ( 'NONE', #115, #184, #271, .T. ) ;
#184 = VERTEX_POINT ( 'NONE', #336 ) ;
#185 = ORIENTED_EDGE ( 'NONE', *, *, #186, .F. ) ;
#186 = EDGE_CURVE ( 'NONE', #187, #184, #335, .T. ) ;
#187 = VERTEX_POINT ( 'NONE', #280 ) ;
#188 = ORIENTED_EDGE ( 'NONE', *, *, #189, .F. ) ;
#189 = EDGE_CURVE ( 'NONE', #126, #187, #277, .T. ) ;
#190 = EDGE_CURVE ( 'NONE', #162, #194, #300, .T. ) ;
#191 = ORIENTED_EDGE ( 'NONE', *, *, #192, .F. ) ;
#192 = EDGE_CURVE ( 'NONE', #164, #194, #295, .T. ) ;
#193 = ORIENTED_EDGE ( 'NONE', *, *, #32, .T. ) ;
#194 = VERTEX_POINT ( 'NONE', #291 ) ;
#195 = CARTESIAN_POINT ( 'NONE',  ( -5.009326287108706300E-010, 3.499565220943523500E-009, 0.0000000000000000000 ) ) ;
#196 = CARTESIAN_POINT ( 'NONE',  ( -5.009318939470583400E-010, 3.499565220943523500E-009, -6.000000000000000000 ) ) ;
#197 = DIRECTION ( 'NONE',  ( 0.0000000000000000000, 1.000000000000000000, 0.0000000000000000000 ) ) ;
#198 = VECTOR ( 'NONE', #197, 1000.000000000000000 ) ;
#199 = CARTESIAN_POINT ( 'NONE',  ( -5.009318939470583400E-010, 2.412507003500041800, -6.000000000000000900 ) ) ;
#200 = LINE ( 'NONE', #199, #198 ) ;
#201 = CARTESIAN_POINT ( 'NONE',  ( -5.009326287108706300E-010, -2.862687585862377900, 18.03012733136332500 ) ) ;
#202 = DIRECTION ( 'NONE',  ( 0.0000000000000000000, 0.0000000000000000000, 1.000000000000000000 ) ) ;
#203 = DIRECTION ( 'NONE',  ( 0.0000000000000000000, 1.000000000000000000, 0.0000000000000000000 ) ) ;
#204 = CARTESIAN_POINT ( 'NONE',  ( -5.009326287108706300E-010, -2.862687585862377900, 0.0000000000000000000 ) ) ;
#205 = AXIS2_PLACEMENT_3D ( 'NONE', #204, #203, #202 ) ;
#206 = CARTESIAN_POINT ( 'NONE',  ( -5.009326287108706300E-010, 2.412507003500041800, 6.000000000000000900 ) ) ;
#207 = LINE ( 'NONE', #206, #239 ) ;
#208 = CARTESIAN_POINT ( 'NONE',  ( -5.009323225592821800E-010, -26.99999999650043500, -2.500000000000002200 ) ) ;
#209 = DIRECTION ( 'NONE',  ( 0.0000000000000000000, 0.0000000000000000000, 1.000000000000000000 ) ) ;
#210 = DIRECTION ( 'NONE',  ( 0.0000000000000000000, 1.000000000000000000, 0.0000000000000000000 ) ) ;
#211 = CARTESIAN_POINT ( 'NONE',  ( -5.009326287108706300E-010, -26.99999999650043500, 0.0000000000000000000 ) ) ;
#212 = AXIS2_PLACEMENT_3D ( 'NONE', #211, #210, #209 ) ;
#213 = DIRECTION ( 'NONE',  ( 0.0000000000000000000, 0.0000000000000000000, -1.000000000000000000 ) ) ;
#214 = DIRECTION ( 'NONE',  ( 0.0000000000000000000, -1.000000000000000000, 0.0000000000000000000 ) ) ;
#215 = CARTESIAN_POINT ( 'NONE',  ( -5.009326287108706300E-010, -26.99999999650043500, 0.0000000000000000000 ) ) ;
#216 = AXIS2_PLACEMENT_3D ( 'NONE', #215, #214, #213 ) ;
#217 = CIRCLE ( 'NONE', #205, 18.03012733136332500 ) ;
#218 = CONICAL_SURFACE ( 'NONE', #216, 22.50000000000000000, 0.1831108172624840400 ) ;
#219 = FACE_OUTER_BOUND ( 'NONE', #123, .T. ) ;
#220 = DIRECTION ( 'NONE',  ( 0.0000000000000000000, 0.0000000000000000000, 1.000000000000000000 ) ) ;
#221 = DIRECTION ( 'NONE',  ( 0.0000000000000000000, 1.000000000000000000, 0.0000000000000000000 ) ) ;
#222 = CARTESIAN_POINT ( 'NONE',  ( -5.009326287108706300E-010, -26.99999999650043500, 0.0000000000000000000 ) ) ;
#223 = AXIS2_PLACEMENT_3D ( 'NONE', #222, #221, #220 ) ;
#224 = DIRECTION ( 'NONE',  ( 0.0000000000000000000, 1.000000000000000000, 0.0000000000000000000 ) ) ;
#225 = CARTESIAN_POINT ( 'NONE',  ( -5.009326287108706300E-010, -26.99999999650043500, 0.0000000000000000000 ) ) ;
#226 = AXIS2_PLACEMENT_3D ( 'NONE', #225, #224, #229 ) ;
#227 = CIRCLE ( 'NONE', #226, 2.500000000000001800 ) ;
#228 = CIRCLE ( 'NONE', #212, 2.500000000000001800 ) ;
#229 = DIRECTION ( 'NONE',  ( 0.0000000000000000000, 0.0000000000000000000, 1.000000000000000000 ) ) ;
#230 = CARTESIAN_POINT ( 'NONE',  ( -5.009318939470583400E-010, -11.99999999650043500, -6.000000000000002700 ) ) ;
#231 = DIRECTION ( 'NONE',  ( 0.0000000000000000000, 0.0000000000000000000, 1.000000000000000000 ) ) ;
#232 = DIRECTION ( 'NONE',  ( 0.0000000000000000000, 1.000000000000000000, 0.0000000000000000000 ) ) ;
#233 = AXIS2_PLACEMENT_3D ( 'NONE', #236, #232, #231 ) ;
#234 = TOROIDAL_SURFACE ( 'NONE', #233, 14.58864031391771100, 3.499999999999999600 ) ;
#235 = CARTESIAN_POINT ( 'NONE',  ( -5.009304207300215900E-010, -2.862687585862377900, -18.03012733136332500 ) ) ;
#236 = CARTESIAN_POINT ( 'NONE',  ( -5.009326287108706300E-010, -3.499999996500434000, 0.0000000000000000000 ) ) ;
#237 = FACE_OUTER_BOUND ( 'NONE', #112, .T. ) ;
#238 = DIRECTION ( 'NONE',  ( 0.0000000000000000000, 1.000000000000000000, 0.0000000000000000000 ) ) ;
#239 = VECTOR ( 'NONE', #238, 1000.000000000000000 ) ;
#240 = CARTESIAN_POINT ( 'NONE',  ( -5.009326287108706300E-010, -11.99999999650043500, 6.000000000000001800 ) ) ;
#241 = DIRECTION ( 'NONE',  ( 0.0000000000000000000, -0.9832820049844602800, -0.1820892601823073100 ) ) ;
#242 = VECTOR ( 'NONE', #241, 999.9999999999998900 ) ;
#243 = CARTESIAN_POINT ( 'NONE',  ( -5.009326287108706300E-010, -26.99999999650043500, -22.50000000000000000 ) ) ;
#244 = DIRECTION ( 'NONE',  ( 1.224606353900848700E-016, 0.0000000000000000000, -1.000000000000000000 ) ) ;
#245 = LINE ( 'NONE', #243, #242 ) ;
#246 = DIRECTION ( 'NONE',  ( 0.0000000000000000000, 1.000000000000000000, 0.0000000000000000000 ) ) ;
#247 = VECTOR ( 'NONE', #246, 1000.000000000000000 ) ;
#248 = CARTESIAN_POINT ( 'NONE',  ( -5.009323225592821800E-010, 2.412507003500041800, -2.500000000000000900 ) ) ;
#249 = LINE ( 'NONE', #248, #247 ) ;
#250 = CARTESIAN_POINT ( 'NONE',  ( -5.009326287108706300E-010, -26.99999999650043500, 2.500000000000001800 ) ) ;
#251 = CARTESIAN_POINT ( 'NONE',  ( -5.009323225592821800E-010, -11.99999999650043500, -2.500000000000000000 ) ) ;
#252 = CARTESIAN_POINT ( 'NONE',  ( -5.009326287108706300E-010, 3.499565220943523500E-009, 6.000000000000000000 ) ) ;
#253 = DIRECTION ( 'NONE',  ( 0.0000000000000000000, 0.0000000000000000000, 1.000000000000000000 ) ) ;
#254 = DIRECTION ( 'NONE',  ( 0.0000000000000000000, 1.000000000000000000, 0.0000000000000000000 ) ) ;
#255 = AXIS2_PLACEMENT_3D ( 'NONE', #195, #254, #253 ) ;
#256 = CIRCLE ( 'NONE', #255, 6.000000000000000000 ) ;
#257 = CIRCLE ( 'NONE', #223, 22.50000000000000000 ) ;
#258 = CARTESIAN_POINT ( 'NONE',  ( -5.009326287108706300E-010, -26.99999999650043500, -22.50000000000000000 ) ) ;
#259 = CARTESIAN_POINT ( 'NONE',  ( -5.009298733465745300E-010, -26.99999999650043500, 22.50000000000000000 ) ) ;
#260 = DIRECTION ( 'NONE',  ( 2.229876649820695800E-017, -0.9832820049844602800, 0.1820892601823073100 ) ) ;
#261 = VECTOR ( 'NONE', #260, 999.9999999999998900 ) ;
#262 = CARTESIAN_POINT ( 'NONE',  ( -5.009298733465745300E-010, -26.99999999650043500, 22.50000000000000000 ) ) ;
#263 = LINE ( 'NONE', #262, #261 ) ;
#264 = CYLINDRICAL_SURFACE ( 'NONE', #268, 2.500000000000000900 ) ;
#265 = FACE_OUTER_BOUND ( 'NONE', #170, .T. ) ;
#266 = DIRECTION ( 'NONE',  ( 0.0000000000000000000, 1.000000000000000000, 0.0000000000000000000 ) ) ;
#267 = CARTESIAN_POINT ( 'NONE',  ( -5.009326287108706300E-010, 2.412507003500041800, 0.0000000000000000000 ) ) ;
#268 = AXIS2_PLACEMENT_3D ( 'NONE', #267, #266, #272 ) ;
#269 = CARTESIAN_POINT ( 'NONE',  ( -5.009308421767083700E-010, -3.499999996500434000, -14.58864031391771100 ) ) ;
#270 = AXIS2_PLACEMENT_3D ( 'NONE', #269, #176, #244 ) ;
#271 = CIRCLE ( 'NONE', #270, 3.499999999999999600 ) ;
#272 = DIRECTION ( 'NONE',  ( 0.0000000000000000000, 0.0000000000000000000, 1.000000000000000000 ) ) ;
#273 = DIRECTION ( 'NONE',  ( 0.0000000000000000000, 0.0000000000000000000, 1.000000000000000000 ) ) ;
#274 = DIRECTION ( 'NONE',  ( -1.000000000000000000, 0.0000000000000000000, 0.0000000000000000000 ) ) ;
#275 = CARTESIAN_POINT ( 'NONE',  ( -5.009326287108706300E-010, -3.499999996500434000, 14.58864031391771100 ) ) ;
#276 = AXIS2_PLACEMENT_3D ( 'NONE', #275, #274, #273 ) ;
#277 = CIRCLE ( 'NONE', #276, 3.499999999999999600 ) ;
#278 = PRODUCT_DEFINITION_SHAPE ( 'NONE', 'NONE',  #366 ) ;
#279 = PRODUCT_RELATED_PRODUCT_CATEGORY ( 'detail', '', ( #375 ) ) ;
#280 = CARTESIAN_POINT ( 'NONE',  ( -5.009326287108706300E-010, 3.499565654624392500E-009, 14.58864031391769000 ) ) ;
#281 = DIRECTION ( 'NONE',  ( 0.0000000000000000000, 0.0000000000000000000, 1.000000000000000000 ) ) ;
#282 = DIRECTION ( 'NONE',  ( 0.0000000000000000000, 1.000000000000000000, 0.0000000000000000000 ) ) ;
#283 = DIRECTION ( 'NONE',  ( 0.0000000000000000000, 0.0000000000000000000, 1.000000000000000000 ) ) ;
#284 = SHAPE_DEFINITION_REPRESENTATION ( #278, #285 ) ;
#285 = ADVANCED_BREP_SHAPE_REPRESENTATION ( 'C-30-RK-45-ÃÞÌ«ÙÄ', ( #161, #381 ), #286 ) ;
#286 =( GEOMETRIC_REPRESENTATION_CONTEXT ( 3 ) GLOBAL_UNCERTAINTY_ASSIGNED_CONTEXT ( ( #287 ) ) GLOBAL_UNIT_ASSIGNED_CONTEXT ( ( #290, #289, #288 ) ) REPRESENTATION_CONTEXT ( 'NONE', 'WORKASPACE' ) );
#287 = UNCERTAINTY_MEASURE_WITH_UNIT (LENGTH_MEASURE( 1.000000000000000100E-005 ), #290, 'distance_accuracy_value', 'NONE');
#288 =( NAMED_UNIT ( * ) SI_UNIT ( $, .STERADIAN. ) SOLID_ANGLE_UNIT ( ) );
#289 =( NAMED_UNIT ( * ) PLANE_ANGLE_UNIT ( ) SI_UNIT ( $, .RADIAN. ) );
#290 =( LENGTH_UNIT ( ) NAMED_UNIT ( * ) SI_UNIT ( .MILLI., .METRE. ) );
#291 = CARTESIAN_POINT ( 'NONE',  ( -5.009326287108706300E-010, -11.99999999650043500, 2.500000000000000000 ) ) ;
#292 = DIRECTION ( 'NONE',  ( 0.0000000000000000000, 1.000000000000000000, 0.0000000000000000000 ) ) ;
#293 = VECTOR ( 'NONE', #292, 1000.000000000000000 ) ;
#294 = CARTESIAN_POINT ( 'NONE',  ( -5.009326287108706300E-010, 2.412507003500041800, 2.500000000000000900 ) ) ;
#295 = LINE ( 'NONE', #294, #293 ) ;
#296 = DIRECTION ( 'NONE',  ( 0.0000000000000000000, 0.0000000000000000000, 1.000000000000000000 ) ) ;
#297 = DIRECTION ( 'NONE',  ( 0.0000000000000000000, 1.000000000000000000, 0.0000000000000000000 ) ) ;
#298 = CARTESIAN_POINT ( 'NONE',  ( -5.009326287108706300E-010, -11.99999999650043500, 0.0000000000000000000 ) ) ;
#299 = AXIS2_PLACEMENT_3D ( 'NONE', #298, #297, #296 ) ;
#300 = CIRCLE ( 'NONE', #299, 2.500000000000000000 ) ;
#301 = CARTESIAN_POINT ( 'NONE',  ( -5.009326287108706300E-010, 3.499565654624392500E-009, 0.0000000000000000000 ) ) ;
#302 = AXIS2_PLACEMENT_3D ( 'NONE', #301, #282, #281 ) ;
#303 = CC_DESIGN_SECURITY_CLASSIFICATION ( #324, ( #345 ) ) ;
#304 = CC_DESIGN_APPROVAL ( #312, ( #324 ) ) ;
#305 = APPROVAL_DATE_TIME ( #306, #312 ) ;
#306 = DATE_AND_TIME ( #307, #308 ) ;
#307 = CALENDAR_DATE ( 2009, 29, 6 ) ;
#308 = LOCAL_TIME ( 11, 32, 29.00000000000000000, #309 ) ;
#309 = COORDINATED_UNIVERSAL_TIME_OFFSET ( 9, 0, .AHEAD. ) ;
#310 = APPROVAL_PERSON_ORGANIZATION ( #314, #312, #311 ) ;
#311 = APPROVAL_ROLE ( '' ) ;
#312 = APPROVAL ( #313, 'UNSPECIFIED' ) ;
#313 = APPROVAL_STATUS ( 'not_yet_approved' ) ;
#314 = PERSON_AND_ORGANIZATION ( #374, #373 ) ;
#315 = CC_DESIGN_DATE_AND_TIME_ASSIGNMENT ( #317, #316, ( #324 ) ) ;
#316 = DATE_TIME_ROLE ( 'classification_date' ) ;
#317 = DATE_AND_TIME ( #318, #319 ) ;
#318 = CALENDAR_DATE ( 2009, 29, 6 ) ;
#319 = LOCAL_TIME ( 11, 32, 29.00000000000000000, #320 ) ;
#320 = COORDINATED_UNIVERSAL_TIME_OFFSET ( 9, 0, .AHEAD. ) ;
#321 = CC_DESIGN_PERSON_AND_ORGANIZATION_ASSIGNMENT ( #323, #322, ( #324 ) ) ;
#322 = PERSON_AND_ORGANIZATION_ROLE ( 'classification_officer' ) ;
#323 = PERSON_AND_ORGANIZATION ( #374, #373 ) ;
#324 = SECURITY_CLASSIFICATION ( '', '', #325 ) ;
#325 = SECURITY_CLASSIFICATION_LEVEL ( 'unclassified' ) ;
#326 = CC_DESIGN_PERSON_AND_ORGANIZATION_ASSIGNMENT ( #328, #327, ( #345 ) ) ;
#327 = PERSON_AND_ORGANIZATION_ROLE ( 'design_supplier' ) ;
#328 = PERSON_AND_ORGANIZATION ( #374, #373 ) ;
#329 = CC_DESIGN_PERSON_AND_ORGANIZATION_ASSIGNMENT ( #331, #330, ( #345 ) ) ;
#330 = PERSON_AND_ORGANIZATION_ROLE ( 'creator' ) ;
#331 = PERSON_AND_ORGANIZATION ( #374, #373 ) ;
#332 = CC_DESIGN_APPROVAL ( #342, ( #345 ) ) ;
#333 = APPROVAL_DATE_TIME ( #334, #342 ) ;
#334 = DATE_AND_TIME ( #337, #338 ) ;
#335 = CIRCLE ( 'NONE', #302, 14.58864031391769000 ) ;
#336 = CARTESIAN_POINT ( 'NONE',  ( -5.009306314533649800E-010, 3.499565654624392500E-009, -14.58864031391769000 ) ) ;
#337 = CALENDAR_DATE ( 2009, 29, 6 ) ;
#338 = LOCAL_TIME ( 11, 32, 29.00000000000000000, #339 ) ;
#339 = COORDINATED_UNIVERSAL_TIME_OFFSET ( 9, 0, .AHEAD. ) ;
#340 = APPROVAL_PERSON_ORGANIZATION ( #344, #342, #341 ) ;
#341 = APPROVAL_ROLE ( '' ) ;
#342 = APPROVAL ( #343, 'UNSPECIFIED' ) ;
#343 = APPROVAL_STATUS ( 'not_yet_approved' ) ;
#344 = PERSON_AND_ORGANIZATION ( #374, #373 ) ;
#345 = PRODUCT_DEFINITION_FORMATION_WITH_SPECIFIED_SOURCE ( 'ANY', '', #375, .NOT_KNOWN. ) ;
#346 = CC_DESIGN_DATE_AND_TIME_ASSIGNMENT ( #348, #347, ( #366 ) ) ;
#347 = DATE_TIME_ROLE ( 'creation_date' ) ;
#348 = DATE_AND_TIME ( #349, #350 ) ;
#349 = CALENDAR_DATE ( 2009, 29, 6 ) ;
#350 = LOCAL_TIME ( 11, 32, 29.00000000000000000, #351 ) ;
#351 = COORDINATED_UNIVERSAL_TIME_OFFSET ( 9, 0, .AHEAD. ) ;
#352 = CC_DESIGN_PERSON_AND_ORGANIZATION_ASSIGNMENT ( #354, #353, ( #366 ) ) ;
#353 = PERSON_AND_ORGANIZATION_ROLE ( 'creator' ) ;
#354 = PERSON_AND_ORGANIZATION ( #374, #373 ) ;
#355 = CC_DESIGN_APPROVAL ( #363, ( #366 ) ) ;
#356 = APPROVAL_DATE_TIME ( #357, #363 ) ;
#357 = DATE_AND_TIME ( #358, #359 ) ;
#358 = CALENDAR_DATE ( 2009, 29, 6 ) ;
#359 = LOCAL_TIME ( 11, 32, 29.00000000000000000, #360 ) ;
#360 = COORDINATED_UNIVERSAL_TIME_OFFSET ( 9, 0, .AHEAD. ) ;
#361 = APPROVAL_PERSON_ORGANIZATION ( #365, #363, #362 ) ;
#362 = APPROVAL_ROLE ( '' ) ;
#363 = APPROVAL ( #364, 'UNSPECIFIED' ) ;
#364 = APPROVAL_STATUS ( 'not_yet_approved' ) ;
#365 = PERSON_AND_ORGANIZATION ( #374, #373 ) ;
#366 = PRODUCT_DEFINITION ( 'UNKNOWN', '', #345, #367 ) ;
#367 = DESIGN_CONTEXT ( 'detailed design', #369, 'design' ) ;
#368 = APPLICATION_PROTOCOL_DEFINITION ( 'international standard', 'config_control_design', 1994, #369 ) ;
#369 = APPLICATION_CONTEXT ( 'configuration controlled 3d designs of mechanical parts and assemblies' ) ;
#370 = CC_DESIGN_PERSON_AND_ORGANIZATION_ASSIGNMENT ( #372, #371, ( #375 ) ) ;
#371 = PERSON_AND_ORGANIZATION_ROLE ( 'design_owner' ) ;
#372 = PERSON_AND_ORGANIZATION ( #374, #373 ) ;
#373 = ORGANIZATION ( 'UNSPECIFIED', 'UNSPECIFIED', '' ) ;
#374 = PERSON ( 'UNSPECIFIED', 'UNSPECIFIED', 'UNSPECIFIED', ('UNSPECIFIED'), ('UNSPECIFIED'), ('UNSPECIFIED') ) ;
#375 = PRODUCT ( 'C-30-RK-45-ÃÞÌ«ÙÄ', 'C-30-RK-45-ÃÞÌ«ÙÄ', '', ( #376 ) ) ;
#376 = MECHANICAL_CONTEXT ( 'NONE', #378, 'mechanical' ) ;
#377 = APPLICATION_PROTOCOL_DEFINITION ( 'international standard', 'config_control_design', 1994, #378 ) ;
#378 = APPLICATION_CONTEXT ( 'configuration controlled 3d designs of mechanical parts and assemblies' ) ;
#379 = DIRECTION ( 'NONE',  ( 1.000000000000000000, 0.0000000000000000000, 0.0000000000000000000 ) ) ;
#380 = CARTESIAN_POINT ( 'NONE',  ( 0.0000000000000000000, 0.0000000000000000000, 0.0000000000000000000 ) ) ;
#381 = AXIS2_PLACEMENT_3D ( 'NONE', #380, #283, #379 ) ;
ENDSEC;
END-ISO-10303-21;
