ISO-10303-21;
HEADER;
FILE_DESCRIPTION (( 'STEP AP203' ),
    '1' );
FILE_NAME ('C-30-RK-45-gray.STEP',
    '2009-06-29T02:31:20',
    ( '11sw' ),
    ( '^LQ»¢®ïÐ' ),
    'SwSTEP 2.0',
    'SolidWorks 2007',
    '' );
FILE_SCHEMA (( 'CONFIG_CONTROL_DESIGN' ));
ENDSEC;

DATA;
#1 = ORIENTED_EDGE ( 'NONE', *, *, #81, .F. ) ;
#2 = ORIENTED_EDGE ( 'NONE', *, *, #129, .F. ) ;
#3 = ADVANCED_FACE ( 'NONE', ( #113, #112 ), #111, .F. ) ;
#4 = EDGE_LOOP ( 'NONE', ( #1, #28, #39, #53 ) ) ;
#5 = ADVANCED_FACE ( 'NONE', ( #110 ), #104, .T. ) ;
#6 = ORIENTED_EDGE ( 'NONE', *, *, #122, .T. ) ;
#7 = EDGE_CURVE ( 'NONE', #79, #36, #99, .T. ) ;
#8 = ORIENTED_EDGE ( 'NONE', *, *, #18, .F. ) ;
#9 = APPROVAL_ROLE ( '' ) ;
#10 = APPROVAL ( #11, 'UNSPECIFIED' ) ;
#11 = APPROVAL_STATUS ( 'not_yet_approved' ) ;
#12 = PERSON_AND_ORGANIZATION ( #292, #291 ) ;
#13 = PRODUCT_DEFINITION_FORMATION_WITH_SPECIFIED_SOURCE ( 'ANY', '', #293, .NOT_KNOWN. ) ;
#14 = ADVANCED_FACE ( 'NONE', ( #330 ), #328, .T. ) ;
#15 = EDGE_LOOP ( 'NONE', ( #16, #17, #8, #33 ) ) ;
#16 = ORIENTED_EDGE ( 'NONE', *, *, #77, .T. ) ;
#17 = ORIENTED_EDGE ( 'NONE', *, *, #7, .T. ) ;
#18 = EDGE_CURVE ( 'NONE', #35, #36, #139, .T. ) ;
#19 = ORIENTED_EDGE ( 'NONE', *, *, #60, .F. ) ;
#20 = EDGE_LOOP ( 'NONE', ( #45, #6 ) ) ;
#21 = ADVANCED_FACE ( 'NONE', ( #263, #262 ), #261, .F. ) ;
#22 = EDGE_LOOP ( 'NONE', ( #19, #55 ) ) ;
#23 = ORIENTED_EDGE ( 'NONE', *, *, #24, .F. ) ;
#24 = EDGE_CURVE ( 'NONE', #36, #35, #256, .T. ) ;
#25 = EDGE_CURVE ( 'NONE', #79, #78, #251, .T. ) ;
#26 = ORIENTED_EDGE ( 'NONE', *, *, #27, .F. ) ;
#27 = EDGE_CURVE ( 'NONE', #64, #63, #246, .T. ) ;
#28 = ORIENTED_EDGE ( 'NONE', *, *, #25, .F. ) ;
#29 = ORIENTED_EDGE ( 'NONE', *, *, #38, .T. ) ;
#30 = ADVANCED_FACE ( 'NONE', ( #241 ), #240, .T. ) ;
#31 = ORIENTED_EDGE ( 'NONE', *, *, #7, .F. ) ;
#32 = EDGE_LOOP ( 'NONE', ( #31, #42, #71, #23 ) ) ;
#33 = ORIENTED_EDGE ( 'NONE', *, *, #34, .F. ) ;
#34 = EDGE_CURVE ( 'NONE', #78, #35, #235, .T. ) ;
#35 = VERTEX_POINT ( 'NONE', #230 ) ;
#36 = VERTEX_POINT ( 'NONE', #229 ) ;
#37 = ORIENTED_EDGE ( 'NONE', *, *, #38, .F. ) ;
#38 = EDGE_CURVE ( 'NONE', #130, #127, #227, .T. ) ;
#39 = ORIENTED_EDGE ( 'NONE', *, *, #87, .T. ) ;
#40 = ADVANCED_FACE ( 'NONE', ( #228, #222 ), #221, .F. ) ;
#41 = ORIENTED_EDGE ( 'NONE', *, *, #24, .T. ) ;
#42 = ORIENTED_EDGE ( 'NONE', *, *, #25, .T. ) ;
#43 = EDGE_LOOP ( 'NONE', ( #44, #66 ) ) ;
#44 = ORIENTED_EDGE ( 'NONE', *, *, #27, .T. ) ;
#45 = ORIENTED_EDGE ( 'NONE', *, *, #67, .T. ) ;
#46 = ORIENTED_EDGE ( 'NONE', *, *, #47, .F. ) ;
#47 = EDGE_CURVE ( 'NONE', #91, #96, #216, .T. ) ;
#48 = EDGE_LOOP ( 'NONE', ( #49, #41 ) ) ;
#49 = ORIENTED_EDGE ( 'NONE', *, *, #18, .T. ) ;
#50 = EDGE_LOOP ( 'NONE', ( #46, #70 ) ) ;
#51 = ADVANCED_FACE ( 'NONE', ( #211 ), #210, .F. ) ;
#52 = EDGE_LOOP ( 'NONE', ( #59, #26, #56, #57 ) ) ;
#53 = ORIENTED_EDGE ( 'NONE', *, *, #60, .T. ) ;
#54 = CLOSED_SHELL ( 'NONE', ( #75, #88, #133, #14, #30, #3, #51, #40, #72, #21, #5 ) ) ;
#55 = ORIENTED_EDGE ( 'NONE', *, *, #84, .F. ) ;
#56 = ORIENTED_EDGE ( 'NONE', *, *, #93, .T. ) ;
#57 = ORIENTED_EDGE ( 'NONE', *, *, #47, .T. ) ;
#58 = EDGE_LOOP ( 'NONE', ( #37, #2 ) ) ;
#59 = ORIENTED_EDGE ( 'NONE', *, *, #95, .F. ) ;
#60 = EDGE_CURVE ( 'NONE', #85, #82, #204, .T. ) ;
#61 = ORIENTED_EDGE ( 'NONE', *, *, #62, .F. ) ;
#62 = EDGE_CURVE ( 'NONE', #63, #64, #200, .T. ) ;
#63 = VERTEX_POINT ( 'NONE', #178 ) ;
#64 = VERTEX_POINT ( 'NONE', #177 ) ;
#65 = ORIENTED_EDGE ( 'NONE', *, *, #67, .F. ) ;
#66 = ORIENTED_EDGE ( 'NONE', *, *, #62, .T. ) ;
#67 = EDGE_CURVE ( 'NONE', #124, #123, #176, .T. ) ;
#68 = ORIENTED_EDGE ( 'NONE', *, *, #132, .T. ) ;
#69 = ORIENTED_EDGE ( 'NONE', *, *, #126, .F. ) ;
#70 = ORIENTED_EDGE ( 'NONE', *, *, #90, .F. ) ;
#71 = ORIENTED_EDGE ( 'NONE', *, *, #34, .T. ) ;
#72 = ADVANCED_FACE ( 'NONE', ( #171 ), #170, .F. ) ;
#73 = EDGE_LOOP ( 'NONE', ( #76, #80, #83, #86 ) ) ;
#74 = MANIFOLD_SOLID_BREP ( 'NONE', #54 ) ;
#75 = ADVANCED_FACE ( 'NONE', ( #195 ), #194, .T. ) ;
#76 = ORIENTED_EDGE ( 'NONE', *, *, #77, .F. ) ;
#77 = EDGE_CURVE ( 'NONE', #78, #79, #189, .T. ) ;
#78 = VERTEX_POINT ( 'NONE', #185 ) ;
#79 = VERTEX_POINT ( 'NONE', #184 ) ;
#80 = ORIENTED_EDGE ( 'NONE', *, *, #81, .T. ) ;
#81 = EDGE_CURVE ( 'NONE', #78, #82, #183, .T. ) ;
#82 = VERTEX_POINT ( 'NONE', #165 ) ;
#83 = ORIENTED_EDGE ( 'NONE', *, *, #84, .T. ) ;
#84 = EDGE_CURVE ( 'NONE', #82, #85, #164, .T. ) ;
#85 = VERTEX_POINT ( 'NONE', #159 ) ;
#86 = ORIENTED_EDGE ( 'NONE', *, *, #87, .F. ) ;
#87 = EDGE_CURVE ( 'NONE', #79, #85, #158, .T. ) ;
#88 = ADVANCED_FACE ( 'NONE', ( #154 ), #152, .F. ) ;
#89 = ORIENTED_EDGE ( 'NONE', *, *, #90, .T. ) ;
#90 = EDGE_CURVE ( 'NONE', #96, #91, #147, .T. ) ;
#91 = VERTEX_POINT ( 'NONE', #143 ) ;
#92 = ORIENTED_EDGE ( 'NONE', *, *, #93, .F. ) ;
#93 = EDGE_CURVE ( 'NONE', #64, #91, #348, .T. ) ;
#94 = ORIENTED_EDGE ( 'NONE', *, *, #95, .T. ) ;
#95 = EDGE_CURVE ( 'NONE', #63, #96, #344, .T. ) ;
#96 = VERTEX_POINT ( 'NONE', #340 ) ;
#97 = EDGE_LOOP ( 'NONE', ( #69, #65, #68, #29 ) ) ;
#98 = AXIS2_PLACEMENT_3D ( 'NONE', #321, #332, #331 ) ;
#99 = CIRCLE ( 'NONE', #98, 3.499999999999999600 ) ;
#100 = APPROVAL_PERSON_ORGANIZATION ( #12, #10, #9 ) ;
#101 = DIRECTION ( 'NONE',  ( 0.0000000000000000000, 0.0000000000000000000, -1.000000000000000000 ) ) ;
#102 = DIRECTION ( 'NONE',  ( 0.0000000000000000000, -1.000000000000000000, 0.0000000000000000000 ) ) ;
#103 = AXIS2_PLACEMENT_3D ( 'NONE', #105, #102, #101 ) ;
#104 = CONICAL_SURFACE ( 'NONE', #103, 22.50000000000000000, 0.1831108172624840400 ) ;
#105 = CARTESIAN_POINT ( 'NONE',  ( -5.009326287108706300E-010, -26.99999999650043500, 0.0000000000000000000 ) ) ;
#106 = DIRECTION ( 'NONE',  ( 0.0000000000000000000, 0.0000000000000000000, -1.000000000000000000 ) ) ;
#107 = DIRECTION ( 'NONE',  ( 0.0000000000000000000, -1.000000000000000000, 0.0000000000000000000 ) ) ;
#108 = CARTESIAN_POINT ( 'NONE',  ( 14.58864031341675700, 3.499565423374446900E-009, 0.0000000000000000000 ) ) ;
#109 = AXIS2_PLACEMENT_3D ( 'NONE', #108, #107, #106 ) ;
#110 = FACE_OUTER_BOUND ( 'NONE', #4, .T. ) ;
#111 = PLANE ( 'NONE',  #109 ) ;
#112 = FACE_OUTER_BOUND ( 'NONE', #48, .T. ) ;
#113 = FACE_BOUND ( 'NONE', #50, .T. ) ;
#114 = CC_DESIGN_APPROVAL ( #10, ( #13 ) ) ;
#115 = APPROVAL_DATE_TIME ( #116, #10 ) ;
#116 = DATE_AND_TIME ( #117, #118 ) ;
#117 = CALENDAR_DATE ( 2009, 29, 6 ) ;
#118 = LOCAL_TIME ( 11, 31, 20.00000000000000000, #119 ) ;
#119 = COORDINATED_UNIVERSAL_TIME_OFFSET ( 9, 0, .AHEAD. ) ;
#120 = EDGE_LOOP ( 'NONE', ( #121, #125, #128, #131 ) ) ;
#121 = ORIENTED_EDGE ( 'NONE', *, *, #122, .F. ) ;
#122 = EDGE_CURVE ( 'NONE', #123, #124, #339, .T. ) ;
#123 = VERTEX_POINT ( 'NONE', #334 ) ;
#124 = VERTEX_POINT ( 'NONE', #333 ) ;
#125 = ORIENTED_EDGE ( 'NONE', *, *, #126, .T. ) ;
#126 = EDGE_CURVE ( 'NONE', #123, #127, #320, .T. ) ;
#127 = VERTEX_POINT ( 'NONE', #316 ) ;
#128 = ORIENTED_EDGE ( 'NONE', *, *, #129, .T. ) ;
#129 = EDGE_CURVE ( 'NONE', #127, #130, #315, .T. ) ;
#130 = VERTEX_POINT ( 'NONE', #310 ) ;
#131 = ORIENTED_EDGE ( 'NONE', *, *, #132, .F. ) ;
#132 = EDGE_CURVE ( 'NONE', #124, #130, #309, .T. ) ;
#133 = ADVANCED_FACE ( 'NONE', ( #305 ), #304, .F. ) ;
#134 = EDGE_LOOP ( 'NONE', ( #61, #94, #89, #92 ) ) ;
#135 = DIRECTION ( 'NONE',  ( 0.0000000000000000000, 0.0000000000000000000, 1.000000000000000000 ) ) ;
#136 = DIRECTION ( 'NONE',  ( 0.0000000000000000000, 1.000000000000000000, 0.0000000000000000000 ) ) ;
#137 = CARTESIAN_POINT ( 'NONE',  ( -5.009326287108706300E-010, 3.499565654624392500E-009, 0.0000000000000000000 ) ) ;
#138 = AXIS2_PLACEMENT_3D ( 'NONE', #137, #136, #135 ) ;
#139 = CIRCLE ( 'NONE', #138, 14.58864031391769000 ) ;
#140 = DIRECTION ( 'NONE',  ( 0.0000000000000000000, 0.0000000000000000000, 1.000000000000000000 ) ) ;
#141 = DIRECTION ( 'NONE',  ( 0.0000000000000000000, 1.000000000000000000, 0.0000000000000000000 ) ) ;
#142 = AXIS2_PLACEMENT_3D ( 'NONE', #329, #141, #140 ) ;
#143 = CARTESIAN_POINT ( 'NONE',  ( -5.009326287108706300E-010, 3.499565220943523500E-009, 6.000000000000000000 ) ) ;
#144 = DIRECTION ( 'NONE',  ( 0.0000000000000000000, 0.0000000000000000000, 1.000000000000000000 ) ) ;
#145 = DIRECTION ( 'NONE',  ( 0.0000000000000000000, 1.000000000000000000, 0.0000000000000000000 ) ) ;
#146 = AXIS2_PLACEMENT_3D ( 'NONE', #153, #145, #144 ) ;
#147 = CIRCLE ( 'NONE', #146, 6.000000000000000000 ) ;
#148 = DIRECTION ( 'NONE',  ( 0.0000000000000000000, 0.0000000000000000000, 1.000000000000000000 ) ) ;
#149 = DIRECTION ( 'NONE',  ( 0.0000000000000000000, 1.000000000000000000, 0.0000000000000000000 ) ) ;
#150 = CARTESIAN_POINT ( 'NONE',  ( -5.009326287108706300E-010, 2.412507003500041800, 0.0000000000000000000 ) ) ;
#151 = AXIS2_PLACEMENT_3D ( 'NONE', #150, #149, #148 ) ;
#152 = CYLINDRICAL_SURFACE ( 'NONE', #151, 2.500000000000000900 ) ;
#153 = CARTESIAN_POINT ( 'NONE',  ( -5.009326287108706300E-010, 3.499565220943523500E-009, 0.0000000000000000000 ) ) ;
#154 = FACE_OUTER_BOUND ( 'NONE', #120, .T. ) ;
#155 = DIRECTION ( 'NONE',  ( 0.0000000000000000000, -0.9832820049844602800, -0.1820892601823073100 ) ) ;
#156 = VECTOR ( 'NONE', #155, 999.9999999999998900 ) ;
#157 = CARTESIAN_POINT ( 'NONE',  ( -5.009326287108706300E-010, -26.99999999650043500, -22.50000000000000000 ) ) ;
#158 = LINE ( 'NONE', #157, #156 ) ;
#159 = CARTESIAN_POINT ( 'NONE',  ( -5.009326287108706300E-010, -26.99999999650043500, -22.50000000000000000 ) ) ;
#160 = DIRECTION ( 'NONE',  ( 0.0000000000000000000, 0.0000000000000000000, 1.000000000000000000 ) ) ;
#161 = DIRECTION ( 'NONE',  ( 0.0000000000000000000, 1.000000000000000000, 0.0000000000000000000 ) ) ;
#162 = CARTESIAN_POINT ( 'NONE',  ( -5.009326287108706300E-010, -26.99999999650043500, 0.0000000000000000000 ) ) ;
#163 = AXIS2_PLACEMENT_3D ( 'NONE', #162, #161, #160 ) ;
#164 = CIRCLE ( 'NONE', #163, 22.50000000000000000 ) ;
#165 = CARTESIAN_POINT ( 'NONE',  ( -5.009298733465745300E-010, -26.99999999650043500, 22.50000000000000000 ) ) ;
#166 = DIRECTION ( 'NONE',  ( 2.229876649820695800E-017, -0.9832820049844602800, 0.1820892601823073100 ) ) ;
#167 = VECTOR ( 'NONE', #166, 999.9999999999998900 ) ;
#168 = CARTESIAN_POINT ( 'NONE',  ( -5.009298733465745300E-010, -26.99999999650043500, 22.50000000000000000 ) ) ;
#169 = CARTESIAN_POINT ( 'NONE',  ( -5.009326287108706300E-010, -26.99999999650043500, 0.0000000000000000000 ) ) ;
#170 = CYLINDRICAL_SURFACE ( 'NONE', #199, 2.500000000000000900 ) ;
#171 = FACE_OUTER_BOUND ( 'NONE', #97, .T. ) ;
#172 = DIRECTION ( 'NONE',  ( 0.0000000000000000000, 0.0000000000000000000, 1.000000000000000000 ) ) ;
#173 = DIRECTION ( 'NONE',  ( 0.0000000000000000000, 1.000000000000000000, 0.0000000000000000000 ) ) ;
#174 = CARTESIAN_POINT ( 'NONE',  ( -5.009326287108706300E-010, -26.99999999650043500, 0.0000000000000000000 ) ) ;
#175 = AXIS2_PLACEMENT_3D ( 'NONE', #174, #173, #172 ) ;
#176 = CIRCLE ( 'NONE', #175, 2.500000000000001800 ) ;
#177 = CARTESIAN_POINT ( 'NONE',  ( -5.009326287108706300E-010, -11.99999999650043500, 6.000000000000001800 ) ) ;
#178 = CARTESIAN_POINT ( 'NONE',  ( -5.009318939470583400E-010, -11.99999999650043500, -6.000000000000002700 ) ) ;
#179 = DIRECTION ( 'NONE',  ( 0.0000000000000000000, 0.0000000000000000000, 1.000000000000000000 ) ) ;
#180 = DIRECTION ( 'NONE',  ( 0.0000000000000000000, 1.000000000000000000, 0.0000000000000000000 ) ) ;
#181 = CARTESIAN_POINT ( 'NONE',  ( -5.009326287108706300E-010, -11.99999999650043500, 0.0000000000000000000 ) ) ;
#182 = AXIS2_PLACEMENT_3D ( 'NONE', #181, #180, #179 ) ;
#183 = LINE ( 'NONE', #168, #167 ) ;
#184 = CARTESIAN_POINT ( 'NONE',  ( -5.009304207300215900E-010, -2.862687585862377900, -18.03012733136332500 ) ) ;
#185 = CARTESIAN_POINT ( 'NONE',  ( -5.009326287108706300E-010, -2.862687585862377900, 18.03012733136332500 ) ) ;
#186 = DIRECTION ( 'NONE',  ( 0.0000000000000000000, 0.0000000000000000000, 1.000000000000000000 ) ) ;
#187 = DIRECTION ( 'NONE',  ( 0.0000000000000000000, 1.000000000000000000, 0.0000000000000000000 ) ) ;
#188 = AXIS2_PLACEMENT_3D ( 'NONE', #193, #187, #186 ) ;
#189 = CIRCLE ( 'NONE', #188, 18.03012733136332500 ) ;
#190 = DIRECTION ( 'NONE',  ( 0.0000000000000000000, 0.0000000000000000000, -1.000000000000000000 ) ) ;
#191 = DIRECTION ( 'NONE',  ( 0.0000000000000000000, -1.000000000000000000, 0.0000000000000000000 ) ) ;
#192 = AXIS2_PLACEMENT_3D ( 'NONE', #169, #191, #190 ) ;
#193 = CARTESIAN_POINT ( 'NONE',  ( -5.009326287108706300E-010, -2.862687585862377900, 0.0000000000000000000 ) ) ;
#194 = CONICAL_SURFACE ( 'NONE', #192, 22.50000000000000000, 0.1831108172624840400 ) ;
#195 = FACE_OUTER_BOUND ( 'NONE', #73, .T. ) ;
#196 = DIRECTION ( 'NONE',  ( 0.0000000000000000000, 0.0000000000000000000, 1.000000000000000000 ) ) ;
#197 = DIRECTION ( 'NONE',  ( 0.0000000000000000000, 1.000000000000000000, 0.0000000000000000000 ) ) ;
#198 = CARTESIAN_POINT ( 'NONE',  ( -5.009326287108706300E-010, 2.412507003500041800, 0.0000000000000000000 ) ) ;
#199 = AXIS2_PLACEMENT_3D ( 'NONE', #198, #197, #196 ) ;
#200 = CIRCLE ( 'NONE', #182, 6.000000000000001800 ) ;
#201 = DIRECTION ( 'NONE',  ( 0.0000000000000000000, 0.0000000000000000000, 1.000000000000000000 ) ) ;
#202 = DIRECTION ( 'NONE',  ( 0.0000000000000000000, 1.000000000000000000, 0.0000000000000000000 ) ) ;
#203 = AXIS2_PLACEMENT_3D ( 'NONE', #209, #202, #201 ) ;
#204 = CIRCLE ( 'NONE', #203, 22.50000000000000000 ) ;
#205 = DIRECTION ( 'NONE',  ( 0.0000000000000000000, 0.0000000000000000000, 1.000000000000000000 ) ) ;
#206 = DIRECTION ( 'NONE',  ( 0.0000000000000000000, 1.000000000000000000, 0.0000000000000000000 ) ) ;
#207 = CARTESIAN_POINT ( 'NONE',  ( -5.009326287108706300E-010, 2.412507003500041800, 0.0000000000000000000 ) ) ;
#208 = AXIS2_PLACEMENT_3D ( 'NONE', #207, #206, #205 ) ;
#209 = CARTESIAN_POINT ( 'NONE',  ( -5.009326287108706300E-010, -26.99999999650043500, 0.0000000000000000000 ) ) ;
#210 = CYLINDRICAL_SURFACE ( 'NONE', #208, 6.000000000000000900 ) ;
#211 = FACE_OUTER_BOUND ( 'NONE', #52, .T. ) ;
#212 = DIRECTION ( 'NONE',  ( 0.0000000000000000000, 0.0000000000000000000, 1.000000000000000000 ) ) ;
#213 = DIRECTION ( 'NONE',  ( 0.0000000000000000000, 1.000000000000000000, 0.0000000000000000000 ) ) ;
#214 = CARTESIAN_POINT ( 'NONE',  ( -5.009326287108706300E-010, 3.499565220943523500E-009, 0.0000000000000000000 ) ) ;
#215 = AXIS2_PLACEMENT_3D ( 'NONE', #214, #213, #212 ) ;
#216 = CIRCLE ( 'NONE', #215, 6.000000000000000000 ) ;
#217 = DIRECTION ( 'NONE',  ( 0.0000000000000000000, 0.0000000000000000000, -1.000000000000000000 ) ) ;
#218 = DIRECTION ( 'NONE',  ( 0.0000000000000000000, -1.000000000000000000, 0.0000000000000000000 ) ) ;
#219 = CARTESIAN_POINT ( 'NONE',  ( 5.999999999499069100, -11.99999999650043500, 0.0000000000000000000 ) ) ;
#220 = AXIS2_PLACEMENT_3D ( 'NONE', #219, #218, #217 ) ;
#221 = PLANE ( 'NONE',  #220 ) ;
#222 = FACE_OUTER_BOUND ( 'NONE', #43, .T. ) ;
#223 = DIRECTION ( 'NONE',  ( 0.0000000000000000000, 0.0000000000000000000, 1.000000000000000000 ) ) ;
#224 = DIRECTION ( 'NONE',  ( 0.0000000000000000000, 1.000000000000000000, 0.0000000000000000000 ) ) ;
#225 = CARTESIAN_POINT ( 'NONE',  ( -5.009326287108706300E-010, -11.99999999650043500, 0.0000000000000000000 ) ) ;
#226 = AXIS2_PLACEMENT_3D ( 'NONE', #225, #224, #223 ) ;
#227 = CIRCLE ( 'NONE', #226, 2.500000000000000000 ) ;
#228 = FACE_BOUND ( 'NONE', #58, .T. ) ;
#229 = CARTESIAN_POINT ( 'NONE',  ( -5.009306314533649800E-010, 3.499565654624392500E-009, -14.58864031391769000 ) ) ;
#230 = CARTESIAN_POINT ( 'NONE',  ( -5.009326287108706300E-010, 3.499565654624392500E-009, 14.58864031391769000 ) ) ;
#231 = DIRECTION ( 'NONE',  ( 0.0000000000000000000, 0.0000000000000000000, 1.000000000000000000 ) ) ;
#232 = DIRECTION ( 'NONE',  ( -1.000000000000000000, 0.0000000000000000000, 0.0000000000000000000 ) ) ;
#233 = CARTESIAN_POINT ( 'NONE',  ( -5.009326287108706300E-010, -3.499999996500434000, 14.58864031391771100 ) ) ;
#234 = AXIS2_PLACEMENT_3D ( 'NONE', #233, #232, #231 ) ;
#235 = CIRCLE ( 'NONE', #234, 3.499999999999999600 ) ;
#236 = DIRECTION ( 'NONE',  ( 0.0000000000000000000, 0.0000000000000000000, 1.000000000000000000 ) ) ;
#237 = DIRECTION ( 'NONE',  ( 0.0000000000000000000, 1.000000000000000000, 0.0000000000000000000 ) ) ;
#238 = CARTESIAN_POINT ( 'NONE',  ( -5.009326287108706300E-010, -3.499999996500434000, 0.0000000000000000000 ) ) ;
#239 = AXIS2_PLACEMENT_3D ( 'NONE', #238, #237, #236 ) ;
#240 = TOROIDAL_SURFACE ( 'NONE', #239, 14.58864031391771100, 3.499999999999999600 ) ;
#241 = FACE_OUTER_BOUND ( 'NONE', #32, .T. ) ;
#242 = DIRECTION ( 'NONE',  ( 0.0000000000000000000, 0.0000000000000000000, 1.000000000000000000 ) ) ;
#243 = DIRECTION ( 'NONE',  ( 0.0000000000000000000, 1.000000000000000000, 0.0000000000000000000 ) ) ;
#244 = CARTESIAN_POINT ( 'NONE',  ( -5.009326287108706300E-010, -11.99999999650043500, 0.0000000000000000000 ) ) ;
#245 = AXIS2_PLACEMENT_3D ( 'NONE', #244, #243, #242 ) ;
#246 = CIRCLE ( 'NONE', #245, 6.000000000000001800 ) ;
#247 = DIRECTION ( 'NONE',  ( 0.0000000000000000000, 0.0000000000000000000, 1.000000000000000000 ) ) ;
#248 = DIRECTION ( 'NONE',  ( 0.0000000000000000000, 1.000000000000000000, 0.0000000000000000000 ) ) ;
#249 = CARTESIAN_POINT ( 'NONE',  ( -5.009326287108706300E-010, -2.862687585862377900, 0.0000000000000000000 ) ) ;
#250 = AXIS2_PLACEMENT_3D ( 'NONE', #249, #248, #247 ) ;
#251 = CIRCLE ( 'NONE', #250, 18.03012733136332500 ) ;
#252 = DIRECTION ( 'NONE',  ( 0.0000000000000000000, 0.0000000000000000000, 1.000000000000000000 ) ) ;
#253 = DIRECTION ( 'NONE',  ( 0.0000000000000000000, 1.000000000000000000, 0.0000000000000000000 ) ) ;
#254 = CARTESIAN_POINT ( 'NONE',  ( -5.009326287108706300E-010, 3.499565654624392500E-009, 0.0000000000000000000 ) ) ;
#255 = AXIS2_PLACEMENT_3D ( 'NONE', #254, #253, #252 ) ;
#256 = CIRCLE ( 'NONE', #255, 14.58864031391769000 ) ;
#257 = DIRECTION ( 'NONE',  ( 0.0000000000000000000, 0.0000000000000000000, 1.000000000000000000 ) ) ;
#258 = DIRECTION ( 'NONE',  ( 0.0000000000000000000, 1.000000000000000000, 0.0000000000000000000 ) ) ;
#259 = CARTESIAN_POINT ( 'NONE',  ( 2.499999999499069100, -26.99999999650043500, 0.0000000000000000000 ) ) ;
#260 = AXIS2_PLACEMENT_3D ( 'NONE', #259, #258, #257 ) ;
#261 = PLANE ( 'NONE',  #260 ) ;
#262 = FACE_BOUND ( 'NONE', #20, .T. ) ;
#263 = FACE_OUTER_BOUND ( 'NONE', #22, .T. ) ;
#264 = CC_DESIGN_DATE_AND_TIME_ASSIGNMENT ( #266, #265, ( #284 ) ) ;
#265 = DATE_TIME_ROLE ( 'creation_date' ) ;
#266 = DATE_AND_TIME ( #267, #268 ) ;
#267 = CALENDAR_DATE ( 2009, 29, 6 ) ;
#268 = LOCAL_TIME ( 11, 31, 20.00000000000000000, #269 ) ;
#269 = COORDINATED_UNIVERSAL_TIME_OFFSET ( 9, 0, .AHEAD. ) ;
#270 = CC_DESIGN_PERSON_AND_ORGANIZATION_ASSIGNMENT ( #272, #271, ( #284 ) ) ;
#271 = PERSON_AND_ORGANIZATION_ROLE ( 'creator' ) ;
#272 = PERSON_AND_ORGANIZATION ( #292, #291 ) ;
#273 = CC_DESIGN_APPROVAL ( #281, ( #284 ) ) ;
#274 = APPROVAL_DATE_TIME ( #275, #281 ) ;
#275 = DATE_AND_TIME ( #276, #277 ) ;
#276 = CALENDAR_DATE ( 2009, 29, 6 ) ;
#277 = LOCAL_TIME ( 11, 31, 20.00000000000000000, #278 ) ;
#278 = COORDINATED_UNIVERSAL_TIME_OFFSET ( 9, 0, .AHEAD. ) ;
#279 = APPROVAL_PERSON_ORGANIZATION ( #283, #281, #280 ) ;
#280 = APPROVAL_ROLE ( '' ) ;
#281 = APPROVAL ( #282, 'UNSPECIFIED' ) ;
#282 = APPROVAL_STATUS ( 'not_yet_approved' ) ;
#283 = PERSON_AND_ORGANIZATION ( #292, #291 ) ;
#284 = PRODUCT_DEFINITION ( 'UNKNOWN', '', #13, #285 ) ;
#285 = DESIGN_CONTEXT ( 'detailed design', #287, 'design' ) ;
#286 = APPLICATION_PROTOCOL_DEFINITION ( 'international standard', 'config_control_design', 1994, #287 ) ;
#287 = APPLICATION_CONTEXT ( 'configuration controlled 3d designs of mechanical parts and assemblies' ) ;
#288 = CC_DESIGN_PERSON_AND_ORGANIZATION_ASSIGNMENT ( #290, #289, ( #293 ) ) ;
#289 = PERSON_AND_ORGANIZATION_ROLE ( 'design_owner' ) ;
#290 = PERSON_AND_ORGANIZATION ( #292, #291 ) ;
#291 = ORGANIZATION ( 'UNSPECIFIED', 'UNSPECIFIED', '' ) ;
#292 = PERSON ( 'UNSPECIFIED', 'UNSPECIFIED', 'UNSPECIFIED', ('UNSPECIFIED'), ('UNSPECIFIED'), ('UNSPECIFIED') ) ;
#293 = PRODUCT ( 'C-30-RK-45-gray', 'C-30-RK-45-gray', '', ( #294 ) ) ;
#294 = MECHANICAL_CONTEXT ( 'NONE', #349, 'mechanical' ) ;
#295 = APPLICATION_PROTOCOL_DEFINITION ( 'international standard', 'config_control_design', 1994, #349 ) ;
#296 =( NAMED_UNIT ( * ) SI_UNIT ( $, .STERADIAN. ) SOLID_ANGLE_UNIT ( ) );
#297 =( NAMED_UNIT ( * ) PLANE_ANGLE_UNIT ( ) SI_UNIT ( $, .RADIAN. ) );
#298 =( LENGTH_UNIT ( ) NAMED_UNIT ( * ) SI_UNIT ( .MILLI., .METRE. ) );
#299 = CARTESIAN_POINT ( 'NONE',  ( 0.0000000000000000000, 0.0000000000000000000, 0.0000000000000000000 ) ) ;
#300 = DIRECTION ( 'NONE',  ( 0.0000000000000000000, 0.0000000000000000000, 1.000000000000000000 ) ) ;
#301 = DIRECTION ( 'NONE',  ( 0.0000000000000000000, 1.000000000000000000, 0.0000000000000000000 ) ) ;
#302 = CARTESIAN_POINT ( 'NONE',  ( -5.009326287108706300E-010, 2.412507003500041800, 0.0000000000000000000 ) ) ;
#303 = AXIS2_PLACEMENT_3D ( 'NONE', #302, #301, #300 ) ;
#304 = CYLINDRICAL_SURFACE ( 'NONE', #303, 6.000000000000000900 ) ;
#305 = FACE_OUTER_BOUND ( 'NONE', #134, .T. ) ;
#306 = DIRECTION ( 'NONE',  ( 0.0000000000000000000, 1.000000000000000000, 0.0000000000000000000 ) ) ;
#307 = VECTOR ( 'NONE', #306, 1000.000000000000000 ) ;
#308 = CARTESIAN_POINT ( 'NONE',  ( -5.009326287108706300E-010, 2.412507003500041800, 2.500000000000000900 ) ) ;
#309 = LINE ( 'NONE', #308, #307 ) ;
#310 = CARTESIAN_POINT ( 'NONE',  ( -5.009326287108706300E-010, -11.99999999650043500, 2.500000000000000000 ) ) ;
#311 = DIRECTION ( 'NONE',  ( 0.0000000000000000000, 0.0000000000000000000, 1.000000000000000000 ) ) ;
#312 = DIRECTION ( 'NONE',  ( 0.0000000000000000000, 1.000000000000000000, 0.0000000000000000000 ) ) ;
#313 = CARTESIAN_POINT ( 'NONE',  ( -5.009326287108706300E-010, -11.99999999650043500, 0.0000000000000000000 ) ) ;
#314 = AXIS2_PLACEMENT_3D ( 'NONE', #313, #312, #311 ) ;
#315 = CIRCLE ( 'NONE', #314, 2.500000000000000000 ) ;
#316 = CARTESIAN_POINT ( 'NONE',  ( -5.009323225592821800E-010, -11.99999999650043500, -2.500000000000000000 ) ) ;
#317 = DIRECTION ( 'NONE',  ( 0.0000000000000000000, 1.000000000000000000, 0.0000000000000000000 ) ) ;
#318 = VECTOR ( 'NONE', #317, 1000.000000000000000 ) ;
#319 = CARTESIAN_POINT ( 'NONE',  ( -5.009323225592821800E-010, 2.412507003500041800, -2.500000000000000900 ) ) ;
#320 = LINE ( 'NONE', #319, #318 ) ;
#321 = CARTESIAN_POINT ( 'NONE',  ( -5.009308421767083700E-010, -3.499999996500434000, -14.58864031391771100 ) ) ;
#322 = DIRECTION ( 'NONE',  ( 1.000000000000000000, 0.0000000000000000000, 0.0000000000000000000 ) ) ;
#323 = DIRECTION ( 'NONE',  ( 0.0000000000000000000, 0.0000000000000000000, 1.000000000000000000 ) ) ;
#324 = AXIS2_PLACEMENT_3D ( 'NONE', #299, #323, #322 ) ;
#325 = ADVANCED_BREP_SHAPE_REPRESENTATION ( 'C-30-RK-45-gray', ( #74, #324 ), #326 ) ;
#326 =( GEOMETRIC_REPRESENTATION_CONTEXT ( 3 ) GLOBAL_UNCERTAINTY_ASSIGNED_CONTEXT ( ( #327 ) ) GLOBAL_UNIT_ASSIGNED_CONTEXT ( ( #298, #297, #296 ) ) REPRESENTATION_CONTEXT ( 'NONE', 'WORKASPACE' ) );
#327 = UNCERTAINTY_MEASURE_WITH_UNIT (LENGTH_MEASURE( 1.000000000000000100E-005 ), #298, 'distance_accuracy_value', 'NONE');
#328 = TOROIDAL_SURFACE ( 'NONE', #142, 14.58864031391771100, 3.499999999999999600 ) ;
#329 = CARTESIAN_POINT ( 'NONE',  ( -5.009326287108706300E-010, -3.499999996500434000, 0.0000000000000000000 ) ) ;
#330 = FACE_OUTER_BOUND ( 'NONE', #15, .T. ) ;
#331 = DIRECTION ( 'NONE',  ( 1.224606353900848700E-016, 0.0000000000000000000, -1.000000000000000000 ) ) ;
#332 = DIRECTION ( 'NONE',  ( 1.000000000000000000, 0.0000000000000000000, 1.224606353822377300E-016 ) ) ;
#333 = CARTESIAN_POINT ( 'NONE',  ( -5.009326287108706300E-010, -26.99999999650043500, 2.500000000000001800 ) ) ;
#334 = CARTESIAN_POINT ( 'NONE',  ( -5.009323225592821800E-010, -26.99999999650043500, -2.500000000000002200 ) ) ;
#335 = DIRECTION ( 'NONE',  ( 0.0000000000000000000, 0.0000000000000000000, 1.000000000000000000 ) ) ;
#336 = DIRECTION ( 'NONE',  ( 0.0000000000000000000, 1.000000000000000000, 0.0000000000000000000 ) ) ;
#337 = CARTESIAN_POINT ( 'NONE',  ( -5.009326287108706300E-010, -26.99999999650043500, 0.0000000000000000000 ) ) ;
#338 = AXIS2_PLACEMENT_3D ( 'NONE', #337, #336, #335 ) ;
#339 = CIRCLE ( 'NONE', #338, 2.500000000000001800 ) ;
#340 = CARTESIAN_POINT ( 'NONE',  ( -5.009318939470583400E-010, 3.499565220943523500E-009, -6.000000000000000000 ) ) ;
#341 = DIRECTION ( 'NONE',  ( 0.0000000000000000000, 1.000000000000000000, 0.0000000000000000000 ) ) ;
#342 = VECTOR ( 'NONE', #341, 1000.000000000000000 ) ;
#343 = CARTESIAN_POINT ( 'NONE',  ( -5.009318939470583400E-010, 2.412507003500041800, -6.000000000000000900 ) ) ;
#344 = LINE ( 'NONE', #343, #342 ) ;
#345 = DIRECTION ( 'NONE',  ( 0.0000000000000000000, 1.000000000000000000, 0.0000000000000000000 ) ) ;
#346 = VECTOR ( 'NONE', #345, 1000.000000000000000 ) ;
#347 = CARTESIAN_POINT ( 'NONE',  ( -5.009326287108706300E-010, 2.412507003500041800, 6.000000000000000900 ) ) ;
#348 = LINE ( 'NONE', #347, #346 ) ;
#349 = APPLICATION_CONTEXT ( 'configuration controlled 3d designs of mechanical parts and assemblies' ) ;
#350 = COORDINATED_UNIVERSAL_TIME_OFFSET ( 9, 0, .AHEAD. ) ;
#351 = PERSON_AND_ORGANIZATION_ROLE ( 'classification_officer' ) ;
#352 = PERSON_AND_ORGANIZATION ( #292, #291 ) ;
#353 = SECURITY_CLASSIFICATION ( '', '', #354 ) ;
#354 = SECURITY_CLASSIFICATION_LEVEL ( 'unclassified' ) ;
#355 = DATE_AND_TIME ( #361, #356 ) ;
#356 = LOCAL_TIME ( 11, 31, 20.00000000000000000, #350 ) ;
#357 = CC_DESIGN_PERSON_AND_ORGANIZATION_ASSIGNMENT ( #352, #351, ( #353 ) ) ;
#358 = PERSON_AND_ORGANIZATION ( #292, #291 ) ;
#359 = CC_DESIGN_DATE_AND_TIME_ASSIGNMENT ( #355, #360, ( #353 ) ) ;
#360 = DATE_TIME_ROLE ( 'classification_date' ) ;
#361 = CALENDAR_DATE ( 2009, 29, 6 ) ;
#362 = PERSON_AND_ORGANIZATION ( #292, #291 ) ;
#363 = PERSON_AND_ORGANIZATION ( #292, #291 ) ;
#364 = PERSON_AND_ORGANIZATION_ROLE ( 'creator' ) ;
#365 = SHAPE_DEFINITION_REPRESENTATION ( #366, #325 ) ;
#366 = PRODUCT_DEFINITION_SHAPE ( 'NONE', 'NONE',  #284 ) ;
#367 = PRODUCT_RELATED_PRODUCT_CATEGORY ( 'detail', '', ( #293 ) ) ;
#368 = CC_DESIGN_PERSON_AND_ORGANIZATION_ASSIGNMENT ( #363, #369, ( #13 ) ) ;
#369 = PERSON_AND_ORGANIZATION_ROLE ( 'design_supplier' ) ;
#370 = CC_DESIGN_PERSON_AND_ORGANIZATION_ASSIGNMENT ( #362, #364, ( #13 ) ) ;
#371 = CC_DESIGN_SECURITY_CLASSIFICATION ( #353, ( #13 ) ) ;
#372 = CC_DESIGN_APPROVAL ( #380, ( #353 ) ) ;
#373 = APPROVAL_DATE_TIME ( #376, #380 ) ;
#374 = CALENDAR_DATE ( 2009, 29, 6 ) ;
#375 = LOCAL_TIME ( 11, 31, 20.00000000000000000, #377 ) ;
#376 = DATE_AND_TIME ( #374, #375 ) ;
#377 = COORDINATED_UNIVERSAL_TIME_OFFSET ( 9, 0, .AHEAD. ) ;
#378 = APPROVAL_PERSON_ORGANIZATION ( #358, #380, #379 ) ;
#379 = APPROVAL_ROLE ( '' ) ;
#380 = APPROVAL ( #381, 'UNSPECIFIED' ) ;
#381 = APPROVAL_STATUS ( 'not_yet_approved' ) ;
ENDSEC;
END-ISO-10303-21;
