ISO-10303-21;
HEADER;
FILE_DESCRIPTION (( 'STEP AP203' ),
    '1' );
FILE_NAME ('C-30-RK-45.STEP',
    '2009-06-26T07:22:53',
    ( '11sw' ),
    ( '^LQ»¢®ïÐ' ),
    'SwSTEP 2.0',
    'SolidWorks 2007',
    '' );
FILE_SCHEMA (( 'CONFIG_CONTROL_DESIGN' ));
ENDSEC;

DATA;
#1 = ORIENTED_EDGE ( 'NONE', *, *, #14, .T. ) ;
#2 = ORIENTED_EDGE ( 'NONE', *, *, #45, .T. ) ;
#3 = ORIENTED_EDGE ( 'NONE', *, *, #54, .F. ) ;
#4 = EDGE_LOOP ( 'NONE', ( #3, #6, #2, #1 ) ) ;
#5 = EDGE_CURVE ( 'NONE', #52, #51, #248, .T. ) ;
#6 = ORIENTED_EDGE ( 'NONE', *, *, #5, .F. ) ;
#7 = ADVANCED_FACE ( 'NONE', ( #300 ), #298, .F. ) ;
#8 = EDGE_LOOP ( 'NONE', ( #9, #10 ) ) ;
#9 = ORIENTED_EDGE ( 'NONE', *, *, #102, .T. ) ;
#10 = ORIENTED_EDGE ( 'NONE', *, *, #18, .T. ) ;
#11 = ORIENTED_EDGE ( 'NONE', *, *, #42, .F. ) ;
#12 = EDGE_LOOP ( 'NONE', ( #13, #11 ) ) ;
#13 = ORIENTED_EDGE ( 'NONE', *, *, #14, .F. ) ;
#14 = EDGE_CURVE ( 'NONE', #43, #55, #254, .T. ) ;
#15 = ADVANCED_FACE ( 'NONE', ( #295, #294 ), #293, .F. ) ;
#16 =( NAMED_UNIT ( * ) SI_UNIT ( $, .STERADIAN. ) SOLID_ANGLE_UNIT ( ) );
#17 = ORIENTED_EDGE ( 'NONE', *, *, #18, .F. ) ;
#18 = EDGE_CURVE ( 'NONE', #91, #97, #209, .T. ) ;
#19 =( NAMED_UNIT ( * ) PLANE_ANGLE_UNIT ( ) SI_UNIT ( $, .RADIAN. ) );
#20 = UNCERTAINTY_MEASURE_WITH_UNIT (LENGTH_MEASURE( 1.000000000000000100E-005 ), #252, 'distance_accuracy_value', 'NONE');
#21 = ADVANCED_BREP_SHAPE_REPRESENTATION ( 'C-30-RK-45', ( #109, #301 ), #22 ) ;
#22 =( GEOMETRIC_REPRESENTATION_CONTEXT ( 3 ) GLOBAL_UNCERTAINTY_ASSIGNED_CONTEXT ( ( #20 ) ) GLOBAL_UNIT_ASSIGNED_CONTEXT ( ( #252, #19, #16 ) ) REPRESENTATION_CONTEXT ( 'NONE', 'WORKASPACE' ) );
#23 = ADVANCED_FACE ( 'NONE', ( #205, #204 ), #203, .F. ) ;
#24 = EDGE_LOOP ( 'NONE', ( #25, #27 ) ) ;
#25 = ORIENTED_EDGE ( 'NONE', *, *, #26, .F. ) ;
#26 = EDGE_CURVE ( 'NONE', #35, #40, #198, .T. ) ;
#27 = ORIENTED_EDGE ( 'NONE', *, *, #34, .F. ) ;
#28 = EDGE_LOOP ( 'NONE', ( #29, #68 ) ) ;
#29 = ORIENTED_EDGE ( 'NONE', *, *, #5, .T. ) ;
#30 = EDGE_LOOP ( 'NONE', ( #70, #71, #73, #74 ) ) ;
#31 = EDGE_LOOP ( 'NONE', ( #93, #94, #96, #17 ) ) ;
#32 = ADVANCED_FACE ( 'NONE', ( #193 ), #192, .F. ) ;
#33 = ORIENTED_EDGE ( 'NONE', *, *, #46, .F. ) ;
#34 = EDGE_CURVE ( 'NONE', #40, #35, #186, .T. ) ;
#35 = VERTEX_POINT ( 'NONE', #182 ) ;
#36 = ORIENTED_EDGE ( 'NONE', *, *, #37, .F. ) ;
#37 = EDGE_CURVE ( 'NONE', #56, #35, #181, .T. ) ;
#38 = EDGE_LOOP ( 'NONE', ( #49, #53, #41, #44 ) ) ;
#39 = EDGE_CURVE ( 'NONE', #59, #40, #177, .T. ) ;
#40 = VERTEX_POINT ( 'NONE', #173 ) ;
#41 = ORIENTED_EDGE ( 'NONE', *, *, #42, .T. ) ;
#42 = EDGE_CURVE ( 'NONE', #55, #43, #172, .T. ) ;
#43 = VERTEX_POINT ( 'NONE', #167 ) ;
#44 = ORIENTED_EDGE ( 'NONE', *, *, #45, .F. ) ;
#45 = EDGE_CURVE ( 'NONE', #52, #43, #166, .T. ) ;
#46 = EDGE_CURVE ( 'NONE', #59, #56, #162, .T. ) ;
#47 = ORIENTED_EDGE ( 'NONE', *, *, #39, .T. ) ;
#48 = ADVANCED_FACE ( 'NONE', ( #157 ), #156, .F. ) ;
#49 = ORIENTED_EDGE ( 'NONE', *, *, #50, .F. ) ;
#50 = EDGE_CURVE ( 'NONE', #51, #52, #150, .T. ) ;
#51 = VERTEX_POINT ( 'NONE', #146 ) ;
#52 = VERTEX_POINT ( 'NONE', #145 ) ;
#53 = ORIENTED_EDGE ( 'NONE', *, *, #54, .T. ) ;
#54 = EDGE_CURVE ( 'NONE', #51, #55, #144, .T. ) ;
#55 = VERTEX_POINT ( 'NONE', #140 ) ;
#56 = VERTEX_POINT ( 'NONE', #139 ) ;
#57 = ORIENTED_EDGE ( 'NONE', *, *, #34, .T. ) ;
#58 = EDGE_LOOP ( 'NONE', ( #33, #47, #57, #36 ) ) ;
#59 = VERTEX_POINT ( 'NONE', #138 ) ;
#60 = EDGE_CURVE ( 'NONE', #67, #112, #137, .T. ) ;
#61 = ORIENTED_EDGE ( 'NONE', *, *, #60, .F. ) ;
#62 = EDGE_CURVE ( 'NONE', #106, #64, #133, .T. ) ;
#63 = ORIENTED_EDGE ( 'NONE', *, *, #65, .T. ) ;
#64 = VERTEX_POINT ( 'NONE', #129 ) ;
#65 = EDGE_CURVE ( 'NONE', #64, #112, #128, .T. ) ;
#66 = ORIENTED_EDGE ( 'NONE', *, *, #62, .T. ) ;
#67 = VERTEX_POINT ( 'NONE', #123 ) ;
#68 = ORIENTED_EDGE ( 'NONE', *, *, #50, .T. ) ;
#69 = ADVANCED_FACE ( 'NONE', ( #122 ), #121, .F. ) ;
#70 = ORIENTED_EDGE ( 'NONE', *, *, #39, .F. ) ;
#71 = ORIENTED_EDGE ( 'NONE', *, *, #72, .F. ) ;
#72 = EDGE_CURVE ( 'NONE', #56, #59, #115, .T. ) ;
#73 = ORIENTED_EDGE ( 'NONE', *, *, #37, .T. ) ;
#74 = ORIENTED_EDGE ( 'NONE', *, *, #26, .T. ) ;
#75 = ADVANCED_FACE ( 'NONE', ( #241, #240 ), #239, .F. ) ;
#76 = EDGE_LOOP ( 'NONE', ( #77, #79 ) ) ;
#77 = ORIENTED_EDGE ( 'NONE', *, *, #78, .F. ) ;
#78 = EDGE_CURVE ( 'NONE', #112, #64, #234, .T. ) ;
#79 = ORIENTED_EDGE ( 'NONE', *, *, #65, .F. ) ;
#80 = EDGE_LOOP ( 'NONE', ( #81, #82 ) ) ;
#81 = ORIENTED_EDGE ( 'NONE', *, *, #72, .T. ) ;
#82 = ORIENTED_EDGE ( 'NONE', *, *, #46, .T. ) ;
#83 = ADVANCED_FACE ( 'NONE', ( #229 ), #228, .T. ) ;
#84 = EDGE_LOOP ( 'NONE', ( #85, #86, #87, #88 ) ) ;
#85 = ORIENTED_EDGE ( 'NONE', *, *, #62, .F. ) ;
#86 = ORIENTED_EDGE ( 'NONE', *, *, #95, .F. ) ;
#87 = ORIENTED_EDGE ( 'NONE', *, *, #60, .T. ) ;
#88 = ORIENTED_EDGE ( 'NONE', *, *, #78, .T. ) ;
#89 = CLOSED_SHELL ( 'NONE', ( #111, #32, #48, #99, #105, #15, #7, #23, #69, #75, #83 ) ) ;
#90 = EDGE_CURVE ( 'NONE', #67, #91, #227, .T. ) ;
#91 = VERTEX_POINT ( 'NONE', #218 ) ;
#92 = ORIENTED_EDGE ( 'NONE', *, *, #90, .T. ) ;
#93 = ORIENTED_EDGE ( 'NONE', *, *, #90, .F. ) ;
#94 = ORIENTED_EDGE ( 'NONE', *, *, #95, .T. ) ;
#95 = EDGE_CURVE ( 'NONE', #67, #106, #217, .T. ) ;
#96 = ORIENTED_EDGE ( 'NONE', *, *, #104, .T. ) ;
#97 = VERTEX_POINT ( 'NONE', #212 ) ;
#98 = ORIENTED_EDGE ( 'NONE', *, *, #104, .F. ) ;
#99 = ADVANCED_FACE ( 'NONE', ( #211 ), #210, .T. ) ;
#100 = EDGE_LOOP ( 'NONE', ( #103, #92, #101, #98 ) ) ;
#101 = ORIENTED_EDGE ( 'NONE', *, *, #102, .F. ) ;
#102 = EDGE_CURVE ( 'NONE', #97, #91, #259, .T. ) ;
#103 = ORIENTED_EDGE ( 'NONE', *, *, #107, .T. ) ;
#104 = EDGE_CURVE ( 'NONE', #106, #97, #255, .T. ) ;
#105 = ADVANCED_FACE ( 'NONE', ( #280 ), #279, .T. ) ;
#106 = VERTEX_POINT ( 'NONE', #274 ) ;
#107 = EDGE_CURVE ( 'NONE', #106, #67, #273, .T. ) ;
#108 = ORIENTED_EDGE ( 'NONE', *, *, #107, .F. ) ;
#109 = MANIFOLD_SOLID_BREP ( 'NONE', #89 ) ;
#110 = EDGE_LOOP ( 'NONE', ( #108, #66, #63, #61 ) ) ;
#111 = ADVANCED_FACE ( 'NONE', ( #291 ), #290, .T. ) ;
#112 = VERTEX_POINT ( 'NONE', #289 ) ;
#113 = DIRECTION ( 'NONE',  ( 0.0000000000000000000, 1.000000000000000000, 0.0000000000000000000 ) ) ;
#114 = AXIS2_PLACEMENT_3D ( 'NONE', #120, #113, #242 ) ;
#115 = CIRCLE ( 'NONE', #114, 2.500000000000001800 ) ;
#116 = DIRECTION ( 'NONE',  ( 0.0000000000000000000, 0.0000000000000000000, 1.000000000000000000 ) ) ;
#117 = DIRECTION ( 'NONE',  ( 0.0000000000000000000, 1.000000000000000000, 0.0000000000000000000 ) ) ;
#118 = CARTESIAN_POINT ( 'NONE',  ( -5.009326287108706300E-010, 2.412507003500041800, 0.0000000000000000000 ) ) ;
#119 = AXIS2_PLACEMENT_3D ( 'NONE', #118, #117, #116 ) ;
#120 = CARTESIAN_POINT ( 'NONE',  ( -5.009326287108706300E-010, -26.99999999650043500, 0.0000000000000000000 ) ) ;
#121 = CYLINDRICAL_SURFACE ( 'NONE', #119, 2.500000000000000900 ) ;
#122 = FACE_OUTER_BOUND ( 'NONE', #30, .T. ) ;
#123 = CARTESIAN_POINT ( 'NONE',  ( -5.009304207300215900E-010, -2.862687585862377900, -18.03012733136332500 ) ) ;
#124 = DIRECTION ( 'NONE',  ( 0.0000000000000000000, 0.0000000000000000000, 1.000000000000000000 ) ) ;
#125 = DIRECTION ( 'NONE',  ( 0.0000000000000000000, 1.000000000000000000, 0.0000000000000000000 ) ) ;
#126 = CARTESIAN_POINT ( 'NONE',  ( -5.009326287108706300E-010, -26.99999999650043500, 0.0000000000000000000 ) ) ;
#127 = AXIS2_PLACEMENT_3D ( 'NONE', #126, #125, #124 ) ;
#128 = CIRCLE ( 'NONE', #127, 22.50000000000000000 ) ;
#129 = CARTESIAN_POINT ( 'NONE',  ( -5.009298733465745300E-010, -26.99999999650043500, 22.50000000000000000 ) ) ;
#130 = DIRECTION ( 'NONE',  ( 2.229876649820695500E-017, -0.9832820049844601700, 0.1820892601823073100 ) ) ;
#131 = VECTOR ( 'NONE', #130, 1000.000000000000000 ) ;
#132 = CARTESIAN_POINT ( 'NONE',  ( -5.009298733465745300E-010, -26.99999999650043500, 22.50000000000000000 ) ) ;
#133 = LINE ( 'NONE', #132, #131 ) ;
#134 = DIRECTION ( 'NONE',  ( 0.0000000000000000000, -0.9832820049844601700, -0.1820892601823073100 ) ) ;
#135 = VECTOR ( 'NONE', #134, 1000.000000000000000 ) ;
#136 = CARTESIAN_POINT ( 'NONE',  ( -5.009326287108706300E-010, -26.99999999650043500, -22.50000000000000000 ) ) ;
#137 = LINE ( 'NONE', #136, #135 ) ;
#138 = CARTESIAN_POINT ( 'NONE',  ( -5.009323225592821800E-010, -26.99999999650043500, -2.500000000000001800 ) ) ;
#139 = CARTESIAN_POINT ( 'NONE',  ( -5.009326287108706300E-010, -26.99999999650043500, 2.500000000000001800 ) ) ;
#140 = CARTESIAN_POINT ( 'NONE',  ( -5.009318939470583400E-010, 3.499565220943523500E-009, -6.000000000000000000 ) ) ;
#141 = DIRECTION ( 'NONE',  ( 0.0000000000000000000, 1.000000000000000000, 0.0000000000000000000 ) ) ;
#142 = VECTOR ( 'NONE', #141, 1000.000000000000000 ) ;
#143 = CARTESIAN_POINT ( 'NONE',  ( -5.009318939470583400E-010, 2.412507003500041800, -6.000000000000000900 ) ) ;
#144 = LINE ( 'NONE', #143, #142 ) ;
#145 = CARTESIAN_POINT ( 'NONE',  ( -5.009326287108706300E-010, -11.99999999650043500, 6.000000000000001800 ) ) ;
#146 = CARTESIAN_POINT ( 'NONE',  ( -5.009318939470583400E-010, -11.99999999650043500, -6.000000000000001800 ) ) ;
#147 = DIRECTION ( 'NONE',  ( 0.0000000000000000000, 0.0000000000000000000, 1.000000000000000000 ) ) ;
#148 = DIRECTION ( 'NONE',  ( 0.0000000000000000000, 1.000000000000000000, 0.0000000000000000000 ) ) ;
#149 = AXIS2_PLACEMENT_3D ( 'NONE', #155, #148, #147 ) ;
#150 = CIRCLE ( 'NONE', #149, 6.000000000000001800 ) ;
#151 = DIRECTION ( 'NONE',  ( 0.0000000000000000000, 0.0000000000000000000, 1.000000000000000000 ) ) ;
#152 = DIRECTION ( 'NONE',  ( 0.0000000000000000000, 1.000000000000000000, 0.0000000000000000000 ) ) ;
#153 = CARTESIAN_POINT ( 'NONE',  ( -5.009326287108706300E-010, 2.412507003500041800, 0.0000000000000000000 ) ) ;
#154 = AXIS2_PLACEMENT_3D ( 'NONE', #153, #152, #151 ) ;
#155 = CARTESIAN_POINT ( 'NONE',  ( -5.009326287108706300E-010, -11.99999999650043500, 0.0000000000000000000 ) ) ;
#156 = CYLINDRICAL_SURFACE ( 'NONE', #154, 6.000000000000000900 ) ;
#157 = FACE_OUTER_BOUND ( 'NONE', #38, .T. ) ;
#158 = DIRECTION ( 'NONE',  ( 0.0000000000000000000, 0.0000000000000000000, 1.000000000000000000 ) ) ;
#159 = DIRECTION ( 'NONE',  ( 0.0000000000000000000, 1.000000000000000000, 0.0000000000000000000 ) ) ;
#160 = CARTESIAN_POINT ( 'NONE',  ( -5.009326287108706300E-010, -26.99999999650043500, 0.0000000000000000000 ) ) ;
#161 = AXIS2_PLACEMENT_3D ( 'NONE', #160, #159, #158 ) ;
#162 = CIRCLE ( 'NONE', #161, 2.500000000000001800 ) ;
#163 = DIRECTION ( 'NONE',  ( 0.0000000000000000000, 1.000000000000000000, 0.0000000000000000000 ) ) ;
#164 = VECTOR ( 'NONE', #163, 1000.000000000000000 ) ;
#165 = CARTESIAN_POINT ( 'NONE',  ( -5.009326287108706300E-010, 2.412507003500041800, 6.000000000000000900 ) ) ;
#166 = LINE ( 'NONE', #165, #164 ) ;
#167 = CARTESIAN_POINT ( 'NONE',  ( -5.009326287108706300E-010, 3.499565220943523500E-009, 6.000000000000000000 ) ) ;
#168 = DIRECTION ( 'NONE',  ( 0.0000000000000000000, 0.0000000000000000000, 1.000000000000000000 ) ) ;
#169 = DIRECTION ( 'NONE',  ( 0.0000000000000000000, 1.000000000000000000, 0.0000000000000000000 ) ) ;
#170 = CARTESIAN_POINT ( 'NONE',  ( -5.009326287108706300E-010, 3.499565220943523500E-009, 0.0000000000000000000 ) ) ;
#171 = AXIS2_PLACEMENT_3D ( 'NONE', #170, #169, #168 ) ;
#172 = CIRCLE ( 'NONE', #171, 6.000000000000000000 ) ;
#173 = CARTESIAN_POINT ( 'NONE',  ( -5.009323225592821800E-010, -11.99999999650043500, -2.500000000000000000 ) ) ;
#174 = DIRECTION ( 'NONE',  ( 0.0000000000000000000, 1.000000000000000000, 0.0000000000000000000 ) ) ;
#175 = VECTOR ( 'NONE', #174, 1000.000000000000000 ) ;
#176 = CARTESIAN_POINT ( 'NONE',  ( -5.009323225592821800E-010, 2.412507003500041800, -2.500000000000000900 ) ) ;
#177 = LINE ( 'NONE', #176, #175 ) ;
#178 = DIRECTION ( 'NONE',  ( 0.0000000000000000000, 1.000000000000000000, 0.0000000000000000000 ) ) ;
#179 = VECTOR ( 'NONE', #178, 1000.000000000000000 ) ;
#180 = CARTESIAN_POINT ( 'NONE',  ( -5.009326287108706300E-010, 2.412507003500041800, 2.500000000000000900 ) ) ;
#181 = LINE ( 'NONE', #180, #179 ) ;
#182 = CARTESIAN_POINT ( 'NONE',  ( -5.009326287108706300E-010, -11.99999999650043500, 2.500000000000000000 ) ) ;
#183 = DIRECTION ( 'NONE',  ( 0.0000000000000000000, 0.0000000000000000000, 1.000000000000000000 ) ) ;
#184 = DIRECTION ( 'NONE',  ( 0.0000000000000000000, 1.000000000000000000, 0.0000000000000000000 ) ) ;
#185 = AXIS2_PLACEMENT_3D ( 'NONE', #191, #184, #183 ) ;
#186 = CIRCLE ( 'NONE', #185, 2.500000000000000000 ) ;
#187 = DIRECTION ( 'NONE',  ( 0.0000000000000000000, 0.0000000000000000000, 1.000000000000000000 ) ) ;
#188 = DIRECTION ( 'NONE',  ( 0.0000000000000000000, 1.000000000000000000, 0.0000000000000000000 ) ) ;
#189 = CARTESIAN_POINT ( 'NONE',  ( -5.009326287108706300E-010, 2.412507003500041800, 0.0000000000000000000 ) ) ;
#190 = AXIS2_PLACEMENT_3D ( 'NONE', #189, #188, #187 ) ;
#191 = CARTESIAN_POINT ( 'NONE',  ( -5.009326287108706300E-010, -11.99999999650043500, 0.0000000000000000000 ) ) ;
#192 = CYLINDRICAL_SURFACE ( 'NONE', #190, 2.500000000000000900 ) ;
#193 = FACE_OUTER_BOUND ( 'NONE', #58, .T. ) ;
#194 = DIRECTION ( 'NONE',  ( 0.0000000000000000000, 0.0000000000000000000, 1.000000000000000000 ) ) ;
#195 = DIRECTION ( 'NONE',  ( 0.0000000000000000000, 1.000000000000000000, 0.0000000000000000000 ) ) ;
#196 = CARTESIAN_POINT ( 'NONE',  ( -5.009326287108706300E-010, -11.99999999650043500, 0.0000000000000000000 ) ) ;
#197 = AXIS2_PLACEMENT_3D ( 'NONE', #196, #195, #194 ) ;
#198 = CIRCLE ( 'NONE', #197, 2.500000000000000000 ) ;
#199 = DIRECTION ( 'NONE',  ( 0.0000000000000000000, 0.0000000000000000000, -1.000000000000000000 ) ) ;
#200 = DIRECTION ( 'NONE',  ( 0.0000000000000000000, -1.000000000000000000, 0.0000000000000000000 ) ) ;
#201 = CARTESIAN_POINT ( 'NONE',  ( 5.999999999499069100, -11.99999999650043500, 0.0000000000000000000 ) ) ;
#202 = AXIS2_PLACEMENT_3D ( 'NONE', #201, #200, #199 ) ;
#203 = PLANE ( 'NONE',  #202 ) ;
#204 = FACE_OUTER_BOUND ( 'NONE', #28, .T. ) ;
#205 = FACE_BOUND ( 'NONE', #24, .T. ) ;
#206 = DIRECTION ( 'NONE',  ( 0.0000000000000000000, 0.0000000000000000000, 1.000000000000000000 ) ) ;
#207 = DIRECTION ( 'NONE',  ( 0.0000000000000000000, 1.000000000000000000, 0.0000000000000000000 ) ) ;
#208 = AXIS2_PLACEMENT_3D ( 'NONE', #247, #207, #206 ) ;
#209 = CIRCLE ( 'NONE', #208, 14.58864031391769000 ) ;
#210 = TOROIDAL_SURFACE ( 'NONE', #263, 14.58864031391771100, 3.499999999999999600 ) ;
#211 = FACE_OUTER_BOUND ( 'NONE', #100, .T. ) ;
#212 = CARTESIAN_POINT ( 'NONE',  ( -5.009326287108706300E-010, 3.499565654624392500E-009, 14.58864031391769000 ) ) ;
#213 = DIRECTION ( 'NONE',  ( 0.0000000000000000000, 0.0000000000000000000, 1.000000000000000000 ) ) ;
#214 = DIRECTION ( 'NONE',  ( 0.0000000000000000000, 1.000000000000000000, 0.0000000000000000000 ) ) ;
#215 = CARTESIAN_POINT ( 'NONE',  ( -5.009326287108706300E-010, -2.862687585862377900, 0.0000000000000000000 ) ) ;
#216 = AXIS2_PLACEMENT_3D ( 'NONE', #215, #214, #213 ) ;
#217 = CIRCLE ( 'NONE', #216, 18.03012733136332500 ) ;
#218 = CARTESIAN_POINT ( 'NONE',  ( -5.009306314533649800E-010, 3.499565654624392500E-009, -14.58864031391769000 ) ) ;
#219 = DIRECTION ( 'NONE',  ( 1.224606353900848700E-016, 0.0000000000000000000, -1.000000000000000000 ) ) ;
#220 = DIRECTION ( 'NONE',  ( 1.000000000000000000, 0.0000000000000000000, 1.224606353822377300E-016 ) ) ;
#221 = CARTESIAN_POINT ( 'NONE',  ( -5.009308421767083700E-010, -3.499999996500434000, -14.58864031391771100 ) ) ;
#222 = AXIS2_PLACEMENT_3D ( 'NONE', #221, #220, #219 ) ;
#223 = DIRECTION ( 'NONE',  ( 0.0000000000000000000, 0.0000000000000000000, -1.000000000000000000 ) ) ;
#224 = DIRECTION ( 'NONE',  ( 0.0000000000000000000, -1.000000000000000000, 0.0000000000000000000 ) ) ;
#225 = CARTESIAN_POINT ( 'NONE',  ( -5.009326287108706300E-010, -26.99999999650043500, 0.0000000000000000000 ) ) ;
#226 = AXIS2_PLACEMENT_3D ( 'NONE', #225, #224, #223 ) ;
#227 = CIRCLE ( 'NONE', #222, 3.499999999999999600 ) ;
#228 = CONICAL_SURFACE ( 'NONE', #226, 22.50000000000000000, 0.1831108172624840400 ) ;
#229 = FACE_OUTER_BOUND ( 'NONE', #84, .T. ) ;
#230 = DIRECTION ( 'NONE',  ( 0.0000000000000000000, 0.0000000000000000000, 1.000000000000000000 ) ) ;
#231 = DIRECTION ( 'NONE',  ( 0.0000000000000000000, 1.000000000000000000, 0.0000000000000000000 ) ) ;
#232 = CARTESIAN_POINT ( 'NONE',  ( -5.009326287108706300E-010, -26.99999999650043500, 0.0000000000000000000 ) ) ;
#233 = AXIS2_PLACEMENT_3D ( 'NONE', #232, #231, #230 ) ;
#234 = CIRCLE ( 'NONE', #233, 22.50000000000000000 ) ;
#235 = DIRECTION ( 'NONE',  ( 0.0000000000000000000, 0.0000000000000000000, 1.000000000000000000 ) ) ;
#236 = DIRECTION ( 'NONE',  ( 0.0000000000000000000, 1.000000000000000000, 0.0000000000000000000 ) ) ;
#237 = CARTESIAN_POINT ( 'NONE',  ( 2.499999999499069100, -26.99999999650043500, 0.0000000000000000000 ) ) ;
#238 = AXIS2_PLACEMENT_3D ( 'NONE', #237, #236, #235 ) ;
#239 = PLANE ( 'NONE',  #238 ) ;
#240 = FACE_BOUND ( 'NONE', #80, .T. ) ;
#241 = FACE_OUTER_BOUND ( 'NONE', #76, .T. ) ;
#242 = DIRECTION ( 'NONE',  ( 0.0000000000000000000, 0.0000000000000000000, 1.000000000000000000 ) ) ;
#243 = DIRECTION ( 'NONE',  ( 0.0000000000000000000, 0.0000000000000000000, -1.000000000000000000 ) ) ;
#244 = DIRECTION ( 'NONE',  ( 0.0000000000000000000, -1.000000000000000000, 0.0000000000000000000 ) ) ;
#245 = CARTESIAN_POINT ( 'NONE',  ( 14.58864031341675700, 3.499565423374446900E-009, 0.0000000000000000000 ) ) ;
#246 = AXIS2_PLACEMENT_3D ( 'NONE', #245, #244, #243 ) ;
#247 = CARTESIAN_POINT ( 'NONE',  ( -5.009326287108706300E-010, 3.499565654624392500E-009, 0.0000000000000000000 ) ) ;
#248 = CIRCLE ( 'NONE', #299, 6.000000000000001800 ) ;
#249 = CARTESIAN_POINT ( 'NONE',  ( -5.009326287108706300E-010, -11.99999999650043500, 0.0000000000000000000 ) ) ;
#250 = AXIS2_PLACEMENT_3D ( 'NONE', #267, #269, #268 ) ;
#251 = CARTESIAN_POINT ( 'NONE',  ( -5.009326287108706300E-010, 3.499565220943523500E-009, 0.0000000000000000000 ) ) ;
#252 =( LENGTH_UNIT ( ) NAMED_UNIT ( * ) SI_UNIT ( .MILLI., .METRE. ) );
#253 = AXIS2_PLACEMENT_3D ( 'NONE', #251, #297, #296 ) ;
#254 = CIRCLE ( 'NONE', #253, 6.000000000000000000 ) ;
#255 = CIRCLE ( 'NONE', #284, 3.499999999999999600 ) ;
#256 = DIRECTION ( 'NONE',  ( 0.0000000000000000000, 0.0000000000000000000, 1.000000000000000000 ) ) ;
#257 = DIRECTION ( 'NONE',  ( 0.0000000000000000000, 1.000000000000000000, 0.0000000000000000000 ) ) ;
#258 = AXIS2_PLACEMENT_3D ( 'NONE', #264, #257, #256 ) ;
#259 = CIRCLE ( 'NONE', #258, 14.58864031391769000 ) ;
#260 = DIRECTION ( 'NONE',  ( 0.0000000000000000000, 0.0000000000000000000, 1.000000000000000000 ) ) ;
#261 = DIRECTION ( 'NONE',  ( 0.0000000000000000000, 1.000000000000000000, 0.0000000000000000000 ) ) ;
#262 = CARTESIAN_POINT ( 'NONE',  ( -5.009326287108706300E-010, -3.499999996500434000, 0.0000000000000000000 ) ) ;
#263 = AXIS2_PLACEMENT_3D ( 'NONE', #262, #261, #260 ) ;
#264 = CARTESIAN_POINT ( 'NONE',  ( -5.009326287108706300E-010, 3.499565654624392500E-009, 0.0000000000000000000 ) ) ;
#265 = DIRECTION ( 'NONE',  ( 0.0000000000000000000, 1.000000000000000000, 0.0000000000000000000 ) ) ;
#266 = DIRECTION ( 'NONE',  ( 0.0000000000000000000, 0.0000000000000000000, 1.000000000000000000 ) ) ;
#267 = CARTESIAN_POINT ( 'NONE',  ( -5.009326287108706300E-010, 2.412507003500041800, 0.0000000000000000000 ) ) ;
#268 = DIRECTION ( 'NONE',  ( 0.0000000000000000000, 0.0000000000000000000, 1.000000000000000000 ) ) ;
#269 = DIRECTION ( 'NONE',  ( 0.0000000000000000000, 1.000000000000000000, 0.0000000000000000000 ) ) ;
#270 = DIRECTION ( 'NONE',  ( 0.0000000000000000000, 1.000000000000000000, 0.0000000000000000000 ) ) ;
#271 = CARTESIAN_POINT ( 'NONE',  ( -5.009326287108706300E-010, -2.862687585862377900, 0.0000000000000000000 ) ) ;
#272 = AXIS2_PLACEMENT_3D ( 'NONE', #271, #270, #292 ) ;
#273 = CIRCLE ( 'NONE', #272, 18.03012733136332500 ) ;
#274 = CARTESIAN_POINT ( 'NONE',  ( -5.009326287108706300E-010, -2.862687585862377900, 18.03012733136332500 ) ) ;
#275 = DIRECTION ( 'NONE',  ( 0.0000000000000000000, 0.0000000000000000000, 1.000000000000000000 ) ) ;
#276 = DIRECTION ( 'NONE',  ( 0.0000000000000000000, 1.000000000000000000, 0.0000000000000000000 ) ) ;
#277 = CARTESIAN_POINT ( 'NONE',  ( -5.009326287108706300E-010, -3.499999996500434000, 0.0000000000000000000 ) ) ;
#278 = AXIS2_PLACEMENT_3D ( 'NONE', #277, #276, #275 ) ;
#279 = TOROIDAL_SURFACE ( 'NONE', #278, 14.58864031391771100, 3.499999999999999600 ) ;
#280 = FACE_OUTER_BOUND ( 'NONE', #31, .T. ) ;
#281 = DIRECTION ( 'NONE',  ( 0.0000000000000000000, 0.0000000000000000000, 1.000000000000000000 ) ) ;
#282 = DIRECTION ( 'NONE',  ( -1.000000000000000000, 0.0000000000000000000, 0.0000000000000000000 ) ) ;
#283 = CARTESIAN_POINT ( 'NONE',  ( -5.009326287108706300E-010, -3.499999996500434000, 14.58864031391771100 ) ) ;
#284 = AXIS2_PLACEMENT_3D ( 'NONE', #283, #282, #281 ) ;
#285 = DIRECTION ( 'NONE',  ( 0.0000000000000000000, 0.0000000000000000000, -1.000000000000000000 ) ) ;
#286 = DIRECTION ( 'NONE',  ( 0.0000000000000000000, -1.000000000000000000, 0.0000000000000000000 ) ) ;
#287 = CARTESIAN_POINT ( 'NONE',  ( -5.009326287108706300E-010, -26.99999999650043500, 0.0000000000000000000 ) ) ;
#288 = AXIS2_PLACEMENT_3D ( 'NONE', #287, #286, #285 ) ;
#289 = CARTESIAN_POINT ( 'NONE',  ( -5.009326287108706300E-010, -26.99999999650043500, -22.50000000000000000 ) ) ;
#290 = CONICAL_SURFACE ( 'NONE', #288, 22.50000000000000000, 0.1831108172624840400 ) ;
#291 = FACE_OUTER_BOUND ( 'NONE', #110, .T. ) ;
#292 = DIRECTION ( 'NONE',  ( 0.0000000000000000000, 0.0000000000000000000, 1.000000000000000000 ) ) ;
#293 = PLANE ( 'NONE',  #246 ) ;
#294 = FACE_OUTER_BOUND ( 'NONE', #8, .T. ) ;
#295 = FACE_BOUND ( 'NONE', #12, .T. ) ;
#296 = DIRECTION ( 'NONE',  ( 0.0000000000000000000, 0.0000000000000000000, 1.000000000000000000 ) ) ;
#297 = DIRECTION ( 'NONE',  ( 0.0000000000000000000, 1.000000000000000000, 0.0000000000000000000 ) ) ;
#298 = CYLINDRICAL_SURFACE ( 'NONE', #250, 6.000000000000000900 ) ;
#299 = AXIS2_PLACEMENT_3D ( 'NONE', #249, #265, #266 ) ;
#300 = FACE_OUTER_BOUND ( 'NONE', #4, .T. ) ;
#301 = AXIS2_PLACEMENT_3D ( 'NONE', #381, #380, #379 ) ;
#302 = PRODUCT_DEFINITION_SHAPE ( 'NONE', 'NONE',  #365 ) ;
#303 = PRODUCT_RELATED_PRODUCT_CATEGORY ( 'detail', '', ( #375 ) ) ;
#304 = CC_DESIGN_SECURITY_CLASSIFICATION ( #325, ( #344 ) ) ;
#305 = CC_DESIGN_APPROVAL ( #313, ( #325 ) ) ;
#306 = APPROVAL_DATE_TIME ( #307, #313 ) ;
#307 = DATE_AND_TIME ( #308, #309 ) ;
#308 = CALENDAR_DATE ( 2009, 26, 6 ) ;
#309 = LOCAL_TIME ( 16, 22, 53.00000000000000000, #310 ) ;
#310 = COORDINATED_UNIVERSAL_TIME_OFFSET ( 9, 0, .AHEAD. ) ;
#311 = APPROVAL_PERSON_ORGANIZATION ( #315, #313, #312 ) ;
#312 = APPROVAL_ROLE ( '' ) ;
#313 = APPROVAL ( #314, 'UNSPECIFIED' ) ;
#314 = APPROVAL_STATUS ( 'not_yet_approved' ) ;
#315 = PERSON_AND_ORGANIZATION ( #374, #373 ) ;
#316 = CC_DESIGN_DATE_AND_TIME_ASSIGNMENT ( #318, #317, ( #325 ) ) ;
#317 = DATE_TIME_ROLE ( 'classification_date' ) ;
#318 = DATE_AND_TIME ( #319, #320 ) ;
#319 = CALENDAR_DATE ( 2009, 26, 6 ) ;
#320 = LOCAL_TIME ( 16, 22, 53.00000000000000000, #321 ) ;
#321 = COORDINATED_UNIVERSAL_TIME_OFFSET ( 9, 0, .AHEAD. ) ;
#322 = CC_DESIGN_PERSON_AND_ORGANIZATION_ASSIGNMENT ( #324, #323, ( #325 ) ) ;
#323 = PERSON_AND_ORGANIZATION_ROLE ( 'classification_officer' ) ;
#324 = PERSON_AND_ORGANIZATION ( #374, #373 ) ;
#325 = SECURITY_CLASSIFICATION ( '', '', #326 ) ;
#326 = SECURITY_CLASSIFICATION_LEVEL ( 'unclassified' ) ;
#327 = CC_DESIGN_PERSON_AND_ORGANIZATION_ASSIGNMENT ( #329, #328, ( #344 ) ) ;
#328 = PERSON_AND_ORGANIZATION_ROLE ( 'design_supplier' ) ;
#329 = PERSON_AND_ORGANIZATION ( #374, #373 ) ;
#330 = CC_DESIGN_PERSON_AND_ORGANIZATION_ASSIGNMENT ( #332, #331, ( #344 ) ) ;
#331 = PERSON_AND_ORGANIZATION_ROLE ( 'creator' ) ;
#332 = PERSON_AND_ORGANIZATION ( #374, #373 ) ;
#333 = CC_DESIGN_APPROVAL ( #341, ( #344 ) ) ;
#334 = APPROVAL_DATE_TIME ( #335, #341 ) ;
#335 = DATE_AND_TIME ( #336, #337 ) ;
#336 = CALENDAR_DATE ( 2009, 26, 6 ) ;
#337 = LOCAL_TIME ( 16, 22, 53.00000000000000000, #338 ) ;
#338 = COORDINATED_UNIVERSAL_TIME_OFFSET ( 9, 0, .AHEAD. ) ;
#339 = APPROVAL_PERSON_ORGANIZATION ( #343, #341, #340 ) ;
#340 = APPROVAL_ROLE ( '' ) ;
#341 = APPROVAL ( #342, 'UNSPECIFIED' ) ;
#342 = APPROVAL_STATUS ( 'not_yet_approved' ) ;
#343 = PERSON_AND_ORGANIZATION ( #374, #373 ) ;
#344 = PRODUCT_DEFINITION_FORMATION_WITH_SPECIFIED_SOURCE ( 'ANY', '', #375, .NOT_KNOWN. ) ;
#345 = CC_DESIGN_DATE_AND_TIME_ASSIGNMENT ( #347, #346, ( #365 ) ) ;
#346 = DATE_TIME_ROLE ( 'creation_date' ) ;
#347 = DATE_AND_TIME ( #348, #349 ) ;
#348 = CALENDAR_DATE ( 2009, 26, 6 ) ;
#349 = LOCAL_TIME ( 16, 22, 53.00000000000000000, #350 ) ;
#350 = COORDINATED_UNIVERSAL_TIME_OFFSET ( 9, 0, .AHEAD. ) ;
#351 = CC_DESIGN_PERSON_AND_ORGANIZATION_ASSIGNMENT ( #353, #352, ( #365 ) ) ;
#352 = PERSON_AND_ORGANIZATION_ROLE ( 'creator' ) ;
#353 = PERSON_AND_ORGANIZATION ( #374, #373 ) ;
#354 = CC_DESIGN_APPROVAL ( #362, ( #365 ) ) ;
#355 = APPROVAL_DATE_TIME ( #356, #362 ) ;
#356 = DATE_AND_TIME ( #357, #358 ) ;
#357 = CALENDAR_DATE ( 2009, 26, 6 ) ;
#358 = LOCAL_TIME ( 16, 22, 53.00000000000000000, #359 ) ;
#359 = COORDINATED_UNIVERSAL_TIME_OFFSET ( 9, 0, .AHEAD. ) ;
#360 = APPROVAL_PERSON_ORGANIZATION ( #364, #362, #361 ) ;
#361 = APPROVAL_ROLE ( '' ) ;
#362 = APPROVAL ( #363, 'UNSPECIFIED' ) ;
#363 = APPROVAL_STATUS ( 'not_yet_approved' ) ;
#364 = PERSON_AND_ORGANIZATION ( #374, #373 ) ;
#365 = PRODUCT_DEFINITION ( 'UNKNOWN', '', #344, #366 ) ;
#366 = DESIGN_CONTEXT ( 'detailed design', #368, 'design' ) ;
#367 = APPLICATION_PROTOCOL_DEFINITION ( 'international standard', 'config_control_design', 1994, #368 ) ;
#368 = APPLICATION_CONTEXT ( 'configuration controlled 3d designs of mechanical parts and assemblies' ) ;
#369 = SHAPE_DEFINITION_REPRESENTATION ( #302, #21 ) ;
#370 = CC_DESIGN_PERSON_AND_ORGANIZATION_ASSIGNMENT ( #372, #371, ( #375 ) ) ;
#371 = PERSON_AND_ORGANIZATION_ROLE ( 'design_owner' ) ;
#372 = PERSON_AND_ORGANIZATION ( #374, #373 ) ;
#373 = ORGANIZATION ( 'UNSPECIFIED', 'UNSPECIFIED', '' ) ;
#374 = PERSON ( 'UNSPECIFIED', 'UNSPECIFIED', 'UNSPECIFIED', ('UNSPECIFIED'), ('UNSPECIFIED'), ('UNSPECIFIED') ) ;
#375 = PRODUCT ( 'C-30-RK-45', 'C-30-RK-45', '', ( #376 ) ) ;
#376 = MECHANICAL_CONTEXT ( 'NONE', #378, 'mechanical' ) ;
#377 = APPLICATION_PROTOCOL_DEFINITION ( 'international standard', 'config_control_design', 1994, #378 ) ;
#378 = APPLICATION_CONTEXT ( 'configuration controlled 3d designs of mechanical parts and assemblies' ) ;
#379 = DIRECTION ( 'NONE',  ( 1.000000000000000000, 0.0000000000000000000, 0.0000000000000000000 ) ) ;
#380 = DIRECTION ( 'NONE',  ( 0.0000000000000000000, 0.0000000000000000000, 1.000000000000000000 ) ) ;
#381 = CARTESIAN_POINT ( 'NONE',  ( 0.0000000000000000000, 0.0000000000000000000, 0.0000000000000000000 ) ) ;
ENDSEC;
END-ISO-10303-21;
