ISO-10303-21;
HEADER;
FILE_DESCRIPTION (( 'STEP AP203' ),
    '1' );
FILE_NAME ('C-30-RK-40-ÃÞÌ«ÙÄ.STEP',
    '2009-06-29T02:29:47',
    ( '11sw' ),
    ( '^LQ»¢®ïÐ' ),
    'SwSTEP 2.0',
    'SolidWorks 2007',
    '' );
FILE_SCHEMA (( 'CONFIG_CONTROL_DESIGN' ));
ENDSEC;

DATA;
#1 = DIRECTION ( 'NONE',  ( 0.0000000000000000000, 0.0000000000000000000, 1.000000000000000000 ) ) ;
#2 = DIRECTION ( 'NONE',  ( 3.222152469342774100E-017, -0.9647638212377321900, 0.2631174057921089600 ) ) ;
#3 = DIRECTION ( 'NONE',  ( 0.0000000000000000000, 1.000000000000000000, 0.0000000000000000000 ) ) ;
#4 = VECTOR ( 'NONE', #2, 999.9999999999998900 ) ;
#5 = EDGE_CURVE ( 'NONE', #63, #62, #19, .T. ) ;
#6 = ORIENTED_EDGE ( 'NONE', *, *, #7, .F. ) ;
#7 = EDGE_CURVE ( 'NONE', #8, #106, #124, .T. ) ;
#8 = VERTEX_POINT ( 'NONE', #119 ) ;
#9 = EDGE_LOOP ( 'NONE', ( #29, #30, #82, #111 ) ) ;
#10 = EDGE_CURVE ( 'NONE', #63, #65, #123, .T. ) ;
#11 = ADVANCED_FACE ( 'NONE', ( #125 ), #185, .F. ) ;
#12 = EDGE_CURVE ( 'NONE', #13, #14, #180, .T. ) ;
#13 = VERTEX_POINT ( 'NONE', #175 ) ;
#14 = VERTEX_POINT ( 'NONE', #174 ) ;
#15 = ORIENTED_EDGE ( 'NONE', *, *, #21, .T. ) ;
#16 = DIRECTION ( 'NONE',  ( 0.0000000000000000000, 0.0000000000000000000, 1.000000000000000000 ) ) ;
#17 = DIRECTION ( 'NONE',  ( 0.0000000000000000000, 1.000000000000000000, 0.0000000000000000000 ) ) ;
#18 = AXIS2_PLACEMENT_3D ( 'NONE', #28, #17, #16 ) ;
#19 = CIRCLE ( 'NONE', #18, 14.70338793083480900 ) ;
#20 = ORIENTED_EDGE ( 'NONE', *, *, #104, .T. ) ;
#21 = EDGE_CURVE ( 'NONE', #13, #22, #173, .T. ) ;
#22 = VERTEX_POINT ( 'NONE', #169 ) ;
#23 = ORIENTED_EDGE ( 'NONE', *, *, #24, .T. ) ;
#24 = EDGE_CURVE ( 'NONE', #22, #38, #168, .T. ) ;
#25 = EDGE_CURVE ( 'NONE', #109, #26, #154, .T. ) ;
#26 = VERTEX_POINT ( 'NONE', #149 ) ;
#27 = ORIENTED_EDGE ( 'NONE', *, *, #34, .F. ) ;
#28 = CARTESIAN_POINT ( 'NONE',  ( -5.009326287108706300E-010, -2.579089076228072000, 0.0000000000000000000 ) ) ;
#29 = ORIENTED_EDGE ( 'NONE', *, *, #61, .T. ) ;
#30 = ORIENTED_EDGE ( 'NONE', *, *, #31, .T. ) ;
#31 = EDGE_CURVE ( 'NONE', #63, #81, #148, .T. ) ;
#32 = ADVANCED_FACE ( 'NONE', ( #143 ), #142, .F. ) ;
#33 = ORIENTED_EDGE ( 'NONE', *, *, #83, .T. ) ;
#34 = EDGE_CURVE ( 'NONE', #106, #26, #137, .T. ) ;
#35 = ADVANCED_FACE ( 'NONE', ( #133 ), #131, .T. ) ;
#36 = EDGE_LOOP ( 'NONE', ( #37, #15, #23, #39 ) ) ;
#37 = ORIENTED_EDGE ( 'NONE', *, *, #12, .F. ) ;
#38 = VERTEX_POINT ( 'NONE', #163 ) ;
#39 = ORIENTED_EDGE ( 'NONE', *, *, #40, .F. ) ;
#40 = EDGE_CURVE ( 'NONE', #14, #38, #162, .T. ) ;
#41 = ADVANCED_FACE ( 'NONE', ( #158 ), #157, .F. ) ;
#42 = EDGE_LOOP ( 'NONE', ( #6, #107, #110, #27 ) ) ;
#43 = MANIFOLD_SOLID_BREP ( 'NONE', #70 ) ;
#44 = ADVANCED_FACE ( 'NONE', ( #186 ), #187, .T. ) ;
#45 = EDGE_LOOP ( 'NONE', ( #46, #64, #49, #66 ) ) ;
#46 = ORIENTED_EDGE ( 'NONE', *, *, #61, .F. ) ;
#47 = EDGE_CURVE ( 'NONE', #62, #48, #192, .T. ) ;
#48 = VERTEX_POINT ( 'NONE', #194 ) ;
#49 = ORIENTED_EDGE ( 'NONE', *, *, #50, .T. ) ;
#50 = EDGE_CURVE ( 'NONE', #48, #65, #202, .T. ) ;
#51 = EDGE_LOOP ( 'NONE', ( #93, #100 ) ) ;
#52 = ADVANCED_FACE ( 'NONE', ( #201 ), #216, .T. ) ;
#53 = ORIENTED_EDGE ( 'NONE', *, *, #10, .T. ) ;
#54 = ORIENTED_EDGE ( 'NONE', *, *, #47, .F. ) ;
#55 = ORIENTED_EDGE ( 'NONE', *, *, #75, .T. ) ;
#56 = ORIENTED_EDGE ( 'NONE', *, *, #50, .F. ) ;
#57 = EDGE_LOOP ( 'NONE', ( #59, #89 ) ) ;
#58 = EDGE_LOOP ( 'NONE', ( #91, #56 ) ) ;
#59 = ORIENTED_EDGE ( 'NONE', *, *, #96, .T. ) ;
#60 = ORIENTED_EDGE ( 'NONE', *, *, #24, .F. ) ;
#61 = EDGE_CURVE ( 'NONE', #62, #63, #204, .T. ) ;
#62 = VERTEX_POINT ( 'NONE', #206 ) ;
#63 = VERTEX_POINT ( 'NONE', #205 ) ;
#64 = ORIENTED_EDGE ( 'NONE', *, *, #47, .T. ) ;
#65 = VERTEX_POINT ( 'NONE', #197 ) ;
#66 = ORIENTED_EDGE ( 'NONE', *, *, #10, .F. ) ;
#67 = ORIENTED_EDGE ( 'NONE', *, *, #5, .F. ) ;
#68 = ORIENTED_EDGE ( 'NONE', *, *, #92, .T. ) ;
#69 = EDGE_LOOP ( 'NONE', ( #54, #67, #53, #68 ) ) ;
#70 = CLOSED_SHELL ( 'NONE', ( #44, #11, #41, #35, #113, #72, #32, #102, #98, #90, #52 ) ) ;
#71 = ORIENTED_EDGE ( 'NONE', *, *, #80, .F. ) ;
#72 = ADVANCED_FACE ( 'NONE', ( #196, #195 ), #236, .F. ) ;
#73 = ORIENTED_EDGE ( 'NONE', *, *, #104, .F. ) ;
#74 = ORIENTED_EDGE ( 'NONE', *, *, #75, .F. ) ;
#75 = EDGE_CURVE ( 'NONE', #38, #22, #234, .T. ) ;
#76 = EDGE_LOOP ( 'NONE', ( #87, #101, #86, #20 ) ) ;
#77 = EDGE_LOOP ( 'NONE', ( #33, #88 ) ) ;
#78 = EDGE_LOOP ( 'NONE', ( #73, #79 ) ) ;
#79 = ORIENTED_EDGE ( 'NONE', *, *, #25, .F. ) ;
#80 = EDGE_CURVE ( 'NONE', #81, #84, #229, .T. ) ;
#81 = VERTEX_POINT ( 'NONE', #224 ) ;
#82 = ORIENTED_EDGE ( 'NONE', *, *, #83, .F. ) ;
#83 = EDGE_CURVE ( 'NONE', #84, #81, #223, .T. ) ;
#84 = VERTEX_POINT ( 'NONE', #351 ) ;
#85 = EDGE_CURVE ( 'NONE', #106, #8, #352, .T. ) ;
#86 = ORIENTED_EDGE ( 'NONE', *, *, #34, .T. ) ;
#87 = ORIENTED_EDGE ( 'NONE', *, *, #108, .F. ) ;
#88 = ORIENTED_EDGE ( 'NONE', *, *, #80, .T. ) ;
#89 = ORIENTED_EDGE ( 'NONE', *, *, #12, .T. ) ;
#90 = ADVANCED_FACE ( 'NONE', ( #377, #376 ), #375, .F. ) ;
#91 = ORIENTED_EDGE ( 'NONE', *, *, #92, .F. ) ;
#92 = EDGE_CURVE ( 'NONE', #65, #48, #370, .T. ) ;
#93 = ORIENTED_EDGE ( 'NONE', *, *, #85, .T. ) ;
#94 = ORIENTED_EDGE ( 'NONE', *, *, #21, .F. ) ;
#95 = ORIENTED_EDGE ( 'NONE', *, *, #96, .F. ) ;
#96 = EDGE_CURVE ( 'NONE', #14, #13, #365, .T. ) ;
#97 = ORIENTED_EDGE ( 'NONE', *, *, #40, .T. ) ;
#98 = ADVANCED_FACE ( 'NONE', ( #360 ), #359, .F. ) ;
#99 = EDGE_LOOP ( 'NONE', ( #94, #95, #97, #55 ) ) ;
#100 = ORIENTED_EDGE ( 'NONE', *, *, #7, .T. ) ;
#101 = ORIENTED_EDGE ( 'NONE', *, *, #85, .F. ) ;
#102 = ADVANCED_FACE ( 'NONE', ( #358, #350 ), #353, .F. ) ;
#103 = EDGE_LOOP ( 'NONE', ( #74, #60 ) ) ;
#104 = EDGE_CURVE ( 'NONE', #26, #109, #345, .T. ) ;
#105 = ORIENTED_EDGE ( 'NONE', *, *, #112, .T. ) ;
#106 = VERTEX_POINT ( 'NONE', #340 ) ;
#107 = ORIENTED_EDGE ( 'NONE', *, *, #108, .T. ) ;
#108 = EDGE_CURVE ( 'NONE', #8, #109, #339, .T. ) ;
#109 = VERTEX_POINT ( 'NONE', #335 ) ;
#110 = ORIENTED_EDGE ( 'NONE', *, *, #25, .T. ) ;
#111 = ORIENTED_EDGE ( 'NONE', *, *, #112, .F. ) ;
#112 = EDGE_CURVE ( 'NONE', #62, #84, #334, .T. ) ;
#113 = ADVANCED_FACE ( 'NONE', ( #329 ), #328, .T. ) ;
#114 = EDGE_LOOP ( 'NONE', ( #115, #116, #105, #71 ) ) ;
#115 = ORIENTED_EDGE ( 'NONE', *, *, #31, .F. ) ;
#116 = ORIENTED_EDGE ( 'NONE', *, *, #5, .T. ) ;
#117 = AXIS2_PLACEMENT_3D ( 'NONE', #118, #120, #121 ) ;
#118 = CARTESIAN_POINT ( 'NONE',  ( -5.009326287108706300E-010, -8.999999996500436700, 0.0000000000000000000 ) ) ;
#119 = CARTESIAN_POINT ( 'NONE',  ( -5.009317714864229600E-010, -8.999999996500436700, -7.000000000000000000 ) ) ;
#120 = DIRECTION ( 'NONE',  ( 0.0000000000000000000, 1.000000000000000000, 0.0000000000000000000 ) ) ;
#121 = DIRECTION ( 'NONE',  ( 0.0000000000000000000, 0.0000000000000000000, 1.000000000000000000 ) ) ;
#122 = CARTESIAN_POINT ( 'NONE',  ( -5.009326287108706300E-010, -21.99999999650043500, -20.00000000000000000 ) ) ;
#123 = LINE ( 'NONE', #122, #127 ) ;
#124 = CIRCLE ( 'NONE', #117, 7.000000000000000000 ) ;
#125 = FACE_OUTER_BOUND ( 'NONE', #36, .T. ) ;
#126 = DIRECTION ( 'NONE',  ( 0.0000000000000000000, -0.9647638212377321900, -0.2631174057921089600 ) ) ;
#127 = VECTOR ( 'NONE', #126, 999.9999999999998900 ) ;
#128 = DIRECTION ( 'NONE',  ( 0.0000000000000000000, 0.0000000000000000000, 1.000000000000000000 ) ) ;
#129 = DIRECTION ( 'NONE',  ( 0.0000000000000000000, 1.000000000000000000, 0.0000000000000000000 ) ) ;
#130 = AXIS2_PLACEMENT_3D ( 'NONE', #132, #129, #128 ) ;
#131 = TOROIDAL_SURFACE ( 'NONE', #130, 11.32671455650274200, 3.499999999999999600 ) ;
#132 = CARTESIAN_POINT ( 'NONE',  ( -5.009326287108706300E-010, -3.499999996500434900, 0.0000000000000000000 ) ) ;
#133 = FACE_OUTER_BOUND ( 'NONE', #9, .T. ) ;
#134 = DIRECTION ( 'NONE',  ( 0.0000000000000000000, 1.000000000000000000, 0.0000000000000000000 ) ) ;
#135 = VECTOR ( 'NONE', #134, 1000.000000000000000 ) ;
#136 = CARTESIAN_POINT ( 'NONE',  ( -5.009326287108706300E-010, 13.44177027475454100, 7.000000000000000900 ) ) ;
#137 = LINE ( 'NONE', #136, #135 ) ;
#138 = DIRECTION ( 'NONE',  ( 0.0000000000000000000, 0.0000000000000000000, 1.000000000000000000 ) ) ;
#139 = DIRECTION ( 'NONE',  ( 0.0000000000000000000, 1.000000000000000000, 0.0000000000000000000 ) ) ;
#140 = CARTESIAN_POINT ( 'NONE',  ( -5.009326287108706300E-010, 13.44177027475454100, 0.0000000000000000000 ) ) ;
#141 = AXIS2_PLACEMENT_3D ( 'NONE', #140, #139, #138 ) ;
#142 = CYLINDRICAL_SURFACE ( 'NONE', #141, 7.000000000000000900 ) ;
#143 = FACE_OUTER_BOUND ( 'NONE', #76, .T. ) ;
#144 = DIRECTION ( 'NONE',  ( 1.224606353900848700E-016, 0.0000000000000000000, -1.000000000000000000 ) ) ;
#145 = DIRECTION ( 'NONE',  ( 1.000000000000000000, 0.0000000000000000000, 1.224606353822377300E-016 ) ) ;
#146 = CARTESIAN_POINT ( 'NONE',  ( -5.009312416342093400E-010, -3.499999996500434900, -11.32671455650274200 ) ) ;
#147 = AXIS2_PLACEMENT_3D ( 'NONE', #146, #145, #144 ) ;
#148 = CIRCLE ( 'NONE', #147, 3.499999999999999600 ) ;
#149 = CARTESIAN_POINT ( 'NONE',  ( -5.009326287108706300E-010, 3.499565220943523500E-009, 7.000000000000000900 ) ) ;
#150 = DIRECTION ( 'NONE',  ( 0.0000000000000000000, 0.0000000000000000000, 1.000000000000000000 ) ) ;
#151 = DIRECTION ( 'NONE',  ( 0.0000000000000000000, 1.000000000000000000, 0.0000000000000000000 ) ) ;
#152 = CARTESIAN_POINT ( 'NONE',  ( -5.009326287108706300E-010, 3.499565220943523500E-009, 0.0000000000000000000 ) ) ;
#153 = AXIS2_PLACEMENT_3D ( 'NONE', #152, #151, #150 ) ;
#154 = CIRCLE ( 'NONE', #153, 7.000000000000000900 ) ;
#155 = CARTESIAN_POINT ( 'NONE',  ( -5.009326287108706300E-010, 13.44177027475454100, 0.0000000000000000000 ) ) ;
#156 = AXIS2_PLACEMENT_3D ( 'NONE', #155, #3, #1 ) ;
#157 = CYLINDRICAL_SURFACE ( 'NONE', #156, 7.000000000000000900 ) ;
#158 = FACE_OUTER_BOUND ( 'NONE', #42, .T. ) ;
#159 = DIRECTION ( 'NONE',  ( 0.0000000000000000000, 1.000000000000000000, 0.0000000000000000000 ) ) ;
#160 = VECTOR ( 'NONE', #159, 1000.000000000000000 ) ;
#161 = CARTESIAN_POINT ( 'NONE',  ( -5.009326287108706300E-010, 13.44177027475454100, 2.500000000000000400 ) ) ;
#162 = LINE ( 'NONE', #161, #160 ) ;
#163 = CARTESIAN_POINT ( 'NONE',  ( -5.009326287108706300E-010, -8.999999996500436700, 2.499999999999999600 ) ) ;
#164 = DIRECTION ( 'NONE',  ( 0.0000000000000000000, 0.0000000000000000000, 1.000000000000000000 ) ) ;
#165 = DIRECTION ( 'NONE',  ( 0.0000000000000000000, 1.000000000000000000, 0.0000000000000000000 ) ) ;
#166 = CARTESIAN_POINT ( 'NONE',  ( -5.009326287108706300E-010, -8.999999996500436700, 0.0000000000000000000 ) ) ;
#167 = AXIS2_PLACEMENT_3D ( 'NONE', #166, #165, #164 ) ;
#168 = CIRCLE ( 'NONE', #167, 2.499999999999999600 ) ;
#169 = CARTESIAN_POINT ( 'NONE',  ( -5.009323225592821800E-010, -8.999999996500436700, -2.499999999999999600 ) ) ;
#170 = DIRECTION ( 'NONE',  ( 0.0000000000000000000, 1.000000000000000000, 0.0000000000000000000 ) ) ;
#171 = VECTOR ( 'NONE', #170, 1000.000000000000000 ) ;
#172 = CARTESIAN_POINT ( 'NONE',  ( -5.009323225592821800E-010, 13.44177027475454100, -2.500000000000000400 ) ) ;
#173 = LINE ( 'NONE', #172, #171 ) ;
#174 = CARTESIAN_POINT ( 'NONE',  ( -5.009326287108706300E-010, -21.99999999650043500, 2.500000000000001300 ) ) ;
#175 = CARTESIAN_POINT ( 'NONE',  ( -5.009323225592821800E-010, -21.99999999650043500, -2.500000000000001800 ) ) ;
#176 = DIRECTION ( 'NONE',  ( 0.0000000000000000000, 0.0000000000000000000, 1.000000000000000000 ) ) ;
#177 = DIRECTION ( 'NONE',  ( 0.0000000000000000000, 1.000000000000000000, 0.0000000000000000000 ) ) ;
#178 = CARTESIAN_POINT ( 'NONE',  ( -5.009326287108706300E-010, -21.99999999650043500, 0.0000000000000000000 ) ) ;
#179 = AXIS2_PLACEMENT_3D ( 'NONE', #178, #177, #176 ) ;
#180 = CIRCLE ( 'NONE', #179, 2.500000000000001300 ) ;
#181 = DIRECTION ( 'NONE',  ( 0.0000000000000000000, 0.0000000000000000000, 1.000000000000000000 ) ) ;
#182 = DIRECTION ( 'NONE',  ( 0.0000000000000000000, 1.000000000000000000, 0.0000000000000000000 ) ) ;
#183 = CARTESIAN_POINT ( 'NONE',  ( -5.009326287108706300E-010, 13.44177027475454100, 0.0000000000000000000 ) ) ;
#184 = AXIS2_PLACEMENT_3D ( 'NONE', #183, #182, #181 ) ;
#185 = CYLINDRICAL_SURFACE ( 'NONE', #184, 2.500000000000000400 ) ;
#186 = FACE_OUTER_BOUND ( 'NONE', #45, .T. ) ;
#187 = CONICAL_SURFACE ( 'NONE', #190, 20.00000000000000000, 0.2662520491509254800 ) ;
#188 = DIRECTION ( 'NONE',  ( 0.0000000000000000000, -1.000000000000000000, 0.0000000000000000000 ) ) ;
#189 = CARTESIAN_POINT ( 'NONE',  ( -5.009326287108706300E-010, -21.99999999650043500, 0.0000000000000000000 ) ) ;
#190 = AXIS2_PLACEMENT_3D ( 'NONE', #189, #188, #193 ) ;
#191 = CARTESIAN_POINT ( 'NONE',  ( -5.009301794981629900E-010, -21.99999999650043500, 20.00000000000000000 ) ) ;
#192 = LINE ( 'NONE', #191, #4 ) ;
#193 = DIRECTION ( 'NONE',  ( 0.0000000000000000000, 0.0000000000000000000, -1.000000000000000000 ) ) ;
#194 = CARTESIAN_POINT ( 'NONE',  ( -5.009301794981629900E-010, -21.99999999650043500, 20.00000000000000000 ) ) ;
#195 = FACE_OUTER_BOUND ( 'NONE', #77, .T. ) ;
#196 = FACE_BOUND ( 'NONE', #78, .T. ) ;
#197 = CARTESIAN_POINT ( 'NONE',  ( -5.009326287108706300E-010, -21.99999999650043500, -20.00000000000000000 ) ) ;
#198 = DIRECTION ( 'NONE',  ( 0.0000000000000000000, 0.0000000000000000000, 1.000000000000000000 ) ) ;
#199 = DIRECTION ( 'NONE',  ( 0.0000000000000000000, 1.000000000000000000, 0.0000000000000000000 ) ) ;
#200 = CARTESIAN_POINT ( 'NONE',  ( -5.009326287108706300E-010, -2.579089076228072000, 0.0000000000000000000 ) ) ;
#201 = FACE_OUTER_BOUND ( 'NONE', #69, .T. ) ;
#202 = CIRCLE ( 'NONE', #217, 20.00000000000000000 ) ;
#203 = AXIS2_PLACEMENT_3D ( 'NONE', #200, #199, #198 ) ;
#204 = CIRCLE ( 'NONE', #203, 14.70338793083480900 ) ;
#205 = CARTESIAN_POINT ( 'NONE',  ( -5.009308281246424000E-010, -2.579089076228072000, -14.70338793083480900 ) ) ;
#206 = CARTESIAN_POINT ( 'NONE',  ( -5.009326287108706300E-010, -2.579089076228072000, 14.70338793083480900 ) ) ;
#207 = DIRECTION ( 'NONE',  ( 0.0000000000000000000, 0.0000000000000000000, 1.000000000000000000 ) ) ;
#208 = DIRECTION ( 'NONE',  ( 0.0000000000000000000, 1.000000000000000000, 0.0000000000000000000 ) ) ;
#209 = DIRECTION ( 'NONE',  ( 0.0000000000000000000, 0.0000000000000000000, -1.000000000000000000 ) ) ;
#210 = DIRECTION ( 'NONE',  ( 0.0000000000000000000, -1.000000000000000000, 0.0000000000000000000 ) ) ;
#211 = CARTESIAN_POINT ( 'NONE',  ( 11.32671455600178900, 3.499565324035471300E-009, 0.0000000000000000000 ) ) ;
#212 = CARTESIAN_POINT ( 'NONE',  ( -5.009326287108706300E-010, -21.99999999650043500, 0.0000000000000000000 ) ) ;
#213 = DIRECTION ( 'NONE',  ( 0.0000000000000000000, 0.0000000000000000000, -1.000000000000000000 ) ) ;
#214 = DIRECTION ( 'NONE',  ( 0.0000000000000000000, -1.000000000000000000, 0.0000000000000000000 ) ) ;
#215 = AXIS2_PLACEMENT_3D ( 'NONE', #218, #214, #213 ) ;
#216 = CONICAL_SURFACE ( 'NONE', #215, 20.00000000000000000, 0.2662520491509254800 ) ;
#217 = AXIS2_PLACEMENT_3D ( 'NONE', #212, #208, #207 ) ;
#218 = CARTESIAN_POINT ( 'NONE',  ( -5.009326287108706300E-010, -21.99999999650043500, 0.0000000000000000000 ) ) ;
#219 = DIRECTION ( 'NONE',  ( 0.0000000000000000000, 0.0000000000000000000, 1.000000000000000000 ) ) ;
#220 = DIRECTION ( 'NONE',  ( 0.0000000000000000000, 1.000000000000000000, 0.0000000000000000000 ) ) ;
#221 = CARTESIAN_POINT ( 'NONE',  ( -5.009326287108706300E-010, 3.499565220943523500E-009, 0.0000000000000000000 ) ) ;
#222 = AXIS2_PLACEMENT_3D ( 'NONE', #221, #220, #219 ) ;
#223 = CIRCLE ( 'NONE', #222, 11.32671455650272200 ) ;
#224 = CARTESIAN_POINT ( 'NONE',  ( -5.009310348794258200E-010, 3.499565220943523500E-009, -11.32671455650272200 ) ) ;
#225 = DIRECTION ( 'NONE',  ( 0.0000000000000000000, 0.0000000000000000000, 1.000000000000000000 ) ) ;
#226 = DIRECTION ( 'NONE',  ( 0.0000000000000000000, 1.000000000000000000, 0.0000000000000000000 ) ) ;
#227 = CARTESIAN_POINT ( 'NONE',  ( -5.009326287108706300E-010, 3.499565220943523500E-009, 0.0000000000000000000 ) ) ;
#228 = AXIS2_PLACEMENT_3D ( 'NONE', #227, #226, #225 ) ;
#229 = CIRCLE ( 'NONE', #228, 11.32671455650272200 ) ;
#230 = DIRECTION ( 'NONE',  ( 0.0000000000000000000, 0.0000000000000000000, 1.000000000000000000 ) ) ;
#231 = DIRECTION ( 'NONE',  ( 0.0000000000000000000, 1.000000000000000000, 0.0000000000000000000 ) ) ;
#232 = CARTESIAN_POINT ( 'NONE',  ( -5.009326287108706300E-010, -8.999999996500436700, 0.0000000000000000000 ) ) ;
#233 = AXIS2_PLACEMENT_3D ( 'NONE', #232, #231, #230 ) ;
#234 = CIRCLE ( 'NONE', #233, 2.499999999999999600 ) ;
#235 = AXIS2_PLACEMENT_3D ( 'NONE', #211, #210, #209 ) ;
#236 = PLANE ( 'NONE',  #235 ) ;
#237 = PRODUCT_DEFINITION_SHAPE ( 'NONE', 'NONE',  #300 ) ;
#238 = PRODUCT_RELATED_PRODUCT_CATEGORY ( 'detail', '', ( #309 ) ) ;
#239 = CC_DESIGN_SECURITY_CLASSIFICATION ( #260, ( #279 ) ) ;
#240 = CC_DESIGN_APPROVAL ( #248, ( #260 ) ) ;
#241 = APPROVAL_DATE_TIME ( #242, #248 ) ;
#242 = DATE_AND_TIME ( #243, #244 ) ;
#243 = CALENDAR_DATE ( 2009, 29, 6 ) ;
#244 = LOCAL_TIME ( 11, 29, 47.00000000000000000, #245 ) ;
#245 = COORDINATED_UNIVERSAL_TIME_OFFSET ( 9, 0, .AHEAD. ) ;
#246 = APPROVAL_PERSON_ORGANIZATION ( #250, #248, #247 ) ;
#247 = APPROVAL_ROLE ( '' ) ;
#248 = APPROVAL ( #249, 'UNSPECIFIED' ) ;
#249 = APPROVAL_STATUS ( 'not_yet_approved' ) ;
#250 = PERSON_AND_ORGANIZATION ( #308, #307 ) ;
#251 = CC_DESIGN_DATE_AND_TIME_ASSIGNMENT ( #253, #252, ( #260 ) ) ;
#252 = DATE_TIME_ROLE ( 'classification_date' ) ;
#253 = DATE_AND_TIME ( #254, #255 ) ;
#254 = CALENDAR_DATE ( 2009, 29, 6 ) ;
#255 = LOCAL_TIME ( 11, 29, 47.00000000000000000, #256 ) ;
#256 = COORDINATED_UNIVERSAL_TIME_OFFSET ( 9, 0, .AHEAD. ) ;
#257 = CC_DESIGN_PERSON_AND_ORGANIZATION_ASSIGNMENT ( #259, #258, ( #260 ) ) ;
#258 = PERSON_AND_ORGANIZATION_ROLE ( 'classification_officer' ) ;
#259 = PERSON_AND_ORGANIZATION ( #308, #307 ) ;
#260 = SECURITY_CLASSIFICATION ( '', '', #261 ) ;
#261 = SECURITY_CLASSIFICATION_LEVEL ( 'unclassified' ) ;
#262 = CC_DESIGN_PERSON_AND_ORGANIZATION_ASSIGNMENT ( #264, #263, ( #279 ) ) ;
#263 = PERSON_AND_ORGANIZATION_ROLE ( 'design_supplier' ) ;
#264 = PERSON_AND_ORGANIZATION ( #308, #307 ) ;
#265 = CC_DESIGN_PERSON_AND_ORGANIZATION_ASSIGNMENT ( #267, #266, ( #279 ) ) ;
#266 = PERSON_AND_ORGANIZATION_ROLE ( 'creator' ) ;
#267 = PERSON_AND_ORGANIZATION ( #308, #307 ) ;
#268 = CC_DESIGN_APPROVAL ( #276, ( #279 ) ) ;
#269 = APPROVAL_DATE_TIME ( #270, #276 ) ;
#270 = DATE_AND_TIME ( #271, #272 ) ;
#271 = CALENDAR_DATE ( 2009, 29, 6 ) ;
#272 = LOCAL_TIME ( 11, 29, 47.00000000000000000, #273 ) ;
#273 = COORDINATED_UNIVERSAL_TIME_OFFSET ( 9, 0, .AHEAD. ) ;
#274 = APPROVAL_PERSON_ORGANIZATION ( #278, #276, #275 ) ;
#275 = APPROVAL_ROLE ( '' ) ;
#276 = APPROVAL ( #277, 'UNSPECIFIED' ) ;
#277 = APPROVAL_STATUS ( 'not_yet_approved' ) ;
#278 = PERSON_AND_ORGANIZATION ( #308, #307 ) ;
#279 = PRODUCT_DEFINITION_FORMATION_WITH_SPECIFIED_SOURCE ( 'ANY', '', #309, .NOT_KNOWN. ) ;
#280 = CC_DESIGN_DATE_AND_TIME_ASSIGNMENT ( #282, #281, ( #300 ) ) ;
#281 = DATE_TIME_ROLE ( 'creation_date' ) ;
#282 = DATE_AND_TIME ( #283, #284 ) ;
#283 = CALENDAR_DATE ( 2009, 29, 6 ) ;
#284 = LOCAL_TIME ( 11, 29, 47.00000000000000000, #285 ) ;
#285 = COORDINATED_UNIVERSAL_TIME_OFFSET ( 9, 0, .AHEAD. ) ;
#286 = CC_DESIGN_PERSON_AND_ORGANIZATION_ASSIGNMENT ( #288, #287, ( #300 ) ) ;
#287 = PERSON_AND_ORGANIZATION_ROLE ( 'creator' ) ;
#288 = PERSON_AND_ORGANIZATION ( #308, #307 ) ;
#289 = CC_DESIGN_APPROVAL ( #297, ( #300 ) ) ;
#290 = APPROVAL_DATE_TIME ( #291, #297 ) ;
#291 = DATE_AND_TIME ( #292, #293 ) ;
#292 = CALENDAR_DATE ( 2009, 29, 6 ) ;
#293 = LOCAL_TIME ( 11, 29, 47.00000000000000000, #294 ) ;
#294 = COORDINATED_UNIVERSAL_TIME_OFFSET ( 9, 0, .AHEAD. ) ;
#295 = APPROVAL_PERSON_ORGANIZATION ( #299, #297, #296 ) ;
#296 = APPROVAL_ROLE ( '' ) ;
#297 = APPROVAL ( #298, 'UNSPECIFIED' ) ;
#298 = APPROVAL_STATUS ( 'not_yet_approved' ) ;
#299 = PERSON_AND_ORGANIZATION ( #308, #307 ) ;
#300 = PRODUCT_DEFINITION ( 'UNKNOWN', '', #279, #301 ) ;
#301 = DESIGN_CONTEXT ( 'detailed design', #303, 'design' ) ;
#302 = APPLICATION_PROTOCOL_DEFINITION ( 'international standard', 'config_control_design', 1994, #303 ) ;
#303 = APPLICATION_CONTEXT ( 'configuration controlled 3d designs of mechanical parts and assemblies' ) ;
#304 = CC_DESIGN_PERSON_AND_ORGANIZATION_ASSIGNMENT ( #306, #305, ( #309 ) ) ;
#305 = PERSON_AND_ORGANIZATION_ROLE ( 'design_owner' ) ;
#306 = PERSON_AND_ORGANIZATION ( #308, #307 ) ;
#307 = ORGANIZATION ( 'UNSPECIFIED', 'UNSPECIFIED', '' ) ;
#308 = PERSON ( 'UNSPECIFIED', 'UNSPECIFIED', 'UNSPECIFIED', ('UNSPECIFIED'), ('UNSPECIFIED'), ('UNSPECIFIED') ) ;
#309 = PRODUCT ( 'C-30-RK-40-ÃÞÌ«ÙÄ', 'C-30-RK-40-ÃÞÌ«ÙÄ', '', ( #310 ) ) ;
#310 = MECHANICAL_CONTEXT ( 'NONE', #312, 'mechanical' ) ;
#311 = APPLICATION_PROTOCOL_DEFINITION ( 'international standard', 'config_control_design', 1994, #312 ) ;
#312 = APPLICATION_CONTEXT ( 'configuration controlled 3d designs of mechanical parts and assemblies' ) ;
#313 = DIRECTION ( 'NONE',  ( 1.000000000000000000, 0.0000000000000000000, 0.0000000000000000000 ) ) ;
#314 = DIRECTION ( 'NONE',  ( 0.0000000000000000000, 0.0000000000000000000, 1.000000000000000000 ) ) ;
#315 = AXIS2_PLACEMENT_3D ( 'NONE', #323, #314, #313 ) ;
#316 = SHAPE_DEFINITION_REPRESENTATION ( #237, #317 ) ;
#317 = ADVANCED_BREP_SHAPE_REPRESENTATION ( 'C-30-RK-40-ÃÞÌ«ÙÄ', ( #43, #315 ), #318 ) ;
#318 =( GEOMETRIC_REPRESENTATION_CONTEXT ( 3 ) GLOBAL_UNCERTAINTY_ASSIGNED_CONTEXT ( ( #319 ) ) GLOBAL_UNIT_ASSIGNED_CONTEXT ( ( #322, #321, #320 ) ) REPRESENTATION_CONTEXT ( 'NONE', 'WORKASPACE' ) );
#319 = UNCERTAINTY_MEASURE_WITH_UNIT (LENGTH_MEASURE( 1.000000000000000100E-005 ), #322, 'distance_accuracy_value', 'NONE');
#320 =( NAMED_UNIT ( * ) SI_UNIT ( $, .STERADIAN. ) SOLID_ANGLE_UNIT ( ) );
#321 =( NAMED_UNIT ( * ) PLANE_ANGLE_UNIT ( ) SI_UNIT ( $, .RADIAN. ) );
#322 =( LENGTH_UNIT ( ) NAMED_UNIT ( * ) SI_UNIT ( .MILLI., .METRE. ) );
#323 = CARTESIAN_POINT ( 'NONE',  ( 0.0000000000000000000, 0.0000000000000000000, 0.0000000000000000000 ) ) ;
#324 = DIRECTION ( 'NONE',  ( 0.0000000000000000000, 0.0000000000000000000, 1.000000000000000000 ) ) ;
#325 = DIRECTION ( 'NONE',  ( 0.0000000000000000000, 1.000000000000000000, 0.0000000000000000000 ) ) ;
#326 = CARTESIAN_POINT ( 'NONE',  ( -5.009326287108706300E-010, -3.499999996500434900, 0.0000000000000000000 ) ) ;
#327 = AXIS2_PLACEMENT_3D ( 'NONE', #326, #325, #324 ) ;
#328 = TOROIDAL_SURFACE ( 'NONE', #327, 11.32671455650274200, 3.499999999999999600 ) ;
#329 = FACE_OUTER_BOUND ( 'NONE', #114, .T. ) ;
#330 = DIRECTION ( 'NONE',  ( 0.0000000000000000000, 0.0000000000000000000, 1.000000000000000000 ) ) ;
#331 = DIRECTION ( 'NONE',  ( -1.000000000000000000, 0.0000000000000000000, 0.0000000000000000000 ) ) ;
#332 = CARTESIAN_POINT ( 'NONE',  ( -5.009326287108706300E-010, -3.499999996500434900, 11.32671455650274200 ) ) ;
#333 = AXIS2_PLACEMENT_3D ( 'NONE', #332, #331, #330 ) ;
#334 = CIRCLE ( 'NONE', #333, 3.499999999999999600 ) ;
#335 = CARTESIAN_POINT ( 'NONE',  ( -5.009317714864229600E-010, 3.499565220943523500E-009, -7.000000000000000900 ) ) ;
#336 = DIRECTION ( 'NONE',  ( 0.0000000000000000000, 1.000000000000000000, 0.0000000000000000000 ) ) ;
#337 = VECTOR ( 'NONE', #336, 1000.000000000000000 ) ;
#338 = CARTESIAN_POINT ( 'NONE',  ( -5.009317714864229600E-010, 13.44177027475454100, -7.000000000000000900 ) ) ;
#339 = LINE ( 'NONE', #338, #337 ) ;
#340 = CARTESIAN_POINT ( 'NONE',  ( -5.009326287108706300E-010, -8.999999996500436700, 7.000000000000000000 ) ) ;
#341 = DIRECTION ( 'NONE',  ( 0.0000000000000000000, 0.0000000000000000000, 1.000000000000000000 ) ) ;
#342 = DIRECTION ( 'NONE',  ( 0.0000000000000000000, 1.000000000000000000, 0.0000000000000000000 ) ) ;
#343 = CARTESIAN_POINT ( 'NONE',  ( -5.009326287108706300E-010, 3.499565220943523500E-009, 0.0000000000000000000 ) ) ;
#344 = AXIS2_PLACEMENT_3D ( 'NONE', #343, #342, #341 ) ;
#345 = CIRCLE ( 'NONE', #344, 7.000000000000000900 ) ;
#346 = DIRECTION ( 'NONE',  ( 0.0000000000000000000, 0.0000000000000000000, -1.000000000000000000 ) ) ;
#347 = DIRECTION ( 'NONE',  ( 0.0000000000000000000, -1.000000000000000000, 0.0000000000000000000 ) ) ;
#348 = CARTESIAN_POINT ( 'NONE',  ( 6.999999999499067400, -8.999999996500434900, 0.0000000000000000000 ) ) ;
#349 = AXIS2_PLACEMENT_3D ( 'NONE', #348, #347, #346 ) ;
#350 = FACE_OUTER_BOUND ( 'NONE', #51, .T. ) ;
#351 = CARTESIAN_POINT ( 'NONE',  ( -5.009326287108706300E-010, 3.499565220943523500E-009, 11.32671455650272200 ) ) ;
#352 = CIRCLE ( 'NONE', #381, 7.000000000000000000 ) ;
#353 = PLANE ( 'NONE',  #349 ) ;
#354 = DIRECTION ( 'NONE',  ( 0.0000000000000000000, 0.0000000000000000000, 1.000000000000000000 ) ) ;
#355 = DIRECTION ( 'NONE',  ( 0.0000000000000000000, 1.000000000000000000, 0.0000000000000000000 ) ) ;
#356 = CARTESIAN_POINT ( 'NONE',  ( -5.009326287108706300E-010, 13.44177027475454100, 0.0000000000000000000 ) ) ;
#357 = AXIS2_PLACEMENT_3D ( 'NONE', #356, #355, #354 ) ;
#358 = FACE_BOUND ( 'NONE', #103, .T. ) ;
#359 = CYLINDRICAL_SURFACE ( 'NONE', #357, 2.500000000000000400 ) ;
#360 = FACE_OUTER_BOUND ( 'NONE', #99, .T. ) ;
#361 = DIRECTION ( 'NONE',  ( 0.0000000000000000000, 0.0000000000000000000, 1.000000000000000000 ) ) ;
#362 = DIRECTION ( 'NONE',  ( 0.0000000000000000000, 1.000000000000000000, 0.0000000000000000000 ) ) ;
#363 = CARTESIAN_POINT ( 'NONE',  ( -5.009326287108706300E-010, -21.99999999650043500, 0.0000000000000000000 ) ) ;
#364 = AXIS2_PLACEMENT_3D ( 'NONE', #363, #362, #361 ) ;
#365 = CIRCLE ( 'NONE', #364, 2.500000000000001300 ) ;
#366 = DIRECTION ( 'NONE',  ( 0.0000000000000000000, 0.0000000000000000000, 1.000000000000000000 ) ) ;
#367 = DIRECTION ( 'NONE',  ( 0.0000000000000000000, 1.000000000000000000, 0.0000000000000000000 ) ) ;
#368 = CARTESIAN_POINT ( 'NONE',  ( -5.009326287108706300E-010, -21.99999999650043500, 0.0000000000000000000 ) ) ;
#369 = AXIS2_PLACEMENT_3D ( 'NONE', #368, #367, #366 ) ;
#370 = CIRCLE ( 'NONE', #369, 20.00000000000000000 ) ;
#371 = DIRECTION ( 'NONE',  ( 0.0000000000000000000, 0.0000000000000000000, 1.000000000000000000 ) ) ;
#372 = DIRECTION ( 'NONE',  ( 0.0000000000000000000, 1.000000000000000000, 0.0000000000000000000 ) ) ;
#373 = CARTESIAN_POINT ( 'NONE',  ( 2.499999999499068700, -21.99999999650043500, 0.0000000000000000000 ) ) ;
#374 = AXIS2_PLACEMENT_3D ( 'NONE', #373, #372, #371 ) ;
#375 = PLANE ( 'NONE',  #374 ) ;
#376 = FACE_BOUND ( 'NONE', #57, .T. ) ;
#377 = FACE_OUTER_BOUND ( 'NONE', #58, .T. ) ;
#378 = DIRECTION ( 'NONE',  ( 0.0000000000000000000, 0.0000000000000000000, 1.000000000000000000 ) ) ;
#379 = DIRECTION ( 'NONE',  ( 0.0000000000000000000, 1.000000000000000000, 0.0000000000000000000 ) ) ;
#380 = CARTESIAN_POINT ( 'NONE',  ( -5.009326287108706300E-010, -8.999999996500436700, 0.0000000000000000000 ) ) ;
#381 = AXIS2_PLACEMENT_3D ( 'NONE', #380, #379, #378 ) ;
ENDSEC;
END-ISO-10303-21;
