ISO-10303-21;
HEADER;
FILE_DESCRIPTION (( 'STEP AP203' ),
    '1' );
FILE_NAME ('C-30-RK-40-gray.STEP',
    '2009-06-29T02:28:44',
    ( '11sw' ),
    ( '^LQ»¢®ïÐ' ),
    'SwSTEP 2.0',
    'SolidWorks 2007',
    '' );
FILE_SCHEMA (( 'CONFIG_CONTROL_DESIGN' ));
ENDSEC;

DATA;
#1 = EDGE_LOOP ( 'NONE', ( #12, #155 ) ) ;
#2 = EDGE_LOOP ( 'NONE', ( #99, #8, #4, #56 ) ) ;
#3 = ORIENTED_EDGE ( 'NONE', *, *, #29, .F. ) ;
#4 = ORIENTED_EDGE ( 'NONE', *, *, #58, .T. ) ;
#5 = ORIENTED_EDGE ( 'NONE', *, *, #128, .T. ) ;
#6 = ADVANCED_FACE ( 'NONE', ( #67 ), #143, .T. ) ;
#7 = EDGE_CURVE ( 'NONE', #60, #49, #107, .T. ) ;
#8 = ORIENTED_EDGE ( 'NONE', *, *, #7, .F. ) ;
#9 = ORIENTED_EDGE ( 'NONE', *, *, #48, .T. ) ;
#10 = CLOSED_SHELL ( 'NONE', ( #77, #46, #59, #54, #115, #25, #32, #39, #11, #16, #6 ) ) ;
#11 = ADVANCED_FACE ( 'NONE', ( #108 ), #101, .F. ) ;
#12 = ORIENTED_EDGE ( 'NONE', *, *, #41, .T. ) ;
#13 = ORIENTED_EDGE ( 'NONE', *, *, #88, .T. ) ;
#14 = EDGE_LOOP ( 'NONE', ( #20, #42 ) ) ;
#15 = EDGE_LOOP ( 'NONE', ( #157, #124, #13, #5 ) ) ;
#16 = ADVANCED_FACE ( 'NONE', ( #105, #104 ), #87, .F. ) ;
#17 = EDGE_LOOP ( 'NONE', ( #19, #9 ) ) ;
#18 = ORIENTED_EDGE ( 'NONE', *, *, #44, .F. ) ;
#19 = ORIENTED_EDGE ( 'NONE', *, *, #7, .T. ) ;
#20 = ORIENTED_EDGE ( 'NONE', *, *, #128, .F. ) ;
#21 = ORIENTED_EDGE ( 'NONE', *, *, #92, .T. ) ;
#22 = EDGE_LOOP ( 'NONE', ( #21, #35 ) ) ;
#23 = ORIENTED_EDGE ( 'NONE', *, *, #70, .F. ) ;
#24 = EDGE_CURVE ( 'NONE', #71, #68, #137, .T. ) ;
#25 = ADVANCED_FACE ( 'NONE', ( #94, #55 ), #133, .F. ) ;
#26 = EDGE_LOOP ( 'NONE', ( #27, #23 ) ) ;
#27 = ORIENTED_EDGE ( 'NONE', *, *, #24, .F. ) ;
#28 = ORIENTED_EDGE ( 'NONE', *, *, #119, .T. ) ;
#29 = EDGE_CURVE ( 'NONE', #45, #63, #148, .T. ) ;
#30 = ORIENTED_EDGE ( 'NONE', *, *, #38, .F. ) ;
#31 = EDGE_LOOP ( 'NONE', ( #33, #34, #36, #37 ) ) ;
#32 = ADVANCED_FACE ( 'NONE', ( #149 ), #126, .F. ) ;
#33 = ORIENTED_EDGE ( 'NONE', *, *, #97, .F. ) ;
#34 = ORIENTED_EDGE ( 'NONE', *, *, #41, .F. ) ;
#35 = ORIENTED_EDGE ( 'NONE', *, *, #38, .T. ) ;
#36 = ORIENTED_EDGE ( 'NONE', *, *, #53, .T. ) ;
#37 = ORIENTED_EDGE ( 'NONE', *, *, #24, .T. ) ;
#38 = EDGE_CURVE ( 'NONE', #90, #117, #152, .T. ) ;
#39 = ADVANCED_FACE ( 'NONE', ( #167, #159 ), #168, .F. ) ;
#40 = EDGE_LOOP ( 'NONE', ( #3, #18 ) ) ;
#41 = EDGE_CURVE ( 'NONE', #95, #123, #163, .T. ) ;
#42 = ORIENTED_EDGE ( 'NONE', *, *, #79, .F. ) ;
#43 = ORIENTED_EDGE ( 'NONE', *, *, #44, .T. ) ;
#44 = EDGE_CURVE ( 'NONE', #63, #45, #289, .T. ) ;
#45 = VERTEX_POINT ( 'NONE', #284 ) ;
#46 = ADVANCED_FACE ( 'NONE', ( #283 ), #281, .F. ) ;
#47 = ORIENTED_EDGE ( 'NONE', *, *, #48, .F. ) ;
#48 = EDGE_CURVE ( 'NONE', #49, #60, #277, .T. ) ;
#49 = VERTEX_POINT ( 'NONE', #272 ) ;
#50 = EDGE_LOOP ( 'NONE', ( #51, #75, #78, #93 ) ) ;
#51 = ORIENTED_EDGE ( 'NONE', *, *, #72, .F. ) ;
#52 = ORIENTED_EDGE ( 'NONE', *, *, #53, .F. ) ;
#53 = EDGE_CURVE ( 'NONE', #95, #71, #271, .T. ) ;
#54 = ADVANCED_FACE ( 'NONE', ( #267 ), #265, .T. ) ;
#55 = FACE_OUTER_BOUND ( 'NONE', #22, .T. ) ;
#56 = ORIENTED_EDGE ( 'NONE', *, *, #29, .T. ) ;
#57 = ORIENTED_EDGE ( 'NONE', *, *, #58, .F. ) ;
#58 = EDGE_CURVE ( 'NONE', #60, #45, #261, .T. ) ;
#59 = ADVANCED_FACE ( 'NONE', ( #381 ), #380, .F. ) ;
#60 = VERTEX_POINT ( 'NONE', #375 ) ;
#61 = ORIENTED_EDGE ( 'NONE', *, *, #62, .T. ) ;
#62 = EDGE_CURVE ( 'NONE', #49, #63, #374, .T. ) ;
#63 = VERTEX_POINT ( 'NONE', #370 ) ;
#64 = EDGE_LOOP ( 'NONE', ( #113, #114, #91, #118 ) ) ;
#65 = EDGE_CURVE ( 'NONE', #73, #66, #369, .T. ) ;
#66 = VERTEX_POINT ( 'NONE', #365 ) ;
#67 = FACE_OUTER_BOUND ( 'NONE', #15, .T. ) ;
#68 = VERTEX_POINT ( 'NONE', #364 ) ;
#69 = ORIENTED_EDGE ( 'NONE', *, *, #70, .T. ) ;
#70 = EDGE_CURVE ( 'NONE', #68, #71, #363, .T. ) ;
#71 = VERTEX_POINT ( 'NONE', #358 ) ;
#72 = EDGE_CURVE ( 'NONE', #73, #74, #357, .T. ) ;
#73 = VERTEX_POINT ( 'NONE', #352 ) ;
#74 = VERTEX_POINT ( 'NONE', #351 ) ;
#75 = ORIENTED_EDGE ( 'NONE', *, *, #65, .T. ) ;
#76 = MANIFOLD_SOLID_BREP ( 'NONE', #10 ) ;
#77 = ADVANCED_FACE ( 'NONE', ( #350 ), #348, .T. ) ;
#78 = ORIENTED_EDGE ( 'NONE', *, *, #79, .T. ) ;
#79 = EDGE_CURVE ( 'NONE', #66, #98, #343, .T. ) ;
#80 = ORIENTED_EDGE ( 'NONE', *, *, #89, .F. ) ;
#81 = ORIENTED_EDGE ( 'NONE', *, *, #82, .T. ) ;
#82 = EDGE_CURVE ( 'NONE', #74, #73, #338, .T. ) ;
#83 = DIRECTION ( 'NONE',  ( 0.0000000000000000000, 0.0000000000000000000, 1.000000000000000000 ) ) ;
#84 = DIRECTION ( 'NONE',  ( 0.0000000000000000000, 1.000000000000000000, 0.0000000000000000000 ) ) ;
#85 = CARTESIAN_POINT ( 'NONE',  ( 2.499999999499068700, -21.99999999650043500, 0.0000000000000000000 ) ) ;
#86 = AXIS2_PLACEMENT_3D ( 'NONE', #85, #84, #83 ) ;
#87 = PLANE ( 'NONE',  #86 ) ;
#88 = EDGE_CURVE ( 'NONE', #74, #98, #334, .T. ) ;
#89 = EDGE_CURVE ( 'NONE', #74, #90, #330, .T. ) ;
#90 = VERTEX_POINT ( 'NONE', #325 ) ;
#91 = ORIENTED_EDGE ( 'NONE', *, *, #92, .F. ) ;
#92 = EDGE_CURVE ( 'NONE', #117, #90, #323, .T. ) ;
#93 = ORIENTED_EDGE ( 'NONE', *, *, #88, .F. ) ;
#94 = FACE_BOUND ( 'NONE', #26, .T. ) ;
#95 = VERTEX_POINT ( 'NONE', #324 ) ;
#96 = ORIENTED_EDGE ( 'NONE', *, *, #97, .T. ) ;
#97 = EDGE_CURVE ( 'NONE', #123, #68, #318, .T. ) ;
#98 = VERTEX_POINT ( 'NONE', #314 ) ;
#99 = ORIENTED_EDGE ( 'NONE', *, *, #62, .F. ) ;
#100 = CARTESIAN_POINT ( 'NONE',  ( -5.009326287108706300E-010, 3.499565220943523500E-009, 0.0000000000000000000 ) ) ;
#101 = CYLINDRICAL_SURFACE ( 'NONE', #139, 2.500000000000000400 ) ;
#102 = DIRECTION ( 'NONE',  ( 0.0000000000000000000, 0.0000000000000000000, 1.000000000000000000 ) ) ;
#103 = DIRECTION ( 'NONE',  ( 0.0000000000000000000, 1.000000000000000000, 0.0000000000000000000 ) ) ;
#104 = FACE_BOUND ( 'NONE', #17, .T. ) ;
#105 = FACE_OUTER_BOUND ( 'NONE', #14, .T. ) ;
#106 = AXIS2_PLACEMENT_3D ( 'NONE', #142, #141, #140 ) ;
#107 = CIRCLE ( 'NONE', #106, 2.500000000000001300 ) ;
#108 = FACE_OUTER_BOUND ( 'NONE', #2, .T. ) ;
#109 = DIRECTION ( 'NONE',  ( 0.0000000000000000000, 0.0000000000000000000, -1.000000000000000000 ) ) ;
#110 = DIRECTION ( 'NONE',  ( 0.0000000000000000000, -1.000000000000000000, 0.0000000000000000000 ) ) ;
#111 = CARTESIAN_POINT ( 'NONE',  ( -5.009326287108706300E-010, -21.99999999650043500, 0.0000000000000000000 ) ) ;
#112 = AXIS2_PLACEMENT_3D ( 'NONE', #111, #110, #109 ) ;
#113 = ORIENTED_EDGE ( 'NONE', *, *, #72, .T. ) ;
#114 = ORIENTED_EDGE ( 'NONE', *, *, #89, .T. ) ;
#115 = ADVANCED_FACE ( 'NONE', ( #313 ), #311, .T. ) ;
#116 = EDGE_LOOP ( 'NONE', ( #80, #81, #28, #30 ) ) ;
#117 = VERTEX_POINT ( 'NONE', #307 ) ;
#118 = ORIENTED_EDGE ( 'NONE', *, *, #119, .F. ) ;
#119 = EDGE_CURVE ( 'NONE', #73, #117, #306, .T. ) ;
#120 = EDGE_LOOP ( 'NONE', ( #121, #96, #69, #52 ) ) ;
#121 = ORIENTED_EDGE ( 'NONE', *, *, #122, .F. ) ;
#122 = EDGE_CURVE ( 'NONE', #123, #95, #301, .T. ) ;
#123 = VERTEX_POINT ( 'NONE', #296 ) ;
#124 = ORIENTED_EDGE ( 'NONE', *, *, #82, .F. ) ;
#125 = AXIS2_PLACEMENT_3D ( 'NONE', #127, #154, #153 ) ;
#126 = CYLINDRICAL_SURFACE ( 'NONE', #125, 7.000000000000000900 ) ;
#127 = CARTESIAN_POINT ( 'NONE',  ( -5.009326287108706300E-010, 13.44177027475454100, 0.0000000000000000000 ) ) ;
#128 = EDGE_CURVE ( 'NONE', #98, #66, #295, .T. ) ;
#129 = DIRECTION ( 'NONE',  ( 0.0000000000000000000, 0.0000000000000000000, -1.000000000000000000 ) ) ;
#130 = DIRECTION ( 'NONE',  ( 0.0000000000000000000, -1.000000000000000000, 0.0000000000000000000 ) ) ;
#131 = CARTESIAN_POINT ( 'NONE',  ( 11.32671455600178900, 3.499565324035471300E-009, 0.0000000000000000000 ) ) ;
#132 = AXIS2_PLACEMENT_3D ( 'NONE', #131, #130, #129 ) ;
#133 = PLANE ( 'NONE',  #132 ) ;
#134 = DIRECTION ( 'NONE',  ( 0.0000000000000000000, 0.0000000000000000000, 1.000000000000000000 ) ) ;
#135 = DIRECTION ( 'NONE',  ( 0.0000000000000000000, 1.000000000000000000, 0.0000000000000000000 ) ) ;
#136 = AXIS2_PLACEMENT_3D ( 'NONE', #100, #135, #134 ) ;
#137 = CIRCLE ( 'NONE', #136, 7.000000000000000900 ) ;
#138 = CARTESIAN_POINT ( 'NONE',  ( -5.009326287108706300E-010, 13.44177027475454100, 0.0000000000000000000 ) ) ;
#139 = AXIS2_PLACEMENT_3D ( 'NONE', #138, #103, #102 ) ;
#140 = DIRECTION ( 'NONE',  ( 0.0000000000000000000, 0.0000000000000000000, 1.000000000000000000 ) ) ;
#141 = DIRECTION ( 'NONE',  ( 0.0000000000000000000, 1.000000000000000000, 0.0000000000000000000 ) ) ;
#142 = CARTESIAN_POINT ( 'NONE',  ( -5.009326287108706300E-010, -21.99999999650043500, 0.0000000000000000000 ) ) ;
#143 = CONICAL_SURFACE ( 'NONE', #112, 20.00000000000000000, 0.2662520491509254800 ) ;
#144 = DIRECTION ( 'NONE',  ( 0.0000000000000000000, 0.0000000000000000000, 1.000000000000000000 ) ) ;
#145 = DIRECTION ( 'NONE',  ( 0.0000000000000000000, 1.000000000000000000, 0.0000000000000000000 ) ) ;
#146 = CARTESIAN_POINT ( 'NONE',  ( -5.009326287108706300E-010, -8.999999996500436700, 0.0000000000000000000 ) ) ;
#147 = AXIS2_PLACEMENT_3D ( 'NONE', #146, #145, #144 ) ;
#148 = CIRCLE ( 'NONE', #147, 2.499999999999999600 ) ;
#149 = FACE_OUTER_BOUND ( 'NONE', #31, .T. ) ;
#150 = CARTESIAN_POINT ( 'NONE',  ( -5.009326287108706300E-010, 3.499565220943523500E-009, 0.0000000000000000000 ) ) ;
#151 = AXIS2_PLACEMENT_3D ( 'NONE', #150, #171, #158 ) ;
#152 = CIRCLE ( 'NONE', #151, 11.32671455650272200 ) ;
#153 = DIRECTION ( 'NONE',  ( 0.0000000000000000000, 0.0000000000000000000, 1.000000000000000000 ) ) ;
#154 = DIRECTION ( 'NONE',  ( 0.0000000000000000000, 1.000000000000000000, 0.0000000000000000000 ) ) ;
#155 = ORIENTED_EDGE ( 'NONE', *, *, #122, .T. ) ;
#156 = EDGE_LOOP ( 'NONE', ( #47, #61, #43, #57 ) ) ;
#157 = ORIENTED_EDGE ( 'NONE', *, *, #65, .F. ) ;
#158 = DIRECTION ( 'NONE',  ( 0.0000000000000000000, 0.0000000000000000000, 1.000000000000000000 ) ) ;
#159 = FACE_OUTER_BOUND ( 'NONE', #1, .T. ) ;
#160 = DIRECTION ( 'NONE',  ( 0.0000000000000000000, 0.0000000000000000000, 1.000000000000000000 ) ) ;
#161 = DIRECTION ( 'NONE',  ( 0.0000000000000000000, 1.000000000000000000, 0.0000000000000000000 ) ) ;
#162 = AXIS2_PLACEMENT_3D ( 'NONE', #169, #161, #160 ) ;
#163 = CIRCLE ( 'NONE', #162, 7.000000000000000000 ) ;
#164 = DIRECTION ( 'NONE',  ( 0.0000000000000000000, 0.0000000000000000000, -1.000000000000000000 ) ) ;
#165 = DIRECTION ( 'NONE',  ( 0.0000000000000000000, -1.000000000000000000, 0.0000000000000000000 ) ) ;
#166 = AXIS2_PLACEMENT_3D ( 'NONE', #170, #165, #164 ) ;
#167 = FACE_BOUND ( 'NONE', #40, .T. ) ;
#168 = PLANE ( 'NONE',  #166 ) ;
#169 = CARTESIAN_POINT ( 'NONE',  ( -5.009326287108706300E-010, -8.999999996500436700, 0.0000000000000000000 ) ) ;
#170 = CARTESIAN_POINT ( 'NONE',  ( 6.999999999499067400, -8.999999996500434900, 0.0000000000000000000 ) ) ;
#171 = DIRECTION ( 'NONE',  ( 0.0000000000000000000, 1.000000000000000000, 0.0000000000000000000 ) ) ;
#172 = PRODUCT_DEFINITION_SHAPE ( 'NONE', 'NONE',  #235 ) ;
#173 = PRODUCT_RELATED_PRODUCT_CATEGORY ( 'detail', '', ( #244 ) ) ;
#174 = CC_DESIGN_SECURITY_CLASSIFICATION ( #195, ( #214 ) ) ;
#175 = CC_DESIGN_APPROVAL ( #183, ( #195 ) ) ;
#176 = APPROVAL_DATE_TIME ( #177, #183 ) ;
#177 = DATE_AND_TIME ( #178, #179 ) ;
#178 = CALENDAR_DATE ( 2009, 29, 6 ) ;
#179 = LOCAL_TIME ( 11, 28, 44.00000000000000000, #180 ) ;
#180 = COORDINATED_UNIVERSAL_TIME_OFFSET ( 9, 0, .AHEAD. ) ;
#181 = APPROVAL_PERSON_ORGANIZATION ( #185, #183, #182 ) ;
#182 = APPROVAL_ROLE ( '' ) ;
#183 = APPROVAL ( #184, 'UNSPECIFIED' ) ;
#184 = APPROVAL_STATUS ( 'not_yet_approved' ) ;
#185 = PERSON_AND_ORGANIZATION ( #243, #242 ) ;
#186 = CC_DESIGN_DATE_AND_TIME_ASSIGNMENT ( #188, #187, ( #195 ) ) ;
#187 = DATE_TIME_ROLE ( 'classification_date' ) ;
#188 = DATE_AND_TIME ( #189, #190 ) ;
#189 = CALENDAR_DATE ( 2009, 29, 6 ) ;
#190 = LOCAL_TIME ( 11, 28, 44.00000000000000000, #191 ) ;
#191 = COORDINATED_UNIVERSAL_TIME_OFFSET ( 9, 0, .AHEAD. ) ;
#192 = CC_DESIGN_PERSON_AND_ORGANIZATION_ASSIGNMENT ( #194, #193, ( #195 ) ) ;
#193 = PERSON_AND_ORGANIZATION_ROLE ( 'classification_officer' ) ;
#194 = PERSON_AND_ORGANIZATION ( #243, #242 ) ;
#195 = SECURITY_CLASSIFICATION ( '', '', #196 ) ;
#196 = SECURITY_CLASSIFICATION_LEVEL ( 'unclassified' ) ;
#197 = CC_DESIGN_PERSON_AND_ORGANIZATION_ASSIGNMENT ( #199, #198, ( #214 ) ) ;
#198 = PERSON_AND_ORGANIZATION_ROLE ( 'design_supplier' ) ;
#199 = PERSON_AND_ORGANIZATION ( #243, #242 ) ;
#200 = CC_DESIGN_PERSON_AND_ORGANIZATION_ASSIGNMENT ( #202, #201, ( #214 ) ) ;
#201 = PERSON_AND_ORGANIZATION_ROLE ( 'creator' ) ;
#202 = PERSON_AND_ORGANIZATION ( #243, #242 ) ;
#203 = CC_DESIGN_APPROVAL ( #211, ( #214 ) ) ;
#204 = APPROVAL_DATE_TIME ( #205, #211 ) ;
#205 = DATE_AND_TIME ( #206, #207 ) ;
#206 = CALENDAR_DATE ( 2009, 29, 6 ) ;
#207 = LOCAL_TIME ( 11, 28, 44.00000000000000000, #208 ) ;
#208 = COORDINATED_UNIVERSAL_TIME_OFFSET ( 9, 0, .AHEAD. ) ;
#209 = APPROVAL_PERSON_ORGANIZATION ( #213, #211, #210 ) ;
#210 = APPROVAL_ROLE ( '' ) ;
#211 = APPROVAL ( #212, 'UNSPECIFIED' ) ;
#212 = APPROVAL_STATUS ( 'not_yet_approved' ) ;
#213 = PERSON_AND_ORGANIZATION ( #243, #242 ) ;
#214 = PRODUCT_DEFINITION_FORMATION_WITH_SPECIFIED_SOURCE ( 'ANY', '', #244, .NOT_KNOWN. ) ;
#215 = CC_DESIGN_DATE_AND_TIME_ASSIGNMENT ( #217, #216, ( #235 ) ) ;
#216 = DATE_TIME_ROLE ( 'creation_date' ) ;
#217 = DATE_AND_TIME ( #218, #219 ) ;
#218 = CALENDAR_DATE ( 2009, 29, 6 ) ;
#219 = LOCAL_TIME ( 11, 28, 44.00000000000000000, #220 ) ;
#220 = COORDINATED_UNIVERSAL_TIME_OFFSET ( 9, 0, .AHEAD. ) ;
#221 = CC_DESIGN_PERSON_AND_ORGANIZATION_ASSIGNMENT ( #223, #222, ( #235 ) ) ;
#222 = PERSON_AND_ORGANIZATION_ROLE ( 'creator' ) ;
#223 = PERSON_AND_ORGANIZATION ( #243, #242 ) ;
#224 = CC_DESIGN_APPROVAL ( #232, ( #235 ) ) ;
#225 = APPROVAL_DATE_TIME ( #226, #232 ) ;
#226 = DATE_AND_TIME ( #227, #228 ) ;
#227 = CALENDAR_DATE ( 2009, 29, 6 ) ;
#228 = LOCAL_TIME ( 11, 28, 44.00000000000000000, #229 ) ;
#229 = COORDINATED_UNIVERSAL_TIME_OFFSET ( 9, 0, .AHEAD. ) ;
#230 = APPROVAL_PERSON_ORGANIZATION ( #234, #232, #231 ) ;
#231 = APPROVAL_ROLE ( '' ) ;
#232 = APPROVAL ( #233, 'UNSPECIFIED' ) ;
#233 = APPROVAL_STATUS ( 'not_yet_approved' ) ;
#234 = PERSON_AND_ORGANIZATION ( #243, #242 ) ;
#235 = PRODUCT_DEFINITION ( 'UNKNOWN', '', #214, #236 ) ;
#236 = DESIGN_CONTEXT ( 'detailed design', #238, 'design' ) ;
#237 = APPLICATION_PROTOCOL_DEFINITION ( 'international standard', 'config_control_design', 1994, #238 ) ;
#238 = APPLICATION_CONTEXT ( 'configuration controlled 3d designs of mechanical parts and assemblies' ) ;
#239 = CC_DESIGN_PERSON_AND_ORGANIZATION_ASSIGNMENT ( #241, #240, ( #244 ) ) ;
#240 = PERSON_AND_ORGANIZATION_ROLE ( 'design_owner' ) ;
#241 = PERSON_AND_ORGANIZATION ( #243, #242 ) ;
#242 = ORGANIZATION ( 'UNSPECIFIED', 'UNSPECIFIED', '' ) ;
#243 = PERSON ( 'UNSPECIFIED', 'UNSPECIFIED', 'UNSPECIFIED', ('UNSPECIFIED'), ('UNSPECIFIED'), ('UNSPECIFIED') ) ;
#244 = PRODUCT ( 'C-30-RK-40-gray', 'C-30-RK-40-gray', '', ( #245 ) ) ;
#245 = MECHANICAL_CONTEXT ( 'NONE', #247, 'mechanical' ) ;
#246 = APPLICATION_PROTOCOL_DEFINITION ( 'international standard', 'config_control_design', 1994, #247 ) ;
#247 = APPLICATION_CONTEXT ( 'configuration controlled 3d designs of mechanical parts and assemblies' ) ;
#248 = DIRECTION ( 'NONE',  ( 1.000000000000000000, 0.0000000000000000000, 0.0000000000000000000 ) ) ;
#249 = DIRECTION ( 'NONE',  ( 0.0000000000000000000, 0.0000000000000000000, 1.000000000000000000 ) ) ;
#250 = AXIS2_PLACEMENT_3D ( 'NONE', #290, #249, #248 ) ;
#251 = SHAPE_DEFINITION_REPRESENTATION ( #172, #252 ) ;
#252 = ADVANCED_BREP_SHAPE_REPRESENTATION ( 'C-30-RK-40-gray', ( #76, #250 ), #253 ) ;
#253 =( GEOMETRIC_REPRESENTATION_CONTEXT ( 3 ) GLOBAL_UNCERTAINTY_ASSIGNED_CONTEXT ( ( #254 ) ) GLOBAL_UNIT_ASSIGNED_CONTEXT ( ( #257, #256, #255 ) ) REPRESENTATION_CONTEXT ( 'NONE', 'WORKASPACE' ) );
#254 = UNCERTAINTY_MEASURE_WITH_UNIT (LENGTH_MEASURE( 1.000000000000000100E-005 ), #257, 'distance_accuracy_value', 'NONE');
#255 =( NAMED_UNIT ( * ) SI_UNIT ( $, .STERADIAN. ) SOLID_ANGLE_UNIT ( ) );
#256 =( NAMED_UNIT ( * ) PLANE_ANGLE_UNIT ( ) SI_UNIT ( $, .RADIAN. ) );
#257 =( LENGTH_UNIT ( ) NAMED_UNIT ( * ) SI_UNIT ( .MILLI., .METRE. ) );
#258 = DIRECTION ( 'NONE',  ( 0.0000000000000000000, 1.000000000000000000, 0.0000000000000000000 ) ) ;
#259 = VECTOR ( 'NONE', #258, 1000.000000000000000 ) ;
#260 = CARTESIAN_POINT ( 'NONE',  ( -5.009326287108706300E-010, 13.44177027475454100, 2.500000000000000400 ) ) ;
#261 = LINE ( 'NONE', #260, #259 ) ;
#262 = DIRECTION ( 'NONE',  ( 0.0000000000000000000, 0.0000000000000000000, 1.000000000000000000 ) ) ;
#263 = DIRECTION ( 'NONE',  ( 0.0000000000000000000, 1.000000000000000000, 0.0000000000000000000 ) ) ;
#264 = AXIS2_PLACEMENT_3D ( 'NONE', #266, #263, #262 ) ;
#265 = TOROIDAL_SURFACE ( 'NONE', #264, 11.32671455650274200, 3.499999999999999600 ) ;
#266 = CARTESIAN_POINT ( 'NONE',  ( -5.009326287108706300E-010, -3.499999996500434900, 0.0000000000000000000 ) ) ;
#267 = FACE_OUTER_BOUND ( 'NONE', #64, .T. ) ;
#268 = DIRECTION ( 'NONE',  ( 0.0000000000000000000, 1.000000000000000000, 0.0000000000000000000 ) ) ;
#269 = VECTOR ( 'NONE', #268, 1000.000000000000000 ) ;
#270 = CARTESIAN_POINT ( 'NONE',  ( -5.009326287108706300E-010, 13.44177027475454100, 7.000000000000000900 ) ) ;
#271 = LINE ( 'NONE', #270, #269 ) ;
#272 = CARTESIAN_POINT ( 'NONE',  ( -5.009323225592821800E-010, -21.99999999650043500, -2.500000000000001800 ) ) ;
#273 = DIRECTION ( 'NONE',  ( 0.0000000000000000000, 0.0000000000000000000, 1.000000000000000000 ) ) ;
#274 = DIRECTION ( 'NONE',  ( 0.0000000000000000000, 1.000000000000000000, 0.0000000000000000000 ) ) ;
#275 = CARTESIAN_POINT ( 'NONE',  ( -5.009326287108706300E-010, -21.99999999650043500, 0.0000000000000000000 ) ) ;
#276 = AXIS2_PLACEMENT_3D ( 'NONE', #275, #274, #273 ) ;
#277 = CIRCLE ( 'NONE', #276, 2.500000000000001300 ) ;
#278 = DIRECTION ( 'NONE',  ( 0.0000000000000000000, 0.0000000000000000000, 1.000000000000000000 ) ) ;
#279 = DIRECTION ( 'NONE',  ( 0.0000000000000000000, 1.000000000000000000, 0.0000000000000000000 ) ) ;
#280 = AXIS2_PLACEMENT_3D ( 'NONE', #282, #279, #278 ) ;
#281 = CYLINDRICAL_SURFACE ( 'NONE', #280, 2.500000000000000400 ) ;
#282 = CARTESIAN_POINT ( 'NONE',  ( -5.009326287108706300E-010, 13.44177027475454100, 0.0000000000000000000 ) ) ;
#283 = FACE_OUTER_BOUND ( 'NONE', #156, .T. ) ;
#284 = CARTESIAN_POINT ( 'NONE',  ( -5.009326287108706300E-010, -8.999999996500436700, 2.499999999999999600 ) ) ;
#285 = DIRECTION ( 'NONE',  ( 0.0000000000000000000, 0.0000000000000000000, 1.000000000000000000 ) ) ;
#286 = DIRECTION ( 'NONE',  ( 0.0000000000000000000, 1.000000000000000000, 0.0000000000000000000 ) ) ;
#287 = CARTESIAN_POINT ( 'NONE',  ( -5.009326287108706300E-010, -8.999999996500436700, 0.0000000000000000000 ) ) ;
#288 = AXIS2_PLACEMENT_3D ( 'NONE', #287, #286, #285 ) ;
#289 = CIRCLE ( 'NONE', #288, 2.499999999999999600 ) ;
#290 = CARTESIAN_POINT ( 'NONE',  ( 0.0000000000000000000, 0.0000000000000000000, 0.0000000000000000000 ) ) ;
#291 = DIRECTION ( 'NONE',  ( 0.0000000000000000000, 0.0000000000000000000, 1.000000000000000000 ) ) ;
#292 = DIRECTION ( 'NONE',  ( 0.0000000000000000000, 1.000000000000000000, 0.0000000000000000000 ) ) ;
#293 = CARTESIAN_POINT ( 'NONE',  ( -5.009326287108706300E-010, -21.99999999650043500, 0.0000000000000000000 ) ) ;
#294 = AXIS2_PLACEMENT_3D ( 'NONE', #293, #292, #291 ) ;
#295 = CIRCLE ( 'NONE', #294, 20.00000000000000000 ) ;
#296 = CARTESIAN_POINT ( 'NONE',  ( -5.009317714864229600E-010, -8.999999996500436700, -7.000000000000000000 ) ) ;
#297 = DIRECTION ( 'NONE',  ( 0.0000000000000000000, 0.0000000000000000000, 1.000000000000000000 ) ) ;
#298 = DIRECTION ( 'NONE',  ( 0.0000000000000000000, 1.000000000000000000, 0.0000000000000000000 ) ) ;
#299 = CARTESIAN_POINT ( 'NONE',  ( -5.009326287108706300E-010, -8.999999996500436700, 0.0000000000000000000 ) ) ;
#300 = AXIS2_PLACEMENT_3D ( 'NONE', #299, #298, #297 ) ;
#301 = CIRCLE ( 'NONE', #300, 7.000000000000000000 ) ;
#302 = DIRECTION ( 'NONE',  ( 0.0000000000000000000, 0.0000000000000000000, 1.000000000000000000 ) ) ;
#303 = DIRECTION ( 'NONE',  ( -1.000000000000000000, 0.0000000000000000000, 0.0000000000000000000 ) ) ;
#304 = CARTESIAN_POINT ( 'NONE',  ( -5.009326287108706300E-010, -3.499999996500434900, 11.32671455650274200 ) ) ;
#305 = AXIS2_PLACEMENT_3D ( 'NONE', #304, #303, #302 ) ;
#306 = CIRCLE ( 'NONE', #305, 3.499999999999999600 ) ;
#307 = CARTESIAN_POINT ( 'NONE',  ( -5.009326287108706300E-010, 3.499565220943523500E-009, 11.32671455650272200 ) ) ;
#308 = DIRECTION ( 'NONE',  ( 0.0000000000000000000, 0.0000000000000000000, 1.000000000000000000 ) ) ;
#309 = DIRECTION ( 'NONE',  ( 0.0000000000000000000, 1.000000000000000000, 0.0000000000000000000 ) ) ;
#310 = AXIS2_PLACEMENT_3D ( 'NONE', #312, #309, #308 ) ;
#311 = TOROIDAL_SURFACE ( 'NONE', #310, 11.32671455650274200, 3.499999999999999600 ) ;
#312 = CARTESIAN_POINT ( 'NONE',  ( -5.009326287108706300E-010, -3.499999996500434900, 0.0000000000000000000 ) ) ;
#313 = FACE_OUTER_BOUND ( 'NONE', #116, .T. ) ;
#314 = CARTESIAN_POINT ( 'NONE',  ( -5.009326287108706300E-010, -21.99999999650043500, -20.00000000000000000 ) ) ;
#315 = DIRECTION ( 'NONE',  ( 0.0000000000000000000, 1.000000000000000000, 0.0000000000000000000 ) ) ;
#316 = VECTOR ( 'NONE', #315, 1000.000000000000000 ) ;
#317 = CARTESIAN_POINT ( 'NONE',  ( -5.009317714864229600E-010, 13.44177027475454100, -7.000000000000000900 ) ) ;
#318 = LINE ( 'NONE', #317, #316 ) ;
#319 = DIRECTION ( 'NONE',  ( 0.0000000000000000000, 0.0000000000000000000, 1.000000000000000000 ) ) ;
#320 = DIRECTION ( 'NONE',  ( 0.0000000000000000000, 1.000000000000000000, 0.0000000000000000000 ) ) ;
#321 = CARTESIAN_POINT ( 'NONE',  ( -5.009326287108706300E-010, 3.499565220943523500E-009, 0.0000000000000000000 ) ) ;
#322 = AXIS2_PLACEMENT_3D ( 'NONE', #321, #320, #319 ) ;
#323 = CIRCLE ( 'NONE', #322, 11.32671455650272200 ) ;
#324 = CARTESIAN_POINT ( 'NONE',  ( -5.009326287108706300E-010, -8.999999996500436700, 7.000000000000000000 ) ) ;
#325 = CARTESIAN_POINT ( 'NONE',  ( -5.009310348794258200E-010, 3.499565220943523500E-009, -11.32671455650272200 ) ) ;
#326 = DIRECTION ( 'NONE',  ( 1.224606353900848700E-016, 0.0000000000000000000, -1.000000000000000000 ) ) ;
#327 = DIRECTION ( 'NONE',  ( 1.000000000000000000, 0.0000000000000000000, 1.224606353822377300E-016 ) ) ;
#328 = CARTESIAN_POINT ( 'NONE',  ( -5.009312416342093400E-010, -3.499999996500434900, -11.32671455650274200 ) ) ;
#329 = AXIS2_PLACEMENT_3D ( 'NONE', #328, #327, #326 ) ;
#330 = CIRCLE ( 'NONE', #329, 3.499999999999999600 ) ;
#331 = DIRECTION ( 'NONE',  ( 0.0000000000000000000, -0.9647638212377321900, -0.2631174057921089600 ) ) ;
#332 = VECTOR ( 'NONE', #331, 999.9999999999998900 ) ;
#333 = CARTESIAN_POINT ( 'NONE',  ( -5.009326287108706300E-010, -21.99999999650043500, -20.00000000000000000 ) ) ;
#334 = LINE ( 'NONE', #333, #332 ) ;
#335 = DIRECTION ( 'NONE',  ( 0.0000000000000000000, 0.0000000000000000000, 1.000000000000000000 ) ) ;
#336 = DIRECTION ( 'NONE',  ( 0.0000000000000000000, 1.000000000000000000, 0.0000000000000000000 ) ) ;
#337 = AXIS2_PLACEMENT_3D ( 'NONE', #344, #336, #335 ) ;
#338 = CIRCLE ( 'NONE', #337, 14.70338793083480900 ) ;
#339 = DIRECTION ( 'NONE',  ( 0.0000000000000000000, 0.0000000000000000000, 1.000000000000000000 ) ) ;
#340 = DIRECTION ( 'NONE',  ( 0.0000000000000000000, 1.000000000000000000, 0.0000000000000000000 ) ) ;
#341 = CARTESIAN_POINT ( 'NONE',  ( -5.009326287108706300E-010, -21.99999999650043500, 0.0000000000000000000 ) ) ;
#342 = AXIS2_PLACEMENT_3D ( 'NONE', #341, #340, #339 ) ;
#343 = CIRCLE ( 'NONE', #342, 20.00000000000000000 ) ;
#344 = CARTESIAN_POINT ( 'NONE',  ( -5.009326287108706300E-010, -2.579089076228072000, 0.0000000000000000000 ) ) ;
#345 = DIRECTION ( 'NONE',  ( 0.0000000000000000000, 0.0000000000000000000, -1.000000000000000000 ) ) ;
#346 = DIRECTION ( 'NONE',  ( 0.0000000000000000000, -1.000000000000000000, 0.0000000000000000000 ) ) ;
#347 = AXIS2_PLACEMENT_3D ( 'NONE', #349, #346, #345 ) ;
#348 = CONICAL_SURFACE ( 'NONE', #347, 20.00000000000000000, 0.2662520491509254800 ) ;
#349 = CARTESIAN_POINT ( 'NONE',  ( -5.009326287108706300E-010, -21.99999999650043500, 0.0000000000000000000 ) ) ;
#350 = FACE_OUTER_BOUND ( 'NONE', #50, .T. ) ;
#351 = CARTESIAN_POINT ( 'NONE',  ( -5.009308281246424000E-010, -2.579089076228072000, -14.70338793083480900 ) ) ;
#352 = CARTESIAN_POINT ( 'NONE',  ( -5.009326287108706300E-010, -2.579089076228072000, 14.70338793083480900 ) ) ;
#353 = DIRECTION ( 'NONE',  ( 0.0000000000000000000, 0.0000000000000000000, 1.000000000000000000 ) ) ;
#354 = DIRECTION ( 'NONE',  ( 0.0000000000000000000, 1.000000000000000000, 0.0000000000000000000 ) ) ;
#355 = CARTESIAN_POINT ( 'NONE',  ( -5.009326287108706300E-010, -2.579089076228072000, 0.0000000000000000000 ) ) ;
#356 = AXIS2_PLACEMENT_3D ( 'NONE', #355, #354, #353 ) ;
#357 = CIRCLE ( 'NONE', #356, 14.70338793083480900 ) ;
#358 = CARTESIAN_POINT ( 'NONE',  ( -5.009326287108706300E-010, 3.499565220943523500E-009, 7.000000000000000900 ) ) ;
#359 = DIRECTION ( 'NONE',  ( 0.0000000000000000000, 0.0000000000000000000, 1.000000000000000000 ) ) ;
#360 = DIRECTION ( 'NONE',  ( 0.0000000000000000000, 1.000000000000000000, 0.0000000000000000000 ) ) ;
#361 = CARTESIAN_POINT ( 'NONE',  ( -5.009326287108706300E-010, 3.499565220943523500E-009, 0.0000000000000000000 ) ) ;
#362 = AXIS2_PLACEMENT_3D ( 'NONE', #361, #360, #359 ) ;
#363 = CIRCLE ( 'NONE', #362, 7.000000000000000900 ) ;
#364 = CARTESIAN_POINT ( 'NONE',  ( -5.009317714864229600E-010, 3.499565220943523500E-009, -7.000000000000000900 ) ) ;
#365 = CARTESIAN_POINT ( 'NONE',  ( -5.009301794981629900E-010, -21.99999999650043500, 20.00000000000000000 ) ) ;
#366 = DIRECTION ( 'NONE',  ( 3.222152469342774100E-017, -0.9647638212377321900, 0.2631174057921089600 ) ) ;
#367 = VECTOR ( 'NONE', #366, 999.9999999999998900 ) ;
#368 = CARTESIAN_POINT ( 'NONE',  ( -5.009301794981629900E-010, -21.99999999650043500, 20.00000000000000000 ) ) ;
#369 = LINE ( 'NONE', #368, #367 ) ;
#370 = CARTESIAN_POINT ( 'NONE',  ( -5.009323225592821800E-010, -8.999999996500436700, -2.499999999999999600 ) ) ;
#371 = DIRECTION ( 'NONE',  ( 0.0000000000000000000, 1.000000000000000000, 0.0000000000000000000 ) ) ;
#372 = VECTOR ( 'NONE', #371, 1000.000000000000000 ) ;
#373 = CARTESIAN_POINT ( 'NONE',  ( -5.009323225592821800E-010, 13.44177027475454100, -2.500000000000000400 ) ) ;
#374 = LINE ( 'NONE', #373, #372 ) ;
#375 = CARTESIAN_POINT ( 'NONE',  ( -5.009326287108706300E-010, -21.99999999650043500, 2.500000000000001300 ) ) ;
#376 = DIRECTION ( 'NONE',  ( 0.0000000000000000000, 0.0000000000000000000, 1.000000000000000000 ) ) ;
#377 = DIRECTION ( 'NONE',  ( 0.0000000000000000000, 1.000000000000000000, 0.0000000000000000000 ) ) ;
#378 = CARTESIAN_POINT ( 'NONE',  ( -5.009326287108706300E-010, 13.44177027475454100, 0.0000000000000000000 ) ) ;
#379 = AXIS2_PLACEMENT_3D ( 'NONE', #378, #377, #376 ) ;
#380 = CYLINDRICAL_SURFACE ( 'NONE', #379, 7.000000000000000900 ) ;
#381 = FACE_OUTER_BOUND ( 'NONE', #120, .T. ) ;
ENDSEC;
END-ISO-10303-21;
