ISO-10303-21;
HEADER;
FILE_DESCRIPTION (( 'STEP AP203' ),
    '1' );
FILE_NAME ('C-30-RK-40.STEP',
    '2009-06-26T07:21:02',
    ( '11sw' ),
    ( '^LQ»¢®ïÐ' ),
    'SwSTEP 2.0',
    'SolidWorks 2007',
    '' );
FILE_SCHEMA (( 'CONFIG_CONTROL_DESIGN' ));
ENDSEC;

DATA;
#1 = DIRECTION ( 'NONE',  ( 0.0000000000000000000, 0.0000000000000000000, -1.000000000000000000 ) ) ;
#2 = AXIS2_PLACEMENT_3D ( 'NONE', #4, #3, #1 ) ;
#3 = DIRECTION ( 'NONE',  ( 0.0000000000000000000, -1.000000000000000000, 0.0000000000000000000 ) ) ;
#4 = CARTESIAN_POINT ( 'NONE',  ( 6.999999999499067400, -8.999999996500434900, 0.0000000000000000000 ) ) ;
#5 = MECHANICAL_CONTEXT ( 'NONE', #7, 'mechanical' ) ;
#6 = APPLICATION_PROTOCOL_DEFINITION ( 'international standard', 'config_control_design', 1994, #7 ) ;
#7 = APPLICATION_CONTEXT ( 'configuration controlled 3d designs of mechanical parts and assemblies' ) ;
#8 = PERSON ( 'UNSPECIFIED', 'UNSPECIFIED', 'UNSPECIFIED', ('UNSPECIFIED'), ('UNSPECIFIED'), ('UNSPECIFIED') ) ;
#9 = PRODUCT ( 'C-30-RK-40', 'C-30-RK-40', '', ( #5 ) ) ;
#10 = PLANE ( 'NONE',  #2 ) ;
#11 = FACE_OUTER_BOUND ( 'NONE', #27, .T. ) ;
#12 = DIRECTION ( 'NONE',  ( 0.0000000000000000000, 0.0000000000000000000, 1.000000000000000000 ) ) ;
#13 = DIRECTION ( 'NONE',  ( 0.0000000000000000000, 1.000000000000000000, 0.0000000000000000000 ) ) ;
#14 = CARTESIAN_POINT ( 'NONE',  ( -5.009326287108706300E-010, -8.999999996500436700, 0.0000000000000000000 ) ) ;
#15 = AXIS2_PLACEMENT_3D ( 'NONE', #14, #13, #12 ) ;
#16 = CIRCLE ( 'NONE', #15, 7.000000000000000000 ) ;
#17 = FACE_BOUND ( 'NONE', #23, .T. ) ;
#18 = ORIENTED_EDGE ( 'NONE', *, *, #19, .F. ) ;
#19 = EDGE_CURVE ( 'NONE', #92, #91, #16, .T. ) ;
#20 = ORIENTED_EDGE ( 'NONE', *, *, #75, .T. ) ;
#21 = ORIENTED_EDGE ( 'NONE', *, *, #69, .T. ) ;
#22 = ADVANCED_FACE ( 'NONE', ( #17, #11 ), #10, .F. ) ;
#23 = EDGE_LOOP ( 'NONE', ( #24, #26 ) ) ;
#24 = ORIENTED_EDGE ( 'NONE', *, *, #25, .F. ) ;
#25 = EDGE_CURVE ( 'NONE', #105, #110, #301, .T. ) ;
#26 = ORIENTED_EDGE ( 'NONE', *, *, #104, .F. ) ;
#27 = EDGE_LOOP ( 'NONE', ( #28, #29 ) ) ;
#28 = ORIENTED_EDGE ( 'NONE', *, *, #19, .T. ) ;
#29 = ORIENTED_EDGE ( 'NONE', *, *, #90, .T. ) ;
#30 = ADVANCED_FACE ( 'NONE', ( #207 ), #300, .F. ) ;
#31 = EDGE_LOOP ( 'NONE', ( #32, #33, #35, #36 ) ) ;
#32 = ORIENTED_EDGE ( 'NONE', *, *, #107, .F. ) ;
#33 = ORIENTED_EDGE ( 'NONE', *, *, #34, .F. ) ;
#34 = EDGE_CURVE ( 'NONE', #94, #103, #278, .T. ) ;
#35 = ORIENTED_EDGE ( 'NONE', *, *, #97, .T. ) ;
#36 = ORIENTED_EDGE ( 'NONE', *, *, #25, .T. ) ;
#37 = ADVANCED_FACE ( 'NONE', ( #305, #298 ), #297, .F. ) ;
#38 = EDGE_LOOP ( 'NONE', ( #39, #41 ) ) ;
#39 = ORIENTED_EDGE ( 'NONE', *, *, #40, .F. ) ;
#40 = EDGE_CURVE ( 'NONE', #111, #114, #275, .T. ) ;
#41 = ORIENTED_EDGE ( 'NONE', *, *, #112, .F. ) ;
#42 = EDGE_LOOP ( 'NONE', ( #43, #44 ) ) ;
#43 = ORIENTED_EDGE ( 'NONE', *, *, #34, .T. ) ;
#44 = ORIENTED_EDGE ( 'NONE', *, *, #101, .T. ) ;
#45 = ADVANCED_FACE ( 'NONE', ( #276 ), #187, .T. ) ;
#46 = EDGE_LOOP ( 'NONE', ( #47, #48, #49, #50 ) ) ;
#47 = ORIENTED_EDGE ( 'NONE', *, *, #115, .F. ) ;
#48 = ORIENTED_EDGE ( 'NONE', *, *, #62, .F. ) ;
#49 = ORIENTED_EDGE ( 'NONE', *, *, #100, .T. ) ;
#50 = ORIENTED_EDGE ( 'NONE', *, *, #40, .T. ) ;
#51 = CLOSED_SHELL ( 'NONE', ( #122, #93, #98, #76, #54, #66, #57, #22, #30, #37, #45 ) ) ;
#52 = ORIENTED_EDGE ( 'NONE', *, *, #53, .F. ) ;
#53 = EDGE_CURVE ( 'NONE', #118, #73, #186, .T. ) ;
#54 = ADVANCED_FACE ( 'NONE', ( #177 ), #176, .T. ) ;
#55 = EDGE_LOOP ( 'NONE', ( #60, #61, #63, #64 ) ) ;
#56 = ORIENTED_EDGE ( 'NONE', *, *, #65, .T. ) ;
#57 = ADVANCED_FACE ( 'NONE', ( #170 ), #169, .F. ) ;
#58 = EDGE_LOOP ( 'NONE', ( #59, #18, #20, #21 ) ) ;
#59 = ORIENTED_EDGE ( 'NONE', *, *, #88, .F. ) ;
#60 = ORIENTED_EDGE ( 'NONE', *, *, #80, .F. ) ;
#61 = ORIENTED_EDGE ( 'NONE', *, *, #62, .T. ) ;
#62 = EDGE_CURVE ( 'NONE', #120, #118, #164, .T. ) ;
#63 = ORIENTED_EDGE ( 'NONE', *, *, #53, .T. ) ;
#64 = ORIENTED_EDGE ( 'NONE', *, *, #65, .F. ) ;
#65 = EDGE_CURVE ( 'NONE', #81, #73, #160, .T. ) ;
#66 = ADVANCED_FACE ( 'NONE', ( #155, #154 ), #153, .F. ) ;
#67 = EDGE_LOOP ( 'NONE', ( #68, #70 ) ) ;
#68 = ORIENTED_EDGE ( 'NONE', *, *, #69, .F. ) ;
#69 = EDGE_CURVE ( 'NONE', #83, #87, #148, .T. ) ;
#70 = ORIENTED_EDGE ( 'NONE', *, *, #85, .F. ) ;
#71 = EDGE_LOOP ( 'NONE', ( #72, #56 ) ) ;
#72 = ORIENTED_EDGE ( 'NONE', *, *, #74, .T. ) ;
#73 = VERTEX_POINT ( 'NONE', #143 ) ;
#74 = EDGE_CURVE ( 'NONE', #73, #81, #142, .T. ) ;
#75 = EDGE_CURVE ( 'NONE', #92, #83, #137, .T. ) ;
#76 = ADVANCED_FACE ( 'NONE', ( #133 ), #132, .T. ) ;
#77 = EDGE_LOOP ( 'NONE', ( #78, #79, #123, #52 ) ) ;
#78 = ORIENTED_EDGE ( 'NONE', *, *, #117, .T. ) ;
#79 = ORIENTED_EDGE ( 'NONE', *, *, #80, .T. ) ;
#80 = EDGE_CURVE ( 'NONE', #120, #81, #127, .T. ) ;
#81 = VERTEX_POINT ( 'NONE', #269 ) ;
#82 = ORIENTED_EDGE ( 'NONE', *, *, #88, .T. ) ;
#83 = VERTEX_POINT ( 'NONE', #268 ) ;
#84 = ORIENTED_EDGE ( 'NONE', *, *, #85, .T. ) ;
#85 = EDGE_CURVE ( 'NONE', #87, #83, #267, .T. ) ;
#86 = ORIENTED_EDGE ( 'NONE', *, *, #75, .F. ) ;
#87 = VERTEX_POINT ( 'NONE', #262 ) ;
#88 = EDGE_CURVE ( 'NONE', #91, #87, #261, .T. ) ;
#89 = ORIENTED_EDGE ( 'NONE', *, *, #90, .F. ) ;
#90 = EDGE_CURVE ( 'NONE', #91, #92, #257, .T. ) ;
#91 = VERTEX_POINT ( 'NONE', #252 ) ;
#92 = VERTEX_POINT ( 'NONE', #251 ) ;
#93 = ADVANCED_FACE ( 'NONE', ( #250 ), #248, .F. ) ;
#94 = VERTEX_POINT ( 'NONE', #244 ) ;
#95 = ORIENTED_EDGE ( 'NONE', *, *, #97, .F. ) ;
#96 = ORIENTED_EDGE ( 'NONE', *, *, #101, .F. ) ;
#97 = EDGE_CURVE ( 'NONE', #94, #105, #243, .T. ) ;
#98 = ADVANCED_FACE ( 'NONE', ( #239 ), #238, .F. ) ;
#99 = EDGE_LOOP ( 'NONE', ( #89, #82, #84, #86 ) ) ;
#100 = EDGE_CURVE ( 'NONE', #120, #111, #202, .T. ) ;
#101 = EDGE_CURVE ( 'NONE', #103, #94, #194, .T. ) ;
#102 = EDGE_LOOP ( 'NONE', ( #96, #109, #108, #95 ) ) ;
#103 = VERTEX_POINT ( 'NONE', #189 ) ;
#104 = EDGE_CURVE ( 'NONE', #110, #105, #188, .T. ) ;
#105 = VERTEX_POINT ( 'NONE', #233 ) ;
#106 = ORIENTED_EDGE ( 'NONE', *, *, #100, .F. ) ;
#107 = EDGE_CURVE ( 'NONE', #103, #110, #232, .T. ) ;
#108 = ORIENTED_EDGE ( 'NONE', *, *, #104, .T. ) ;
#109 = ORIENTED_EDGE ( 'NONE', *, *, #107, .T. ) ;
#110 = VERTEX_POINT ( 'NONE', #228 ) ;
#111 = VERTEX_POINT ( 'NONE', #227 ) ;
#112 = EDGE_CURVE ( 'NONE', #114, #111, #226, .T. ) ;
#113 = ORIENTED_EDGE ( 'NONE', *, *, #115, .T. ) ;
#114 = VERTEX_POINT ( 'NONE', #221 ) ;
#115 = EDGE_CURVE ( 'NONE', #118, #114, #220, .T. ) ;
#116 = ORIENTED_EDGE ( 'NONE', *, *, #112, .T. ) ;
#117 = EDGE_CURVE ( 'NONE', #118, #120, #216, .T. ) ;
#118 = VERTEX_POINT ( 'NONE', #211 ) ;
#119 = ORIENTED_EDGE ( 'NONE', *, *, #117, .F. ) ;
#120 = VERTEX_POINT ( 'NONE', #210 ) ;
#121 = EDGE_LOOP ( 'NONE', ( #119, #113, #116, #106 ) ) ;
#122 = ADVANCED_FACE ( 'NONE', ( #209 ), #286, .T. ) ;
#123 = ORIENTED_EDGE ( 'NONE', *, *, #74, .F. ) ;
#124 = MANIFOLD_SOLID_BREP ( 'NONE', #51 ) ;
#125 = CARTESIAN_POINT ( 'NONE',  ( -5.009312416342093400E-010, -3.499999996500434900, -11.32671455650274200 ) ) ;
#126 = AXIS2_PLACEMENT_3D ( 'NONE', #125, #271, #270 ) ;
#127 = CIRCLE ( 'NONE', #126, 3.499999999999999600 ) ;
#128 = DIRECTION ( 'NONE',  ( 0.0000000000000000000, 0.0000000000000000000, 1.000000000000000000 ) ) ;
#129 = DIRECTION ( 'NONE',  ( 0.0000000000000000000, 1.000000000000000000, 0.0000000000000000000 ) ) ;
#130 = CARTESIAN_POINT ( 'NONE',  ( -5.009326287108706300E-010, -3.499999996500434900, 0.0000000000000000000 ) ) ;
#131 = AXIS2_PLACEMENT_3D ( 'NONE', #130, #129, #128 ) ;
#132 = TOROIDAL_SURFACE ( 'NONE', #131, 11.32671455650274200, 3.499999999999999600 ) ;
#133 = FACE_OUTER_BOUND ( 'NONE', #77, .T. ) ;
#134 = DIRECTION ( 'NONE',  ( 0.0000000000000000000, 1.000000000000000000, 0.0000000000000000000 ) ) ;
#135 = VECTOR ( 'NONE', #134, 1000.000000000000000 ) ;
#136 = CARTESIAN_POINT ( 'NONE',  ( -5.009326287108706300E-010, 13.44177027475454100, 7.000000000000000900 ) ) ;
#137 = LINE ( 'NONE', #136, #135 ) ;
#138 = DIRECTION ( 'NONE',  ( 0.0000000000000000000, 0.0000000000000000000, 1.000000000000000000 ) ) ;
#139 = DIRECTION ( 'NONE',  ( 0.0000000000000000000, 1.000000000000000000, 0.0000000000000000000 ) ) ;
#140 = CARTESIAN_POINT ( 'NONE',  ( -5.009326287108706300E-010, 3.499565220943523500E-009, 0.0000000000000000000 ) ) ;
#141 = AXIS2_PLACEMENT_3D ( 'NONE', #140, #139, #138 ) ;
#142 = CIRCLE ( 'NONE', #141, 11.32671455650272200 ) ;
#143 = CARTESIAN_POINT ( 'NONE',  ( -5.009326287108706300E-010, 3.499565220943523500E-009, 11.32671455650272200 ) ) ;
#144 = DIRECTION ( 'NONE',  ( 0.0000000000000000000, 0.0000000000000000000, 1.000000000000000000 ) ) ;
#145 = DIRECTION ( 'NONE',  ( 0.0000000000000000000, 1.000000000000000000, 0.0000000000000000000 ) ) ;
#146 = CARTESIAN_POINT ( 'NONE',  ( -5.009326287108706300E-010, 3.499565220943523500E-009, 0.0000000000000000000 ) ) ;
#147 = AXIS2_PLACEMENT_3D ( 'NONE', #146, #145, #144 ) ;
#148 = CIRCLE ( 'NONE', #147, 7.000000000000000900 ) ;
#149 = DIRECTION ( 'NONE',  ( 0.0000000000000000000, 0.0000000000000000000, -1.000000000000000000 ) ) ;
#150 = DIRECTION ( 'NONE',  ( 0.0000000000000000000, -1.000000000000000000, 0.0000000000000000000 ) ) ;
#151 = CARTESIAN_POINT ( 'NONE',  ( 11.32671455600178900, 3.499565324035471300E-009, 0.0000000000000000000 ) ) ;
#152 = AXIS2_PLACEMENT_3D ( 'NONE', #151, #150, #149 ) ;
#153 = PLANE ( 'NONE',  #152 ) ;
#154 = FACE_OUTER_BOUND ( 'NONE', #71, .T. ) ;
#155 = FACE_BOUND ( 'NONE', #67, .T. ) ;
#156 = DIRECTION ( 'NONE',  ( 0.0000000000000000000, 0.0000000000000000000, 1.000000000000000000 ) ) ;
#157 = DIRECTION ( 'NONE',  ( 0.0000000000000000000, 1.000000000000000000, 0.0000000000000000000 ) ) ;
#158 = CARTESIAN_POINT ( 'NONE',  ( -5.009326287108706300E-010, 3.499565220943523500E-009, 0.0000000000000000000 ) ) ;
#159 = AXIS2_PLACEMENT_3D ( 'NONE', #158, #157, #156 ) ;
#160 = CIRCLE ( 'NONE', #159, 11.32671455650272200 ) ;
#161 = DIRECTION ( 'NONE',  ( 0.0000000000000000000, 0.0000000000000000000, 1.000000000000000000 ) ) ;
#162 = DIRECTION ( 'NONE',  ( 0.0000000000000000000, 1.000000000000000000, 0.0000000000000000000 ) ) ;
#163 = AXIS2_PLACEMENT_3D ( 'NONE', #168, #162, #161 ) ;
#164 = CIRCLE ( 'NONE', #163, 14.70338793083480900 ) ;
#165 = DIRECTION ( 'NONE',  ( 0.0000000000000000000, 0.0000000000000000000, 1.000000000000000000 ) ) ;
#166 = DIRECTION ( 'NONE',  ( 0.0000000000000000000, 1.000000000000000000, 0.0000000000000000000 ) ) ;
#167 = AXIS2_PLACEMENT_3D ( 'NONE', #175, #166, #165 ) ;
#168 = CARTESIAN_POINT ( 'NONE',  ( -5.009326287108706300E-010, -2.579089076228072000, 0.0000000000000000000 ) ) ;
#169 = CYLINDRICAL_SURFACE ( 'NONE', #167, 7.000000000000000900 ) ;
#170 = FACE_OUTER_BOUND ( 'NONE', #58, .T. ) ;
#171 = DIRECTION ( 'NONE',  ( 0.0000000000000000000, 0.0000000000000000000, 1.000000000000000000 ) ) ;
#172 = DIRECTION ( 'NONE',  ( 0.0000000000000000000, 1.000000000000000000, 0.0000000000000000000 ) ) ;
#173 = CARTESIAN_POINT ( 'NONE',  ( -5.009326287108706300E-010, -3.499999996500434900, 0.0000000000000000000 ) ) ;
#174 = AXIS2_PLACEMENT_3D ( 'NONE', #173, #172, #171 ) ;
#175 = CARTESIAN_POINT ( 'NONE',  ( -5.009326287108706300E-010, 13.44177027475454100, 0.0000000000000000000 ) ) ;
#176 = TOROIDAL_SURFACE ( 'NONE', #174, 11.32671455650274200, 3.499999999999999600 ) ;
#177 = FACE_OUTER_BOUND ( 'NONE', #55, .T. ) ;
#178 = DIRECTION ( 'NONE',  ( 0.0000000000000000000, 0.0000000000000000000, 1.000000000000000000 ) ) ;
#179 = DIRECTION ( 'NONE',  ( -1.000000000000000000, 0.0000000000000000000, 0.0000000000000000000 ) ) ;
#180 = CARTESIAN_POINT ( 'NONE',  ( -5.009326287108706300E-010, -3.499999996500434900, 11.32671455650274200 ) ) ;
#181 = AXIS2_PLACEMENT_3D ( 'NONE', #180, #179, #178 ) ;
#182 = DIRECTION ( 'NONE',  ( 0.0000000000000000000, 0.0000000000000000000, -1.000000000000000000 ) ) ;
#183 = DIRECTION ( 'NONE',  ( 0.0000000000000000000, -1.000000000000000000, 0.0000000000000000000 ) ) ;
#184 = CARTESIAN_POINT ( 'NONE',  ( -5.009326287108706300E-010, -21.99999999650043500, 0.0000000000000000000 ) ) ;
#185 = AXIS2_PLACEMENT_3D ( 'NONE', #184, #183, #182 ) ;
#186 = CIRCLE ( 'NONE', #181, 3.499999999999999600 ) ;
#187 = CONICAL_SURFACE ( 'NONE', #185, 20.00000000000000000, 0.2662520491509254800 ) ;
#188 = CIRCLE ( 'NONE', #237, 2.499999999999999600 ) ;
#189 = CARTESIAN_POINT ( 'NONE',  ( -5.009323225592821800E-010, -21.99999999650043500, -2.500000000000001300 ) ) ;
#190 = DIRECTION ( 'NONE',  ( 0.0000000000000000000, 0.0000000000000000000, 1.000000000000000000 ) ) ;
#191 = DIRECTION ( 'NONE',  ( 0.0000000000000000000, 1.000000000000000000, 0.0000000000000000000 ) ) ;
#192 = CARTESIAN_POINT ( 'NONE',  ( -5.009326287108706300E-010, -21.99999999650043500, 0.0000000000000000000 ) ) ;
#193 = AXIS2_PLACEMENT_3D ( 'NONE', #192, #191, #190 ) ;
#194 = CIRCLE ( 'NONE', #193, 2.500000000000001300 ) ;
#195 = DIRECTION ( 'NONE',  ( 0.0000000000000000000, -0.9647638212377321900, -0.2631174057921089600 ) ) ;
#196 = VECTOR ( 'NONE', #195, 999.9999999999998900 ) ;
#197 = CARTESIAN_POINT ( 'NONE',  ( -5.009326287108706300E-010, -21.99999999650043500, -20.00000000000000000 ) ) ;
#198 = DIRECTION ( 'NONE',  ( 0.0000000000000000000, 0.0000000000000000000, 1.000000000000000000 ) ) ;
#199 = DIRECTION ( 'NONE',  ( 0.0000000000000000000, 1.000000000000000000, 0.0000000000000000000 ) ) ;
#200 = CARTESIAN_POINT ( 'NONE',  ( -5.009326287108706300E-010, 13.44177027475454100, 0.0000000000000000000 ) ) ;
#201 = AXIS2_PLACEMENT_3D ( 'NONE', #200, #199, #198 ) ;
#202 = LINE ( 'NONE', #197, #196 ) ;
#203 = AXIS2_PLACEMENT_3D ( 'NONE', #204, #287, #295 ) ;
#204 = CARTESIAN_POINT ( 'NONE',  ( -5.009326287108706300E-010, -8.999999996500436700, 0.0000000000000000000 ) ) ;
#205 = DIRECTION ( 'NONE',  ( 0.0000000000000000000, 0.0000000000000000000, 1.000000000000000000 ) ) ;
#206 = AXIS2_PLACEMENT_3D ( 'NONE', #294, #296, #205 ) ;
#207 = FACE_OUTER_BOUND ( 'NONE', #31, .T. ) ;
#208 = CARTESIAN_POINT ( 'NONE',  ( -5.009326287108706300E-010, -21.99999999650043500, 0.0000000000000000000 ) ) ;
#209 = FACE_OUTER_BOUND ( 'NONE', #121, .T. ) ;
#210 = CARTESIAN_POINT ( 'NONE',  ( -5.009308281246424000E-010, -2.579089076228072000, -14.70338793083480900 ) ) ;
#211 = CARTESIAN_POINT ( 'NONE',  ( -5.009326287108706300E-010, -2.579089076228072000, 14.70338793083480900 ) ) ;
#212 = DIRECTION ( 'NONE',  ( 0.0000000000000000000, 0.0000000000000000000, 1.000000000000000000 ) ) ;
#213 = DIRECTION ( 'NONE',  ( 0.0000000000000000000, 1.000000000000000000, 0.0000000000000000000 ) ) ;
#214 = CARTESIAN_POINT ( 'NONE',  ( -5.009326287108706300E-010, -2.579089076228072000, 0.0000000000000000000 ) ) ;
#215 = AXIS2_PLACEMENT_3D ( 'NONE', #214, #213, #212 ) ;
#216 = CIRCLE ( 'NONE', #215, 14.70338793083480900 ) ;
#217 = DIRECTION ( 'NONE',  ( 3.222152469342774100E-017, -0.9647638212377321900, 0.2631174057921089600 ) ) ;
#218 = VECTOR ( 'NONE', #217, 999.9999999999998900 ) ;
#219 = CARTESIAN_POINT ( 'NONE',  ( -5.009301794981629900E-010, -21.99999999650043500, 20.00000000000000000 ) ) ;
#220 = LINE ( 'NONE', #219, #218 ) ;
#221 = CARTESIAN_POINT ( 'NONE',  ( -5.009301794981629900E-010, -21.99999999650043500, 20.00000000000000000 ) ) ;
#222 = DIRECTION ( 'NONE',  ( 0.0000000000000000000, 0.0000000000000000000, 1.000000000000000000 ) ) ;
#223 = DIRECTION ( 'NONE',  ( 0.0000000000000000000, 1.000000000000000000, 0.0000000000000000000 ) ) ;
#224 = CARTESIAN_POINT ( 'NONE',  ( -5.009326287108706300E-010, -21.99999999650043500, 0.0000000000000000000 ) ) ;
#225 = AXIS2_PLACEMENT_3D ( 'NONE', #224, #223, #222 ) ;
#226 = CIRCLE ( 'NONE', #225, 20.00000000000000000 ) ;
#227 = CARTESIAN_POINT ( 'NONE',  ( -5.009326287108706300E-010, -21.99999999650043500, -20.00000000000000000 ) ) ;
#228 = CARTESIAN_POINT ( 'NONE',  ( -5.009323225592821800E-010, -8.999999996500436700, -2.499999999999999600 ) ) ;
#229 = DIRECTION ( 'NONE',  ( 0.0000000000000000000, 1.000000000000000000, 0.0000000000000000000 ) ) ;
#230 = VECTOR ( 'NONE', #229, 1000.000000000000000 ) ;
#231 = CARTESIAN_POINT ( 'NONE',  ( -5.009323225592821800E-010, 13.44177027475454100, -2.500000000000000400 ) ) ;
#232 = LINE ( 'NONE', #231, #230 ) ;
#233 = CARTESIAN_POINT ( 'NONE',  ( -5.009326287108706300E-010, -8.999999996500436700, 2.499999999999999600 ) ) ;
#234 = DIRECTION ( 'NONE',  ( 0.0000000000000000000, 0.0000000000000000000, 1.000000000000000000 ) ) ;
#235 = DIRECTION ( 'NONE',  ( 0.0000000000000000000, 1.000000000000000000, 0.0000000000000000000 ) ) ;
#236 = CARTESIAN_POINT ( 'NONE',  ( -5.009326287108706300E-010, -8.999999996500436700, 0.0000000000000000000 ) ) ;
#237 = AXIS2_PLACEMENT_3D ( 'NONE', #236, #235, #234 ) ;
#238 = CYLINDRICAL_SURFACE ( 'NONE', #201, 7.000000000000000900 ) ;
#239 = FACE_OUTER_BOUND ( 'NONE', #99, .T. ) ;
#240 = DIRECTION ( 'NONE',  ( 0.0000000000000000000, 1.000000000000000000, 0.0000000000000000000 ) ) ;
#241 = VECTOR ( 'NONE', #240, 1000.000000000000000 ) ;
#242 = CARTESIAN_POINT ( 'NONE',  ( -5.009326287108706300E-010, 13.44177027475454100, 2.500000000000000400 ) ) ;
#243 = LINE ( 'NONE', #242, #241 ) ;
#244 = CARTESIAN_POINT ( 'NONE',  ( -5.009326287108706300E-010, -21.99999999650043500, 2.500000000000001300 ) ) ;
#245 = DIRECTION ( 'NONE',  ( 0.0000000000000000000, 0.0000000000000000000, 1.000000000000000000 ) ) ;
#246 = DIRECTION ( 'NONE',  ( 0.0000000000000000000, 1.000000000000000000, 0.0000000000000000000 ) ) ;
#247 = AXIS2_PLACEMENT_3D ( 'NONE', #249, #246, #245 ) ;
#248 = CYLINDRICAL_SURFACE ( 'NONE', #247, 2.500000000000000400 ) ;
#249 = CARTESIAN_POINT ( 'NONE',  ( -5.009326287108706300E-010, 13.44177027475454100, 0.0000000000000000000 ) ) ;
#250 = FACE_OUTER_BOUND ( 'NONE', #102, .T. ) ;
#251 = CARTESIAN_POINT ( 'NONE',  ( -5.009326287108706300E-010, -8.999999996500436700, 7.000000000000000000 ) ) ;
#252 = CARTESIAN_POINT ( 'NONE',  ( -5.009317714864229600E-010, -8.999999996500436700, -7.000000000000000000 ) ) ;
#253 = DIRECTION ( 'NONE',  ( 0.0000000000000000000, 0.0000000000000000000, 1.000000000000000000 ) ) ;
#254 = DIRECTION ( 'NONE',  ( 0.0000000000000000000, 1.000000000000000000, 0.0000000000000000000 ) ) ;
#255 = CARTESIAN_POINT ( 'NONE',  ( -5.009326287108706300E-010, -8.999999996500436700, 0.0000000000000000000 ) ) ;
#256 = AXIS2_PLACEMENT_3D ( 'NONE', #255, #254, #253 ) ;
#257 = CIRCLE ( 'NONE', #256, 7.000000000000000000 ) ;
#258 = DIRECTION ( 'NONE',  ( 0.0000000000000000000, 1.000000000000000000, 0.0000000000000000000 ) ) ;
#259 = VECTOR ( 'NONE', #258, 1000.000000000000000 ) ;
#260 = CARTESIAN_POINT ( 'NONE',  ( -5.009317714864229600E-010, 13.44177027475454100, -7.000000000000000900 ) ) ;
#261 = LINE ( 'NONE', #260, #259 ) ;
#262 = CARTESIAN_POINT ( 'NONE',  ( -5.009317714864229600E-010, 3.499565220943523500E-009, -7.000000000000000900 ) ) ;
#263 = DIRECTION ( 'NONE',  ( 0.0000000000000000000, 0.0000000000000000000, 1.000000000000000000 ) ) ;
#264 = DIRECTION ( 'NONE',  ( 0.0000000000000000000, 1.000000000000000000, 0.0000000000000000000 ) ) ;
#265 = CARTESIAN_POINT ( 'NONE',  ( -5.009326287108706300E-010, 3.499565220943523500E-009, 0.0000000000000000000 ) ) ;
#266 = AXIS2_PLACEMENT_3D ( 'NONE', #265, #264, #263 ) ;
#267 = CIRCLE ( 'NONE', #266, 7.000000000000000900 ) ;
#268 = CARTESIAN_POINT ( 'NONE',  ( -5.009326287108706300E-010, 3.499565220943523500E-009, 7.000000000000000900 ) ) ;
#269 = CARTESIAN_POINT ( 'NONE',  ( -5.009310348794258200E-010, 3.499565220943523500E-009, -11.32671455650272200 ) ) ;
#270 = DIRECTION ( 'NONE',  ( 1.224606353900848700E-016, 0.0000000000000000000, -1.000000000000000000 ) ) ;
#271 = DIRECTION ( 'NONE',  ( 1.000000000000000000, 0.0000000000000000000, 1.224606353822377300E-016 ) ) ;
#272 = DIRECTION ( 'NONE',  ( 0.0000000000000000000, 0.0000000000000000000, 1.000000000000000000 ) ) ;
#273 = DIRECTION ( 'NONE',  ( 0.0000000000000000000, 1.000000000000000000, 0.0000000000000000000 ) ) ;
#274 = AXIS2_PLACEMENT_3D ( 'NONE', #293, #273, #272 ) ;
#275 = CIRCLE ( 'NONE', #274, 20.00000000000000000 ) ;
#276 = FACE_OUTER_BOUND ( 'NONE', #46, .T. ) ;
#277 = DIRECTION ( 'NONE',  ( 0.0000000000000000000, 0.0000000000000000000, 1.000000000000000000 ) ) ;
#278 = CIRCLE ( 'NONE', #304, 2.500000000000001300 ) ;
#279 = UNCERTAINTY_MEASURE_WITH_UNIT (LENGTH_MEASURE( 1.000000000000000100E-005 ), #282, 'distance_accuracy_value', 'NONE');
#280 =( NAMED_UNIT ( * ) SI_UNIT ( $, .STERADIAN. ) SOLID_ANGLE_UNIT ( ) );
#281 =( NAMED_UNIT ( * ) PLANE_ANGLE_UNIT ( ) SI_UNIT ( $, .RADIAN. ) );
#282 =( LENGTH_UNIT ( ) NAMED_UNIT ( * ) SI_UNIT ( .MILLI., .METRE. ) );
#283 = DIRECTION ( 'NONE',  ( 0.0000000000000000000, 0.0000000000000000000, -1.000000000000000000 ) ) ;
#284 = DIRECTION ( 'NONE',  ( 0.0000000000000000000, -1.000000000000000000, 0.0000000000000000000 ) ) ;
#285 = AXIS2_PLACEMENT_3D ( 'NONE', #208, #284, #283 ) ;
#286 = CONICAL_SURFACE ( 'NONE', #285, 20.00000000000000000, 0.2662520491509254800 ) ;
#287 = DIRECTION ( 'NONE',  ( 0.0000000000000000000, 1.000000000000000000, 0.0000000000000000000 ) ) ;
#288 = ADVANCED_BREP_SHAPE_REPRESENTATION ( 'C-30-RK-40', ( #124, #309 ), #289 ) ;
#289 =( GEOMETRIC_REPRESENTATION_CONTEXT ( 3 ) GLOBAL_UNCERTAINTY_ASSIGNED_CONTEXT ( ( #279 ) ) GLOBAL_UNIT_ASSIGNED_CONTEXT ( ( #282, #281, #280 ) ) REPRESENTATION_CONTEXT ( 'NONE', 'WORKASPACE' ) );
#290 = DIRECTION ( 'NONE',  ( 0.0000000000000000000, 1.000000000000000000, 0.0000000000000000000 ) ) ;
#291 = CARTESIAN_POINT ( 'NONE',  ( 2.499999999499068700, -21.99999999650043500, 0.0000000000000000000 ) ) ;
#292 = AXIS2_PLACEMENT_3D ( 'NONE', #291, #290, #277 ) ;
#293 = CARTESIAN_POINT ( 'NONE',  ( -5.009326287108706300E-010, -21.99999999650043500, 0.0000000000000000000 ) ) ;
#294 = CARTESIAN_POINT ( 'NONE',  ( -5.009326287108706300E-010, 13.44177027475454100, 0.0000000000000000000 ) ) ;
#295 = DIRECTION ( 'NONE',  ( 0.0000000000000000000, 0.0000000000000000000, 1.000000000000000000 ) ) ;
#296 = DIRECTION ( 'NONE',  ( 0.0000000000000000000, 1.000000000000000000, 0.0000000000000000000 ) ) ;
#297 = PLANE ( 'NONE',  #292 ) ;
#298 = FACE_BOUND ( 'NONE', #42, .T. ) ;
#299 = DIRECTION ( 'NONE',  ( 0.0000000000000000000, 0.0000000000000000000, 1.000000000000000000 ) ) ;
#300 = CYLINDRICAL_SURFACE ( 'NONE', #206, 2.500000000000000400 ) ;
#301 = CIRCLE ( 'NONE', #203, 2.499999999999999600 ) ;
#302 = DIRECTION ( 'NONE',  ( 0.0000000000000000000, 1.000000000000000000, 0.0000000000000000000 ) ) ;
#303 = CARTESIAN_POINT ( 'NONE',  ( -5.009326287108706300E-010, -21.99999999650043500, 0.0000000000000000000 ) ) ;
#304 = AXIS2_PLACEMENT_3D ( 'NONE', #303, #302, #299 ) ;
#305 = FACE_OUTER_BOUND ( 'NONE', #38, .T. ) ;
#306 = DIRECTION ( 'NONE',  ( 1.000000000000000000, 0.0000000000000000000, 0.0000000000000000000 ) ) ;
#307 = DIRECTION ( 'NONE',  ( 0.0000000000000000000, 0.0000000000000000000, 1.000000000000000000 ) ) ;
#308 = CARTESIAN_POINT ( 'NONE',  ( 0.0000000000000000000, 0.0000000000000000000, 0.0000000000000000000 ) ) ;
#309 = AXIS2_PLACEMENT_3D ( 'NONE', #308, #307, #306 ) ;
#310 = SHAPE_DEFINITION_REPRESENTATION ( #311, #288 ) ;
#311 = PRODUCT_DEFINITION_SHAPE ( 'NONE', 'NONE',  #351 ) ;
#312 = PRODUCT_RELATED_PRODUCT_CATEGORY ( 'detail', '', ( #9 ) ) ;
#313 = CC_DESIGN_SECURITY_CLASSIFICATION ( #334, ( #381 ) ) ;
#314 = CC_DESIGN_APPROVAL ( #322, ( #334 ) ) ;
#315 = APPROVAL_DATE_TIME ( #316, #322 ) ;
#316 = DATE_AND_TIME ( #317, #318 ) ;
#317 = CALENDAR_DATE ( 2009, 26, 6 ) ;
#318 = LOCAL_TIME ( 16, 21, 2.000000000000000000, #319 ) ;
#319 = COORDINATED_UNIVERSAL_TIME_OFFSET ( 9, 0, .AHEAD. ) ;
#320 = APPROVAL_PERSON_ORGANIZATION ( #324, #322, #321 ) ;
#321 = APPROVAL_ROLE ( '' ) ;
#322 = APPROVAL ( #323, 'UNSPECIFIED' ) ;
#323 = APPROVAL_STATUS ( 'not_yet_approved' ) ;
#324 = PERSON_AND_ORGANIZATION ( #8, #353 ) ;
#325 = CC_DESIGN_DATE_AND_TIME_ASSIGNMENT ( #327, #326, ( #334 ) ) ;
#326 = DATE_TIME_ROLE ( 'classification_date' ) ;
#327 = DATE_AND_TIME ( #328, #329 ) ;
#328 = CALENDAR_DATE ( 2009, 26, 6 ) ;
#329 = LOCAL_TIME ( 16, 21, 2.000000000000000000, #330 ) ;
#330 = COORDINATED_UNIVERSAL_TIME_OFFSET ( 9, 0, .AHEAD. ) ;
#331 = CC_DESIGN_PERSON_AND_ORGANIZATION_ASSIGNMENT ( #333, #332, ( #334 ) ) ;
#332 = PERSON_AND_ORGANIZATION_ROLE ( 'classification_officer' ) ;
#333 = PERSON_AND_ORGANIZATION ( #8, #353 ) ;
#334 = SECURITY_CLASSIFICATION ( '', '', #335 ) ;
#335 = SECURITY_CLASSIFICATION_LEVEL ( 'unclassified' ) ;
#336 = CC_DESIGN_PERSON_AND_ORGANIZATION_ASSIGNMENT ( #338, #337, ( #381 ) ) ;
#337 = PERSON_AND_ORGANIZATION_ROLE ( 'design_supplier' ) ;
#338 = PERSON_AND_ORGANIZATION ( #8, #353 ) ;
#339 = CC_DESIGN_PERSON_AND_ORGANIZATION_ASSIGNMENT ( #341, #340, ( #381 ) ) ;
#340 = PERSON_AND_ORGANIZATION_ROLE ( 'creator' ) ;
#341 = PERSON_AND_ORGANIZATION ( #8, #353 ) ;
#342 = CC_DESIGN_APPROVAL ( #378, ( #381 ) ) ;
#343 = APPROVAL_DATE_TIME ( #344, #378 ) ;
#344 = DATE_AND_TIME ( #345, #346 ) ;
#345 = CALENDAR_DATE ( 2009, 26, 6 ) ;
#346 = LOCAL_TIME ( 16, 21, 2.000000000000000000, #375 ) ;
#347 = APPROVAL ( #348, 'UNSPECIFIED' ) ;
#348 = APPROVAL_STATUS ( 'not_yet_approved' ) ;
#349 = PERSON_AND_ORGANIZATION ( #8, #353 ) ;
#350 = DESIGN_CONTEXT ( 'detailed design', #354, 'design' ) ;
#351 = PRODUCT_DEFINITION ( 'UNKNOWN', '', #381, #350 ) ;
#352 = APPLICATION_PROTOCOL_DEFINITION ( 'international standard', 'config_control_design', 1994, #354 ) ;
#353 = ORGANIZATION ( 'UNSPECIFIED', 'UNSPECIFIED', '' ) ;
#354 = APPLICATION_CONTEXT ( 'configuration controlled 3d designs of mechanical parts and assemblies' ) ;
#355 = CC_DESIGN_PERSON_AND_ORGANIZATION_ASSIGNMENT ( #359, #365, ( #9 ) ) ;
#356 = CC_DESIGN_PERSON_AND_ORGANIZATION_ASSIGNMENT ( #358, #357, ( #351 ) ) ;
#357 = PERSON_AND_ORGANIZATION_ROLE ( 'creator' ) ;
#358 = PERSON_AND_ORGANIZATION ( #8, #353 ) ;
#359 = PERSON_AND_ORGANIZATION ( #8, #353 ) ;
#360 = CALENDAR_DATE ( 2009, 26, 6 ) ;
#361 = LOCAL_TIME ( 16, 21, 2.000000000000000000, #362 ) ;
#362 = COORDINATED_UNIVERSAL_TIME_OFFSET ( 9, 0, .AHEAD. ) ;
#363 = APPROVAL_PERSON_ORGANIZATION ( #349, #347, #364 ) ;
#364 = APPROVAL_ROLE ( '' ) ;
#365 = PERSON_AND_ORGANIZATION_ROLE ( 'design_owner' ) ;
#366 = CC_DESIGN_APPROVAL ( #347, ( #351 ) ) ;
#367 = APPROVAL_DATE_TIME ( #368, #347 ) ;
#368 = DATE_AND_TIME ( #360, #361 ) ;
#369 = CC_DESIGN_DATE_AND_TIME_ASSIGNMENT ( #371, #370, ( #351 ) ) ;
#370 = DATE_TIME_ROLE ( 'creation_date' ) ;
#371 = DATE_AND_TIME ( #372, #373 ) ;
#372 = CALENDAR_DATE ( 2009, 26, 6 ) ;
#373 = LOCAL_TIME ( 16, 21, 2.000000000000000000, #374 ) ;
#374 = COORDINATED_UNIVERSAL_TIME_OFFSET ( 9, 0, .AHEAD. ) ;
#375 = COORDINATED_UNIVERSAL_TIME_OFFSET ( 9, 0, .AHEAD. ) ;
#376 = APPROVAL_PERSON_ORGANIZATION ( #380, #378, #377 ) ;
#377 = APPROVAL_ROLE ( '' ) ;
#378 = APPROVAL ( #379, 'UNSPECIFIED' ) ;
#379 = APPROVAL_STATUS ( 'not_yet_approved' ) ;
#380 = PERSON_AND_ORGANIZATION ( #8, #353 ) ;
#381 = PRODUCT_DEFINITION_FORMATION_WITH_SPECIFIED_SOURCE ( 'ANY', '', #9, .NOT_KNOWN. ) ;
ENDSEC;
END-ISO-10303-21;
