ISO-10303-21;
HEADER;
FILE_DESCRIPTION (( 'STEP AP203' ),
    '1' );
FILE_NAME ('C-30-RK-38-ÃÞÌ«ÙÄ.STEP',
    '2009-06-29T02:27:10',
    ( '11sw' ),
    ( '^LQ»¢®ïÐ' ),
    'SwSTEP 2.0',
    'SolidWorks 2007',
    '' );
FILE_SCHEMA (( 'CONFIG_CONTROL_DESIGN' ));
ENDSEC;

DATA;
#1 = DIRECTION ( 'NONE',  ( 0.0000000000000000000, 1.000000000000000000, 0.0000000000000000000 ) ) ;
#2 = DIRECTION ( 'NONE',  ( 0.0000000000000000000, 0.0000000000000000000, 1.000000000000000000 ) ) ;
#3 = DIRECTION ( 'NONE',  ( 0.0000000000000000000, 1.000000000000000000, 0.0000000000000000000 ) ) ;
#4 = DATE_AND_TIME ( #108, #109 ) ;
#5 = DIRECTION ( 'NONE',  ( 0.0000000000000000000, 0.0000000000000000000, 1.000000000000000000 ) ) ;
#6 = PERSON_AND_ORGANIZATION_ROLE ( 'design_supplier' ) ;
#7 = APPROVAL_DATE_TIME ( #4, #113 ) ;
#8 = TOROIDAL_SURFACE ( 'NONE', #10, 15.11721778146268100, 1.000000000000000900 ) ;
#9 = DIRECTION ( 'NONE',  ( 0.0000000000000000000, 0.0000000000000000000, 1.000000000000000000 ) ) ;
#10 = AXIS2_PLACEMENT_3D ( 'NONE', #14, #3, #9 ) ;
#11 = DIRECTION ( 'NONE',  ( 0.0000000000000000000, 0.0000000000000000000, 1.000000000000000000 ) ) ;
#12 = DIRECTION ( 'NONE',  ( -1.000000000000000000, 0.0000000000000000000, 0.0000000000000000000 ) ) ;
#13 = AXIS2_PLACEMENT_3D ( 'NONE', #16, #12, #11 ) ;
#14 = CARTESIAN_POINT ( 'NONE',  ( -5.009326287108706300E-010, -0.9999999965004345800, 0.0000000000000000000 ) ) ;
#15 = CARTESIAN_POINT ( 'NONE',  ( -5.009326287108706300E-010, 3.499565220943523500E-009, 15.11721778146267600 ) ) ;
#16 = CARTESIAN_POINT ( 'NONE',  ( -5.009326287108706300E-010, -0.9999999965004345800, 15.11721778146268100 ) ) ;
#17 = CIRCLE ( 'NONE', #13, 1.000000000000000900 ) ;
#18 = APPROVAL_ROLE ( '' ) ;
#19 = CC_DESIGN_PERSON_AND_ORGANIZATION_ASSIGNMENT ( #59, #6, ( #116 ) ) ;
#20 = CC_DESIGN_APPROVAL ( #113, ( #116 ) ) ;
#21 = FACE_OUTER_BOUND ( 'NONE', #362, .T. ) ;
#22 = CARTESIAN_POINT ( 'NONE',  ( -5.009326287108706300E-010, -0.8759652619112321400, 0.0000000000000000000 ) ) ;
#23 = DIRECTION ( 'NONE',  ( 0.0000000000000000000, 1.000000000000000000, 0.0000000000000000000 ) ) ;
#24 = DIRECTION ( 'NONE',  ( 0.0000000000000000000, 0.0000000000000000000, 1.000000000000000000 ) ) ;
#25 = CIRCLE ( 'NONE', #30, 15.11721778146267600 ) ;
#26 = DIRECTION ( 'NONE',  ( 0.0000000000000000000, 1.000000000000000000, 0.0000000000000000000 ) ) ;
#27 = CARTESIAN_POINT ( 'NONE',  ( -5.009326287108706300E-010, 3.499565220943523500E-009, 0.0000000000000000000 ) ) ;
#28 = CYLINDRICAL_SURFACE ( 'NONE', #34, 6.000000000000000900 ) ;
#29 = AXIS2_PLACEMENT_3D ( 'NONE', #22, #23, #24 ) ;
#30 = AXIS2_PLACEMENT_3D ( 'NONE', #27, #26, #35 ) ;
#31 = DIRECTION ( 'NONE',  ( 0.0000000000000000000, 0.0000000000000000000, 1.000000000000000000 ) ) ;
#32 = DIRECTION ( 'NONE',  ( 0.0000000000000000000, 1.000000000000000000, 0.0000000000000000000 ) ) ;
#33 = CARTESIAN_POINT ( 'NONE',  ( -5.009326287108706300E-010, 2.412507003500041800, 0.0000000000000000000 ) ) ;
#34 = AXIS2_PLACEMENT_3D ( 'NONE', #33, #32, #31 ) ;
#35 = DIRECTION ( 'NONE',  ( 0.0000000000000000000, 0.0000000000000000000, 1.000000000000000000 ) ) ;
#36 = CIRCLE ( 'NONE', #29, 16.10949565817635300 ) ;
#37 = DIRECTION ( 'NONE',  ( 0.0000000000000000000, -1.000000000000000000, 0.0000000000000000000 ) ) ;
#38 = CC_DESIGN_PERSON_AND_ORGANIZATION_ASSIGNMENT ( #44, #39, ( #116 ) ) ;
#39 = PERSON_AND_ORGANIZATION_ROLE ( 'creator' ) ;
#40 = FACE_BOUND ( 'NONE', #370, .T. ) ;
#41 = CARTESIAN_POINT ( 'NONE',  ( 15.11721778096174300, 3.499565319792597300E-009, 0.0000000000000000000 ) ) ;
#42 = AXIS2_PLACEMENT_3D ( 'NONE', #50, #46, #45 ) ;
#43 = CIRCLE ( 'NONE', #42, 6.000000000000000000 ) ;
#44 = PERSON_AND_ORGANIZATION ( #66, #88 ) ;
#45 = DIRECTION ( 'NONE',  ( 0.0000000000000000000, 0.0000000000000000000, 1.000000000000000000 ) ) ;
#46 = DIRECTION ( 'NONE',  ( 0.0000000000000000000, 1.000000000000000000, 0.0000000000000000000 ) ) ;
#47 = AXIS2_PLACEMENT_3D ( 'NONE', #41, #37, #51 ) ;
#48 = FACE_OUTER_BOUND ( 'NONE', #374, .T. ) ;
#49 = PLANE ( 'NONE',  #47 ) ;
#50 = CARTESIAN_POINT ( 'NONE',  ( -5.009326287108706300E-010, 3.499565220943523500E-009, 0.0000000000000000000 ) ) ;
#51 = DIRECTION ( 'NONE',  ( 0.0000000000000000000, 0.0000000000000000000, -1.000000000000000000 ) ) ;
#52 = APPROVAL_PERSON_ORGANIZATION ( #121, #119, #18 ) ;
#53 = FACE_OUTER_BOUND ( 'NONE', #378, .T. ) ;
#54 = COORDINATED_UNIVERSAL_TIME_OFFSET ( 9, 0, .AHEAD. ) ;
#55 = LOCAL_TIME ( 11, 27, 10.00000000000000000, #54 ) ;
#56 = CALENDAR_DATE ( 2009, 29, 6 ) ;
#57 = APPROVAL_DATE_TIME ( #58, #119 ) ;
#58 = DATE_AND_TIME ( #56, #55 ) ;
#59 = PERSON_AND_ORGANIZATION ( #66, #88 ) ;
#60 = DIRECTION ( 'NONE',  ( 0.0000000000000000000, 1.000000000000000000, 0.0000000000000000000 ) ) ;
#61 = CARTESIAN_POINT ( 'NONE',  ( -5.009326287108706300E-010, -12.99999999650043500, 0.0000000000000000000 ) ) ;
#62 = AXIS2_PLACEMENT_3D ( 'NONE', #61, #60, #5 ) ;
#63 = CIRCLE ( 'NONE', #62, 6.000000000000001800 ) ;
#64 = CC_DESIGN_APPROVAL ( #119, ( #126 ) ) ;
#65 = PERSON_AND_ORGANIZATION ( #66, #88 ) ;
#66 = PERSON ( 'UNSPECIFIED', 'UNSPECIFIED', 'UNSPECIFIED', ('UNSPECIFIED'), ('UNSPECIFIED'), ('UNSPECIFIED') ) ;
#67 =( NAMED_UNIT ( * ) PLANE_ANGLE_UNIT ( ) SI_UNIT ( $, .RADIAN. ) );
#68 = UNCERTAINTY_MEASURE_WITH_UNIT (LENGTH_MEASURE( 1.000000000000000100E-005 ), #107, 'distance_accuracy_value', 'NONE');
#69 = PRODUCT ( 'C-30-RK-38-ÃÞÌ«ÙÄ', 'C-30-RK-38-ÃÞÌ«ÙÄ', '', ( #70 ) ) ;
#70 = MECHANICAL_CONTEXT ( 'NONE', #72, 'mechanical' ) ;
#71 = APPLICATION_PROTOCOL_DEFINITION ( 'international standard', 'config_control_design', 1994, #72 ) ;
#72 = APPLICATION_CONTEXT ( 'configuration controlled 3d designs of mechanical parts and assemblies' ) ;
#73 = CC_DESIGN_APPROVAL ( #82, ( #85 ) ) ;
#74 = APPROVAL_DATE_TIME ( #75, #82 ) ;
#75 = DATE_AND_TIME ( #76, #77 ) ;
#76 = CALENDAR_DATE ( 2009, 29, 6 ) ;
#77 = LOCAL_TIME ( 11, 27, 10.00000000000000000, #78 ) ;
#78 = COORDINATED_UNIVERSAL_TIME_OFFSET ( 9, 0, .AHEAD. ) ;
#79 = APPROVAL_PERSON_ORGANIZATION ( #84, #82, #80 ) ;
#80 = APPROVAL_ROLE ( '' ) ;
#81 = CARTESIAN_POINT ( 'NONE',  ( 0.0000000000000000000, 0.0000000000000000000, 0.0000000000000000000 ) ) ;
#82 = APPROVAL ( #83, 'UNSPECIFIED' ) ;
#83 = APPROVAL_STATUS ( 'not_yet_approved' ) ;
#84 = PERSON_AND_ORGANIZATION ( #66, #88 ) ;
#85 = PRODUCT_DEFINITION ( 'UNKNOWN', '', #116, #86 ) ;
#86 = DESIGN_CONTEXT ( 'detailed design', #104, 'design' ) ;
#87 =( NAMED_UNIT ( * ) SI_UNIT ( $, .STERADIAN. ) SOLID_ANGLE_UNIT ( ) );
#88 = ORGANIZATION ( 'UNSPECIFIED', 'UNSPECIFIED', '' ) ;
#89 = CC_DESIGN_PERSON_AND_ORGANIZATION_ASSIGNMENT ( #91, #90, ( #85 ) ) ;
#90 = PERSON_AND_ORGANIZATION_ROLE ( 'creator' ) ;
#91 = PERSON_AND_ORGANIZATION ( #66, #88 ) ;
#92 = DIRECTION ( 'NONE',  ( 0.0000000000000000000, 0.0000000000000000000, 1.000000000000000000 ) ) ;
#93 = DIRECTION ( 'NONE',  ( 1.000000000000000000, 0.0000000000000000000, 0.0000000000000000000 ) ) ;
#94 = AXIS2_PLACEMENT_3D ( 'NONE', #81, #92, #93 ) ;
#95 = CC_DESIGN_DATE_AND_TIME_ASSIGNMENT ( #97, #96, ( #85 ) ) ;
#96 = DATE_TIME_ROLE ( 'creation_date' ) ;
#97 = DATE_AND_TIME ( #98, #99 ) ;
#98 = CALENDAR_DATE ( 2009, 29, 6 ) ;
#99 = LOCAL_TIME ( 11, 27, 10.00000000000000000, #100 ) ;
#100 = COORDINATED_UNIVERSAL_TIME_OFFSET ( 9, 0, .AHEAD. ) ;
#101 = ADVANCED_BREP_SHAPE_REPRESENTATION ( 'C-30-RK-38-ÃÞÌ«ÙÄ', ( #313, #94 ), #102 ) ;
#102 =( GEOMETRIC_REPRESENTATION_CONTEXT ( 3 ) GLOBAL_UNCERTAINTY_ASSIGNED_CONTEXT ( ( #68 ) ) GLOBAL_UNIT_ASSIGNED_CONTEXT ( ( #107, #67, #87 ) ) REPRESENTATION_CONTEXT ( 'NONE', 'WORKASPACE' ) );
#103 = APPLICATION_PROTOCOL_DEFINITION ( 'international standard', 'config_control_design', 1994, #104 ) ;
#104 = APPLICATION_CONTEXT ( 'configuration controlled 3d designs of mechanical parts and assemblies' ) ;
#105 = CC_DESIGN_PERSON_AND_ORGANIZATION_ASSIGNMENT ( #65, #106, ( #69 ) ) ;
#106 = PERSON_AND_ORGANIZATION_ROLE ( 'design_owner' ) ;
#107 =( LENGTH_UNIT ( ) NAMED_UNIT ( * ) SI_UNIT ( .MILLI., .METRE. ) );
#108 = CALENDAR_DATE ( 2009, 29, 6 ) ;
#109 = LOCAL_TIME ( 11, 27, 10.00000000000000000, #110 ) ;
#110 = COORDINATED_UNIVERSAL_TIME_OFFSET ( 9, 0, .AHEAD. ) ;
#111 = APPROVAL_PERSON_ORGANIZATION ( #115, #113, #112 ) ;
#112 = APPROVAL_ROLE ( '' ) ;
#113 = APPROVAL ( #114, 'UNSPECIFIED' ) ;
#114 = APPROVAL_STATUS ( 'not_yet_approved' ) ;
#115 = PERSON_AND_ORGANIZATION ( #66, #88 ) ;
#116 = PRODUCT_DEFINITION_FORMATION_WITH_SPECIFIED_SOURCE ( 'ANY', '', #69, .NOT_KNOWN. ) ;
#117 = PERSON_AND_ORGANIZATION_ROLE ( 'classification_officer' ) ;
#118 = PERSON_AND_ORGANIZATION ( #66, #88 ) ;
#119 = APPROVAL ( #120, 'UNSPECIFIED' ) ;
#120 = APPROVAL_STATUS ( 'not_yet_approved' ) ;
#121 = PERSON_AND_ORGANIZATION ( #66, #88 ) ;
#122 = DATE_AND_TIME ( #129, #130 ) ;
#123 = COORDINATED_UNIVERSAL_TIME_OFFSET ( 9, 0, .AHEAD. ) ;
#124 = CC_DESIGN_PERSON_AND_ORGANIZATION_ASSIGNMENT ( #118, #117, ( #126 ) ) ;
#125 = SECURITY_CLASSIFICATION_LEVEL ( 'unclassified' ) ;
#126 = SECURITY_CLASSIFICATION ( '', '', #125 ) ;
#127 = CC_DESIGN_DATE_AND_TIME_ASSIGNMENT ( #122, #128, ( #126 ) ) ;
#128 = DATE_TIME_ROLE ( 'classification_date' ) ;
#129 = CALENDAR_DATE ( 2009, 29, 6 ) ;
#130 = LOCAL_TIME ( 11, 27, 10.00000000000000000, #123 ) ;
#131 = PRODUCT_RELATED_PRODUCT_CATEGORY ( 'detail', '', ( #69 ) ) ;
#132 = PRODUCT_DEFINITION_SHAPE ( 'NONE', 'NONE',  #85 ) ;
#133 = CC_DESIGN_SECURITY_CLASSIFICATION ( #126, ( #116 ) ) ;
#134 = SHAPE_DEFINITION_REPRESENTATION ( #132, #101 ) ;
#135 = CARTESIAN_POINT ( 'NONE',  ( -5.009326287108706300E-010, 3.499565220943523500E-009, 0.0000000000000000000 ) ) ;
#136 = AXIS2_PLACEMENT_3D ( 'NONE', #135, #1, #2 ) ;
#137 = CIRCLE ( 'NONE', #136, 15.11721778146267600 ) ;
#138 = CARTESIAN_POINT ( 'NONE',  ( -5.009307166892862700E-010, 3.499565220943523500E-009, -15.11721778146267600 ) ) ;
#139 = DIRECTION ( 'NONE',  ( 0.0000000000000000000, 0.0000000000000000000, 1.000000000000000000 ) ) ;
#140 = DIRECTION ( 'NONE',  ( 0.0000000000000000000, 1.000000000000000000, 0.0000000000000000000 ) ) ;
#141 = CARTESIAN_POINT ( 'NONE',  ( -5.009326287108706300E-010, 3.499565220943523500E-009, 0.0000000000000000000 ) ) ;
#142 = AXIS2_PLACEMENT_3D ( 'NONE', #141, #140, #139 ) ;
#143 = CIRCLE ( 'NONE', #142, 6.000000000000000000 ) ;
#144 = DIRECTION ( 'NONE',  ( 1.224606353612349900E-016, 0.0000000000000000000, -1.000000000000000000 ) ) ;
#145 = DIRECTION ( 'NONE',  ( 1.000000000000000000, 0.0000000000000000000, 1.224606353822377300E-016 ) ) ;
#146 = CARTESIAN_POINT ( 'NONE',  ( -5.009307774467759400E-010, -0.9999999965004345800, -15.11721778146268100 ) ) ;
#147 = AXIS2_PLACEMENT_3D ( 'NONE', #146, #145, #144 ) ;
#148 = CIRCLE ( 'NONE', #147, 1.000000000000000900 ) ;
#149 = DIRECTION ( 'NONE',  ( 0.0000000000000000000, 0.0000000000000000000, 1.000000000000000000 ) ) ;
#150 = DIRECTION ( 'NONE',  ( 0.0000000000000000000, 1.000000000000000000, 0.0000000000000000000 ) ) ;
#151 = AXIS2_PLACEMENT_3D ( 'NONE', #153, #150, #149 ) ;
#152 = TOROIDAL_SURFACE ( 'NONE', #151, 15.11721778146268100, 1.000000000000000900 ) ;
#153 = CARTESIAN_POINT ( 'NONE',  ( -5.009326287108706300E-010, -0.9999999965004345800, 0.0000000000000000000 ) ) ;
#154 = FACE_OUTER_BOUND ( 'NONE', #349, .T. ) ;
#155 = DIRECTION ( 'NONE',  ( 0.0000000000000000000, 1.000000000000000000, 0.0000000000000000000 ) ) ;
#156 = VECTOR ( 'NONE', #155, 1000.000000000000000 ) ;
#157 = CARTESIAN_POINT ( 'NONE',  ( -5.009326287108706300E-010, 2.412507003500041800, 6.000000000000000900 ) ) ;
#158 = DIRECTION ( 'NONE',  ( 0.0000000000000000000, 0.0000000000000000000, 1.000000000000000000 ) ) ;
#159 = DIRECTION ( 'NONE',  ( 0.0000000000000000000, 1.000000000000000000, 0.0000000000000000000 ) ) ;
#160 = CARTESIAN_POINT ( 'NONE',  ( -5.009326287108706300E-010, 2.412507003500041800, 0.0000000000000000000 ) ) ;
#161 = AXIS2_PLACEMENT_3D ( 'NONE', #160, #159, #158 ) ;
#162 = LINE ( 'NONE', #157, #156 ) ;
#163 = CYLINDRICAL_SURFACE ( 'NONE', #161, 2.500000000000000400 ) ;
#164 = FACE_OUTER_BOUND ( 'NONE', #344, .T. ) ;
#165 = DIRECTION ( 'NONE',  ( 0.0000000000000000000, 0.0000000000000000000, 1.000000000000000000 ) ) ;
#166 = DIRECTION ( 'NONE',  ( 0.0000000000000000000, 1.000000000000000000, 0.0000000000000000000 ) ) ;
#167 = CARTESIAN_POINT ( 'NONE',  ( -5.009326287108706300E-010, -12.99999999650043500, 0.0000000000000000000 ) ) ;
#168 = AXIS2_PLACEMENT_3D ( 'NONE', #167, #166, #165 ) ;
#169 = CIRCLE ( 'NONE', #168, 2.500000000000000000 ) ;
#170 = DIRECTION ( 'NONE',  ( 0.0000000000000000000, 0.0000000000000000000, -1.000000000000000000 ) ) ;
#171 = DIRECTION ( 'NONE',  ( 0.0000000000000000000, -1.000000000000000000, 0.0000000000000000000 ) ) ;
#172 = CARTESIAN_POINT ( 'NONE',  ( 5.999999999499069100, -12.99999999650043500, 0.0000000000000000000 ) ) ;
#173 = AXIS2_PLACEMENT_3D ( 'NONE', #172, #171, #170 ) ;
#174 = PLANE ( 'NONE',  #173 ) ;
#175 = FACE_OUTER_BOUND ( 'NONE', #340, .T. ) ;
#176 = FACE_BOUND ( 'NONE', #336, .T. ) ;
#177 = DIRECTION ( 'NONE',  ( 0.0000000000000000000, 1.000000000000000000, 0.0000000000000000000 ) ) ;
#178 = VECTOR ( 'NONE', #177, 1000.000000000000000 ) ;
#179 = CARTESIAN_POINT ( 'NONE',  ( -5.009318939470583400E-010, 2.412507003500041800, -6.000000000000000900 ) ) ;
#180 = LINE ( 'NONE', #179, #178 ) ;
#181 = CARTESIAN_POINT ( 'NONE',  ( -5.009326287108706300E-010, 3.499565220943523500E-009, 6.000000000000000000 ) ) ;
#182 = CARTESIAN_POINT ( 'NONE',  ( -5.009318939470583400E-010, 3.499565220943523500E-009, -6.000000000000000000 ) ) ;
#183 = DIRECTION ( 'NONE',  ( 0.0000000000000000000, 0.0000000000000000000, 1.000000000000000000 ) ) ;
#184 = DIRECTION ( 'NONE',  ( 0.0000000000000000000, 1.000000000000000000, 0.0000000000000000000 ) ) ;
#185 = CARTESIAN_POINT ( 'NONE',  ( -5.009326287108706300E-010, -23.99999999650043500, 0.0000000000000000000 ) ) ;
#186 = AXIS2_PLACEMENT_3D ( 'NONE', #185, #184, #183 ) ;
#187 = CIRCLE ( 'NONE', #186, 2.500000000000001300 ) ;
#188 = DIRECTION ( 'NONE',  ( 0.0000000000000000000, 0.0000000000000000000, 1.000000000000000000 ) ) ;
#189 = DIRECTION ( 'NONE',  ( 0.0000000000000000000, 1.000000000000000000, 0.0000000000000000000 ) ) ;
#190 = CARTESIAN_POINT ( 'NONE',  ( -5.009326287108706300E-010, -23.99999999650043500, 0.0000000000000000000 ) ) ;
#191 = AXIS2_PLACEMENT_3D ( 'NONE', #190, #189, #188 ) ;
#192 = CIRCLE ( 'NONE', #191, 19.00000000000000000 ) ;
#193 = DIRECTION ( 'NONE',  ( 0.0000000000000000000, 0.0000000000000000000, 1.000000000000000000 ) ) ;
#194 = DIRECTION ( 'NONE',  ( 0.0000000000000000000, 1.000000000000000000, 0.0000000000000000000 ) ) ;
#195 = CARTESIAN_POINT ( 'NONE',  ( 2.499999999499068700, -23.99999999650043500, 0.0000000000000000000 ) ) ;
#196 = AXIS2_PLACEMENT_3D ( 'NONE', #195, #194, #193 ) ;
#197 = FACE_BOUND ( 'NONE', #326, .T. ) ;
#198 = FACE_OUTER_BOUND ( 'NONE', #323, .T. ) ;
#199 = CARTESIAN_POINT ( 'NONE',  ( -5.009326287108706300E-010, -0.8759652619112321400, 16.10949565817635300 ) ) ;
#200 = DIRECTION ( 'NONE',  ( 0.0000000000000000000, 0.0000000000000000000, 1.000000000000000000 ) ) ;
#201 = DIRECTION ( 'NONE',  ( 0.0000000000000000000, 1.000000000000000000, 0.0000000000000000000 ) ) ;
#202 = CARTESIAN_POINT ( 'NONE',  ( -5.009326287108706300E-010, -0.8759652619112321400, 0.0000000000000000000 ) ) ;
#203 = AXIS2_PLACEMENT_3D ( 'NONE', #202, #201, #200 ) ;
#204 = CIRCLE ( 'NONE', #203, 16.10949565817635300 ) ;
#205 = PLANE ( 'NONE',  #196 ) ;
#206 = DIRECTION ( 'NONE',  ( 0.0000000000000000000, 0.0000000000000000000, -1.000000000000000000 ) ) ;
#207 = DIRECTION ( 'NONE',  ( 0.0000000000000000000, -1.000000000000000000, 0.0000000000000000000 ) ) ;
#208 = AXIS2_PLACEMENT_3D ( 'NONE', #210, #207, #206 ) ;
#209 = CONICAL_SURFACE ( 'NONE', #208, 19.00000000000000000, 0.1243549945467613300 ) ;
#210 = CARTESIAN_POINT ( 'NONE',  ( -5.009326287108706300E-010, -23.99999999650043500, 0.0000000000000000000 ) ) ;
#211 = FACE_OUTER_BOUND ( 'NONE', #315, .T. ) ;
#212 = CARTESIAN_POINT ( 'NONE',  ( -5.009323225592821800E-010, -12.99999999650043500, -2.500000000000000000 ) ) ;
#213 = CARTESIAN_POINT ( 'NONE',  ( -5.009326287108706300E-010, -23.99999999650043500, 2.500000000000001300 ) ) ;
#214 = CARTESIAN_POINT ( 'NONE',  ( -5.009323225592821800E-010, -23.99999999650043500, -2.500000000000001800 ) ) ;
#215 = DIRECTION ( 'NONE',  ( 0.0000000000000000000, 0.0000000000000000000, 1.000000000000000000 ) ) ;
#216 = DIRECTION ( 'NONE',  ( 0.0000000000000000000, 1.000000000000000000, 0.0000000000000000000 ) ) ;
#217 = AXIS2_PLACEMENT_3D ( 'NONE', #223, #216, #215 ) ;
#218 = CIRCLE ( 'NONE', #217, 2.500000000000001300 ) ;
#219 = DIRECTION ( 'NONE',  ( 0.0000000000000000000, 0.0000000000000000000, 1.000000000000000000 ) ) ;
#220 = DIRECTION ( 'NONE',  ( 0.0000000000000000000, 1.000000000000000000, 0.0000000000000000000 ) ) ;
#221 = CARTESIAN_POINT ( 'NONE',  ( -5.009326287108706300E-010, 2.412507003500041800, 0.0000000000000000000 ) ) ;
#222 = AXIS2_PLACEMENT_3D ( 'NONE', #221, #220, #219 ) ;
#223 = CARTESIAN_POINT ( 'NONE',  ( -5.009326287108706300E-010, -23.99999999650043500, 0.0000000000000000000 ) ) ;
#224 = CYLINDRICAL_SURFACE ( 'NONE', #222, 2.500000000000000400 ) ;
#225 = FACE_OUTER_BOUND ( 'NONE', #307, .T. ) ;
#226 = DIRECTION ( 'NONE',  ( 0.0000000000000000000, -0.9922778767136676300, -0.1240347345892083400 ) ) ;
#227 = VECTOR ( 'NONE', #226, 1000.000000000000200 ) ;
#228 = CARTESIAN_POINT ( 'NONE',  ( -5.009326287108706300E-010, -23.99999999650043500, -19.00000000000000000 ) ) ;
#229 = LINE ( 'NONE', #228, #227 ) ;
#230 = CARTESIAN_POINT ( 'NONE',  ( -5.009326287108706300E-010, -23.99999999650043500, -19.00000000000000000 ) ) ;
#231 = DIRECTION ( 'NONE',  ( 0.0000000000000000000, 0.0000000000000000000, 1.000000000000000000 ) ) ;
#232 = DIRECTION ( 'NONE',  ( 0.0000000000000000000, 1.000000000000000000, 0.0000000000000000000 ) ) ;
#233 = CARTESIAN_POINT ( 'NONE',  ( -5.009326287108706300E-010, -23.99999999650043500, 0.0000000000000000000 ) ) ;
#234 = AXIS2_PLACEMENT_3D ( 'NONE', #233, #232, #231 ) ;
#235 = CIRCLE ( 'NONE', #234, 19.00000000000000000 ) ;
#236 = CARTESIAN_POINT ( 'NONE',  ( -5.009303019587983700E-010, -23.99999999650043500, 19.00000000000000000 ) ) ;
#237 = DIRECTION ( 'NONE',  ( 1.518937240726167100E-017, -0.9922778767136676300, 0.1240347345892083400 ) ) ;
#238 = VECTOR ( 'NONE', #237, 1000.000000000000200 ) ;
#239 = CARTESIAN_POINT ( 'NONE',  ( -5.009303019587983700E-010, -23.99999999650043500, 19.00000000000000000 ) ) ;
#240 = LINE ( 'NONE', #239, #238 ) ;
#241 = CARTESIAN_POINT ( 'NONE',  ( -5.009306559317965900E-010, -0.8759652619112321400, -16.10949565817635300 ) ) ;
#242 = CARTESIAN_POINT ( 'NONE',  ( -5.009326287108706300E-010, -12.99999999650043500, 6.000000000000001800 ) ) ;
#243 = CARTESIAN_POINT ( 'NONE',  ( -5.009318939470583400E-010, -12.99999999650043500, -6.000000000000002700 ) ) ;
#244 = DIRECTION ( 'NONE',  ( 0.0000000000000000000, 0.0000000000000000000, 1.000000000000000000 ) ) ;
#245 = DIRECTION ( 'NONE',  ( 0.0000000000000000000, 1.000000000000000000, 0.0000000000000000000 ) ) ;
#246 = CARTESIAN_POINT ( 'NONE',  ( -5.009326287108706300E-010, -12.99999999650043500, 0.0000000000000000000 ) ) ;
#247 = AXIS2_PLACEMENT_3D ( 'NONE', #246, #245, #244 ) ;
#248 = DIRECTION ( 'NONE',  ( 0.0000000000000000000, 0.0000000000000000000, 1.000000000000000000 ) ) ;
#249 = DIRECTION ( 'NONE',  ( 0.0000000000000000000, 1.000000000000000000, 0.0000000000000000000 ) ) ;
#250 = CARTESIAN_POINT ( 'NONE',  ( -5.009326287108706300E-010, 2.412507003500041800, 0.0000000000000000000 ) ) ;
#251 = AXIS2_PLACEMENT_3D ( 'NONE', #250, #249, #248 ) ;
#252 = CIRCLE ( 'NONE', #247, 6.000000000000001800 ) ;
#253 = CYLINDRICAL_SURFACE ( 'NONE', #251, 6.000000000000000900 ) ;
#254 = FACE_OUTER_BOUND ( 'NONE', #291, .T. ) ;
#255 = DIRECTION ( 'NONE',  ( 0.0000000000000000000, 1.000000000000000000, 0.0000000000000000000 ) ) ;
#256 = VECTOR ( 'NONE', #255, 1000.000000000000000 ) ;
#257 = CARTESIAN_POINT ( 'NONE',  ( -5.009326287108706300E-010, 2.412507003500041800, 2.500000000000000400 ) ) ;
#258 = LINE ( 'NONE', #257, #256 ) ;
#259 = CARTESIAN_POINT ( 'NONE',  ( -5.009326287108706300E-010, -12.99999999650043500, 2.500000000000000000 ) ) ;
#260 = DIRECTION ( 'NONE',  ( 0.0000000000000000000, 0.0000000000000000000, 1.000000000000000000 ) ) ;
#261 = DIRECTION ( 'NONE',  ( 0.0000000000000000000, 1.000000000000000000, 0.0000000000000000000 ) ) ;
#262 = CARTESIAN_POINT ( 'NONE',  ( -5.009326287108706300E-010, -12.99999999650043500, 0.0000000000000000000 ) ) ;
#263 = AXIS2_PLACEMENT_3D ( 'NONE', #262, #261, #260 ) ;
#264 = CIRCLE ( 'NONE', #263, 2.500000000000000000 ) ;
#265 = DIRECTION ( 'NONE',  ( 0.0000000000000000000, 1.000000000000000000, 0.0000000000000000000 ) ) ;
#266 = VECTOR ( 'NONE', #265, 1000.000000000000000 ) ;
#267 = CARTESIAN_POINT ( 'NONE',  ( -5.009323225592821800E-010, 2.412507003500041800, -2.500000000000000400 ) ) ;
#268 = LINE ( 'NONE', #267, #266 ) ;
#269 = DIRECTION ( 'NONE',  ( 0.0000000000000000000, 0.0000000000000000000, -1.000000000000000000 ) ) ;
#270 = DIRECTION ( 'NONE',  ( 0.0000000000000000000, -1.000000000000000000, 0.0000000000000000000 ) ) ;
#271 = AXIS2_PLACEMENT_3D ( 'NONE', #273, #270, #269 ) ;
#272 = CONICAL_SURFACE ( 'NONE', #271, 19.00000000000000000, 0.1243549945467613300 ) ;
#273 = CARTESIAN_POINT ( 'NONE',  ( -5.009326287108706300E-010, -23.99999999650043500, 0.0000000000000000000 ) ) ;
#274 = FACE_OUTER_BOUND ( 'NONE', #277, .T. ) ;
#275 = ORIENTED_EDGE ( 'NONE', *, *, #309, .T. ) ;
#276 = ADVANCED_FACE ( 'NONE', ( #274 ), #272, .T. ) ;
#277 = EDGE_LOOP ( 'NONE', ( #278, #279, #280, #281 ) ) ;
#278 = ORIENTED_EDGE ( 'NONE', *, *, #299, .F. ) ;
#279 = ORIENTED_EDGE ( 'NONE', *, *, #365, .F. ) ;
#280 = ORIENTED_EDGE ( 'NONE', *, *, #305, .T. ) ;
#281 = ORIENTED_EDGE ( 'NONE', *, *, #321, .T. ) ;
#282 = CLOSED_SHELL ( 'NONE', ( #314, #306, #290, #348, #361, #369, #377, #335, #343, #319, #276 ) ) ;
#283 = ORIENTED_EDGE ( 'NONE', *, *, #284, .T. ) ;
#284 = EDGE_CURVE ( 'NONE', #310, #312, #268, .T. ) ;
#285 = ORIENTED_EDGE ( 'NONE', *, *, #286, .T. ) ;
#286 = EDGE_CURVE ( 'NONE', #312, #287, #264, .T. ) ;
#287 = VERTEX_POINT ( 'NONE', #259 ) ;
#288 = ORIENTED_EDGE ( 'NONE', *, *, #289, .F. ) ;
#289 = EDGE_CURVE ( 'NONE', #311, #287, #258, .T. ) ;
#290 = ADVANCED_FACE ( 'NONE', ( #254 ), #253, .F. ) ;
#291 = EDGE_LOOP ( 'NONE', ( #292, #296, #354, #346 ) ) ;
#292 = ORIENTED_EDGE ( 'NONE', *, *, #293, .F. ) ;
#293 = EDGE_CURVE ( 'NONE', #294, #295, #252, .T. ) ;
#294 = VERTEX_POINT ( 'NONE', #243 ) ;
#295 = VERTEX_POINT ( 'NONE', #242 ) ;
#296 = ORIENTED_EDGE ( 'NONE', *, *, #332, .T. ) ;
#297 = VERTEX_POINT ( 'NONE', #241 ) ;
#298 = ORIENTED_EDGE ( 'NONE', *, *, #299, .T. ) ;
#299 = EDGE_CURVE ( 'NONE', #318, #300, #240, .T. ) ;
#300 = VERTEX_POINT ( 'NONE', #236 ) ;
#301 = ORIENTED_EDGE ( 'NONE', *, *, #302, .T. ) ;
#302 = EDGE_CURVE ( 'NONE', #300, #303, #235, .T. ) ;
#303 = VERTEX_POINT ( 'NONE', #230 ) ;
#304 = ORIENTED_EDGE ( 'NONE', *, *, #305, .F. ) ;
#305 = EDGE_CURVE ( 'NONE', #297, #303, #229, .T. ) ;
#306 = ADVANCED_FACE ( 'NONE', ( #225 ), #224, .F. ) ;
#307 = EDGE_LOOP ( 'NONE', ( #308, #283, #285, #288 ) ) ;
#308 = ORIENTED_EDGE ( 'NONE', *, *, #309, .F. ) ;
#309 = EDGE_CURVE ( 'NONE', #310, #311, #218, .T. ) ;
#310 = VERTEX_POINT ( 'NONE', #214 ) ;
#311 = VERTEX_POINT ( 'NONE', #213 ) ;
#312 = VERTEX_POINT ( 'NONE', #212 ) ;
#313 = MANIFOLD_SOLID_BREP ( 'NONE', #282 ) ;
#314 = ADVANCED_FACE ( 'NONE', ( #211 ), #209, .T. ) ;
#315 = EDGE_LOOP ( 'NONE', ( #316, #298, #301, #304 ) ) ;
#316 = ORIENTED_EDGE ( 'NONE', *, *, #317, .F. ) ;
#317 = EDGE_CURVE ( 'NONE', #318, #297, #204, .T. ) ;
#318 = VERTEX_POINT ( 'NONE', #199 ) ;
#319 = ADVANCED_FACE ( 'NONE', ( #198, #197 ), #205, .F. ) ;
#320 = ORIENTED_EDGE ( 'NONE', *, *, #321, .F. ) ;
#321 = EDGE_CURVE ( 'NONE', #303, #300, #192, .T. ) ;
#322 = ORIENTED_EDGE ( 'NONE', *, *, #338, .T. ) ;
#323 = EDGE_LOOP ( 'NONE', ( #320, #324 ) ) ;
#324 = ORIENTED_EDGE ( 'NONE', *, *, #302, .F. ) ;
#325 = ORIENTED_EDGE ( 'NONE', *, *, #327, .T. ) ;
#326 = EDGE_LOOP ( 'NONE', ( #325, #275 ) ) ;
#327 = EDGE_CURVE ( 'NONE', #311, #310, #187, .T. ) ;
#328 = ORIENTED_EDGE ( 'NONE', *, *, #289, .T. ) ;
#329 = ORIENTED_EDGE ( 'NONE', *, *, #284, .F. ) ;
#330 = VERTEX_POINT ( 'NONE', #182 ) ;
#331 = VERTEX_POINT ( 'NONE', #181 ) ;
#332 = EDGE_CURVE ( 'NONE', #294, #330, #180, .T. ) ;
#333 = ORIENTED_EDGE ( 'NONE', *, *, #347, .T. ) ;
#334 = ORIENTED_EDGE ( 'NONE', *, *, #372, .T. ) ;
#335 = ADVANCED_FACE ( 'NONE', ( #176, #175 ), #174, .F. ) ;
#336 = EDGE_LOOP ( 'NONE', ( #337, #339 ) ) ;
#337 = ORIENTED_EDGE ( 'NONE', *, *, #338, .F. ) ;
#338 = EDGE_CURVE ( 'NONE', #287, #312, #169, .T. ) ;
#339 = ORIENTED_EDGE ( 'NONE', *, *, #286, .F. ) ;
#340 = EDGE_LOOP ( 'NONE', ( #341, #342 ) ) ;
#341 = ORIENTED_EDGE ( 'NONE', *, *, #381, .T. ) ;
#342 = ORIENTED_EDGE ( 'NONE', *, *, #293, .T. ) ;
#343 = ADVANCED_FACE ( 'NONE', ( #164 ), #163, .F. ) ;
#344 = EDGE_LOOP ( 'NONE', ( #329, #345, #328, #322 ) ) ;
#345 = ORIENTED_EDGE ( 'NONE', *, *, #327, .F. ) ;
#346 = ORIENTED_EDGE ( 'NONE', *, *, #347, .F. ) ;
#347 = EDGE_CURVE ( 'NONE', #295, #331, #162, .T. ) ;
#348 = ADVANCED_FACE ( 'NONE', ( #154 ), #152, .T. ) ;
#349 = EDGE_LOOP ( 'NONE', ( #350, #351, #356, #359 ) ) ;
#350 = ORIENTED_EDGE ( 'NONE', *, *, #317, .T. ) ;
#351 = ORIENTED_EDGE ( 'NONE', *, *, #352, .T. ) ;
#352 = EDGE_CURVE ( 'NONE', #297, #355, #148, .T. ) ;
#353 = EDGE_CURVE ( 'NONE', #330, #331, #143, .T. ) ;
#354 = ORIENTED_EDGE ( 'NONE', *, *, #353, .T. ) ;
#355 = VERTEX_POINT ( 'NONE', #138 ) ;
#356 = ORIENTED_EDGE ( 'NONE', *, *, #357, .F. ) ;
#357 = EDGE_CURVE ( 'NONE', #358, #355, #137, .T. ) ;
#358 = VERTEX_POINT ( 'NONE', #15 ) ;
#359 = ORIENTED_EDGE ( 'NONE', *, *, #360, .F. ) ;
#360 = EDGE_CURVE ( 'NONE', #318, #358, #17, .T. ) ;
#361 = ADVANCED_FACE ( 'NONE', ( #21 ), #8, .T. ) ;
#362 = EDGE_LOOP ( 'NONE', ( #363, #364, #366, #367 ) ) ;
#363 = ORIENTED_EDGE ( 'NONE', *, *, #352, .F. ) ;
#364 = ORIENTED_EDGE ( 'NONE', *, *, #365, .T. ) ;
#365 = EDGE_CURVE ( 'NONE', #297, #318, #36, .T. ) ;
#366 = ORIENTED_EDGE ( 'NONE', *, *, #360, .T. ) ;
#367 = ORIENTED_EDGE ( 'NONE', *, *, #368, .F. ) ;
#368 = EDGE_CURVE ( 'NONE', #355, #358, #25, .T. ) ;
#369 = ADVANCED_FACE ( 'NONE', ( #40, #48 ), #49, .F. ) ;
#370 = EDGE_LOOP ( 'NONE', ( #371, #373 ) ) ;
#371 = ORIENTED_EDGE ( 'NONE', *, *, #372, .F. ) ;
#372 = EDGE_CURVE ( 'NONE', #331, #330, #43, .T. ) ;
#373 = ORIENTED_EDGE ( 'NONE', *, *, #353, .F. ) ;
#374 = EDGE_LOOP ( 'NONE', ( #375, #376 ) ) ;
#375 = ORIENTED_EDGE ( 'NONE', *, *, #357, .T. ) ;
#376 = ORIENTED_EDGE ( 'NONE', *, *, #368, .T. ) ;
#377 = ADVANCED_FACE ( 'NONE', ( #53 ), #28, .F. ) ;
#378 = EDGE_LOOP ( 'NONE', ( #379, #380, #333, #334 ) ) ;
#379 = ORIENTED_EDGE ( 'NONE', *, *, #332, .F. ) ;
#380 = ORIENTED_EDGE ( 'NONE', *, *, #381, .F. ) ;
#381 = EDGE_CURVE ( 'NONE', #295, #294, #63, .T. ) ;
ENDSEC;
END-ISO-10303-21;
