ISO-10303-21;
HEADER;
FILE_DESCRIPTION (( 'STEP AP203' ),
    '1' );
FILE_NAME ('C-30-RK-38-gray.STEP',
    '2009-06-29T02:26:08',
    ( '11sw' ),
    ( '^LQ»¢®ïÐ' ),
    'SwSTEP 2.0',
    'SolidWorks 2007',
    '' );
FILE_SCHEMA (( 'CONFIG_CONTROL_DESIGN' ));
ENDSEC;

DATA;
#1 = EDGE_LOOP ( 'NONE', ( #9, #8, #15, #17 ) ) ;
#2 = ORIENTED_EDGE ( 'NONE', *, *, #47, .F. ) ;
#3 = ADVANCED_FACE ( 'NONE', ( #152, #151 ), #150, .F. ) ;
#4 = EDGE_LOOP ( 'NONE', ( #10, #34, #30, #32 ) ) ;
#5 = EDGE_LOOP ( 'NONE', ( #31, #11, #33, #6 ) ) ;
#6 = ORIENTED_EDGE ( 'NONE', *, *, #7, .F. ) ;
#7 = EDGE_CURVE ( 'NONE', #24, #13, #145, .T. ) ;
#8 = ORIENTED_EDGE ( 'NONE', *, *, #25, .T. ) ;
#9 = ORIENTED_EDGE ( 'NONE', *, *, #84, .T. ) ;
#10 = ORIENTED_EDGE ( 'NONE', *, *, #46, .F. ) ;
#11 = ORIENTED_EDGE ( 'NONE', *, *, #37, .T. ) ;
#12 = EDGE_LOOP ( 'NONE', ( #36, #20 ) ) ;
#13 = VERTEX_POINT ( 'NONE', #140 ) ;
#14 = EDGE_CURVE ( 'NONE', #69, #13, #138, .T. ) ;
#15 = ORIENTED_EDGE ( 'NONE', *, *, #27, .F. ) ;
#16 = ADVANCED_FACE ( 'NONE', ( #139 ), #124, .T. ) ;
#17 = ORIENTED_EDGE ( 'NONE', *, *, #14, .F. ) ;
#18 = EDGE_CURVE ( 'NONE', #44, #48, #120, .T. ) ;
#19 = EDGE_CURVE ( 'NONE', #21, #44, #115, .T. ) ;
#20 = ORIENTED_EDGE ( 'NONE', *, *, #7, .T. ) ;
#21 = VERTEX_POINT ( 'NONE', #164 ) ;
#22 = ORIENTED_EDGE ( 'NONE', *, *, #19, .F. ) ;
#23 = VERTEX_POINT ( 'NONE', #241 ) ;
#24 = VERTEX_POINT ( 'NONE', #242 ) ;
#25 = EDGE_CURVE ( 'NONE', #67, #24, #243, .T. ) ;
#26 = ADVANCED_FACE ( 'NONE', ( #244 ), #163, .F. ) ;
#27 = EDGE_CURVE ( 'NONE', #13, #24, #157, .T. ) ;
#28 = EDGE_LOOP ( 'NONE', ( #2, #40 ) ) ;
#29 = ADVANCED_FACE ( 'NONE', ( #158 ), #234, .T. ) ;
#30 = ORIENTED_EDGE ( 'NONE', *, *, #18, .T. ) ;
#31 = ORIENTED_EDGE ( 'NONE', *, *, #25, .F. ) ;
#32 = ORIENTED_EDGE ( 'NONE', *, *, #47, .T. ) ;
#33 = ORIENTED_EDGE ( 'NONE', *, *, #14, .T. ) ;
#34 = ORIENTED_EDGE ( 'NONE', *, *, #35, .F. ) ;
#35 = EDGE_CURVE ( 'NONE', #44, #21, #230, .T. ) ;
#36 = ORIENTED_EDGE ( 'NONE', *, *, #27, .T. ) ;
#37 = EDGE_CURVE ( 'NONE', #67, #69, #194, .T. ) ;
#38 = ADVANCED_FACE ( 'NONE', ( #189 ), #188, .F. ) ;
#39 = EDGE_LOOP ( 'NONE', ( #89, #95, #90, #130 ) ) ;
#40 = ORIENTED_EDGE ( 'NONE', *, *, #42, .F. ) ;
#41 = ORIENTED_EDGE ( 'NONE', *, *, #42, .T. ) ;
#42 = EDGE_CURVE ( 'NONE', #23, #48, #187, .T. ) ;
#43 = ORIENTED_EDGE ( 'NONE', *, *, #18, .F. ) ;
#44 = VERTEX_POINT ( 'NONE', #175 ) ;
#45 = ORIENTED_EDGE ( 'NONE', *, *, #46, .T. ) ;
#46 = EDGE_CURVE ( 'NONE', #21, #23, #174, .T. ) ;
#47 = EDGE_CURVE ( 'NONE', #48, #23, #169, .T. ) ;
#48 = VERTEX_POINT ( 'NONE', #170 ) ;
#49 = ORIENTED_EDGE ( 'NONE', *, *, #50, .T. ) ;
#50 = EDGE_CURVE ( 'NONE', #79, #51, #351, .T. ) ;
#51 = VERTEX_POINT ( 'NONE', #346 ) ;
#52 = ORIENTED_EDGE ( 'NONE', *, *, #53, .F. ) ;
#53 = EDGE_CURVE ( 'NONE', #77, #51, #345, .T. ) ;
#54 = ADVANCED_FACE ( 'NONE', ( #341 ), #340, .F. ) ;
#55 = VERTEX_POINT ( 'NONE', #335 ) ;
#56 = EDGE_LOOP ( 'NONE', ( #81, #75, #49, #52 ) ) ;
#57 = LOCAL_TIME ( 11, 26, 8.000000000000000000, #58 ) ;
#58 = COORDINATED_UNIVERSAL_TIME_OFFSET ( 9, 0, .AHEAD. ) ;
#59 = APPROVAL_PERSON_ORGANIZATION ( #63, #61, #60 ) ;
#60 = APPROVAL_ROLE ( '' ) ;
#61 = APPROVAL ( #62, 'UNSPECIFIED' ) ;
#62 = APPROVAL_STATUS ( 'not_yet_approved' ) ;
#63 = PERSON_AND_ORGANIZATION ( #226, #225 ) ;
#64 = EDGE_LOOP ( 'NONE', ( #22, #45, #41, #43 ) ) ;
#65 = ORIENTED_EDGE ( 'NONE', *, *, #83, .T. ) ;
#66 = VERTEX_POINT ( 'NONE', #334 ) ;
#67 = VERTEX_POINT ( 'NONE', #333 ) ;
#68 = ORIENTED_EDGE ( 'NONE', *, *, #84, .F. ) ;
#69 = VERTEX_POINT ( 'NONE', #332 ) ;
#70 = MANIFOLD_SOLID_BREP ( 'NONE', #109 ) ;
#71 = VERTEX_POINT ( 'NONE', #331 ) ;
#72 = EDGE_CURVE ( 'NONE', #71, #66, #329, .T. ) ;
#73 = ORIENTED_EDGE ( 'NONE', *, *, #72, .T. ) ;
#74 = EDGE_CURVE ( 'NONE', #67, #66, #330, .T. ) ;
#75 = ORIENTED_EDGE ( 'NONE', *, *, #80, .T. ) ;
#76 = ADVANCED_FACE ( 'NONE', ( #321 ), #320, .F. ) ;
#77 = VERTEX_POINT ( 'NONE', #315 ) ;
#78 = EDGE_CURVE ( 'NONE', #55, #77, #314, .T. ) ;
#79 = VERTEX_POINT ( 'NONE', #309 ) ;
#80 = EDGE_CURVE ( 'NONE', #55, #79, #308, .T. ) ;
#81 = ORIENTED_EDGE ( 'NONE', *, *, #78, .F. ) ;
#82 = ORIENTED_EDGE ( 'NONE', *, *, #74, .F. ) ;
#83 = EDGE_CURVE ( 'NONE', #69, #71, #304, .T. ) ;
#84 = EDGE_CURVE ( 'NONE', #69, #67, #300, .T. ) ;
#85 = EDGE_LOOP ( 'NONE', ( #68, #65, #73, #82 ) ) ;
#86 = ADVANCED_FACE ( 'NONE', ( #295 ), #294, .T. ) ;
#87 = ADVANCED_FACE ( 'NONE', ( #288 ), #287, .T. ) ;
#88 = EDGE_LOOP ( 'NONE', ( #105, #106, #107, #108 ) ) ;
#89 = ORIENTED_EDGE ( 'NONE', *, *, #80, .F. ) ;
#90 = ORIENTED_EDGE ( 'NONE', *, *, #53, .T. ) ;
#91 = ORIENTED_EDGE ( 'NONE', *, *, #19, .T. ) ;
#92 = EDGE_CURVE ( 'NONE', #77, #55, #282, .T. ) ;
#93 = EDGE_LOOP ( 'NONE', ( #103, #94 ) ) ;
#94 = ORIENTED_EDGE ( 'NONE', *, *, #50, .F. ) ;
#95 = ORIENTED_EDGE ( 'NONE', *, *, #92, .F. ) ;
#96 = ORIENTED_EDGE ( 'NONE', *, *, #35, .T. ) ;
#97 = EDGE_LOOP ( 'NONE', ( #96, #91 ) ) ;
#98 = PERSON_AND_ORGANIZATION_ROLE ( 'creator' ) ;
#99 = PERSON_AND_ORGANIZATION ( #226, #225 ) ;
#100 = CC_DESIGN_APPROVAL ( #61, ( #197 ) ) ;
#101 = APPROVAL_DATE_TIME ( #102, #61 ) ;
#102 = DATE_AND_TIME ( #116, #57 ) ;
#103 = ORIENTED_EDGE ( 'NONE', *, *, #137, .F. ) ;
#104 = ORIENTED_EDGE ( 'NONE', *, *, #78, .T. ) ;
#105 = ORIENTED_EDGE ( 'NONE', *, *, #83, .F. ) ;
#106 = ORIENTED_EDGE ( 'NONE', *, *, #37, .F. ) ;
#107 = ORIENTED_EDGE ( 'NONE', *, *, #74, .T. ) ;
#108 = ORIENTED_EDGE ( 'NONE', *, *, #132, .T. ) ;
#109 = CLOSED_SHELL ( 'NONE', ( #86, #76, #54, #16, #29, #3, #26, #153, #38, #133, #87 ) ) ;
#110 = EDGE_LOOP ( 'NONE', ( #131, #134 ) ) ;
#111 = DIRECTION ( 'NONE',  ( 0.0000000000000000000, 0.0000000000000000000, 1.000000000000000000 ) ) ;
#112 = DIRECTION ( 'NONE',  ( 0.0000000000000000000, 1.000000000000000000, 0.0000000000000000000 ) ) ;
#113 = CARTESIAN_POINT ( 'NONE',  ( -5.009326287108706300E-010, -12.99999999650043500, 0.0000000000000000000 ) ) ;
#114 = AXIS2_PLACEMENT_3D ( 'NONE', #113, #112, #111 ) ;
#115 = CIRCLE ( 'NONE', #114, 6.000000000000001800 ) ;
#116 = CALENDAR_DATE ( 2009, 29, 6 ) ;
#117 = DIRECTION ( 'NONE',  ( 0.0000000000000000000, 1.000000000000000000, 0.0000000000000000000 ) ) ;
#118 = VECTOR ( 'NONE', #117, 1000.000000000000000 ) ;
#119 = CARTESIAN_POINT ( 'NONE',  ( -5.009326287108706300E-010, 2.412507003500041800, 6.000000000000000900 ) ) ;
#120 = LINE ( 'NONE', #119, #118 ) ;
#121 = DIRECTION ( 'NONE',  ( 0.0000000000000000000, 0.0000000000000000000, 1.000000000000000000 ) ) ;
#122 = DIRECTION ( 'NONE',  ( 0.0000000000000000000, 1.000000000000000000, 0.0000000000000000000 ) ) ;
#123 = AXIS2_PLACEMENT_3D ( 'NONE', #125, #122, #121 ) ;
#124 = TOROIDAL_SURFACE ( 'NONE', #123, 15.11721778146268100, 1.000000000000000900 ) ;
#125 = CARTESIAN_POINT ( 'NONE',  ( -5.009326287108706300E-010, -0.9999999965004345800, 0.0000000000000000000 ) ) ;
#126 = DIRECTION ( 'NONE',  ( 0.0000000000000000000, 0.0000000000000000000, 1.000000000000000000 ) ) ;
#127 = DIRECTION ( 'NONE',  ( -1.000000000000000000, 0.0000000000000000000, 0.0000000000000000000 ) ) ;
#128 = CARTESIAN_POINT ( 'NONE',  ( -5.009326287108706300E-010, -0.9999999965004345800, 15.11721778146268100 ) ) ;
#129 = AXIS2_PLACEMENT_3D ( 'NONE', #128, #127, #126 ) ;
#130 = ORIENTED_EDGE ( 'NONE', *, *, #137, .T. ) ;
#131 = ORIENTED_EDGE ( 'NONE', *, *, #132, .F. ) ;
#132 = EDGE_CURVE ( 'NONE', #66, #71, #278, .T. ) ;
#133 = ADVANCED_FACE ( 'NONE', ( #273, #272 ), #271, .F. ) ;
#134 = ORIENTED_EDGE ( 'NONE', *, *, #72, .F. ) ;
#135 = EDGE_LOOP ( 'NONE', ( #136, #104 ) ) ;
#136 = ORIENTED_EDGE ( 'NONE', *, *, #92, .T. ) ;
#137 = EDGE_CURVE ( 'NONE', #51, #79, #266, .T. ) ;
#138 = CIRCLE ( 'NONE', #129, 1.000000000000000900 ) ;
#139 = FACE_OUTER_BOUND ( 'NONE', #1, .T. ) ;
#140 = CARTESIAN_POINT ( 'NONE',  ( -5.009326287108706300E-010, 3.499565220943523500E-009, 15.11721778146267600 ) ) ;
#141 = DIRECTION ( 'NONE',  ( 0.0000000000000000000, 0.0000000000000000000, 1.000000000000000000 ) ) ;
#142 = DIRECTION ( 'NONE',  ( 0.0000000000000000000, 1.000000000000000000, 0.0000000000000000000 ) ) ;
#143 = CARTESIAN_POINT ( 'NONE',  ( -5.009326287108706300E-010, 3.499565220943523500E-009, 0.0000000000000000000 ) ) ;
#144 = AXIS2_PLACEMENT_3D ( 'NONE', #143, #142, #141 ) ;
#145 = CIRCLE ( 'NONE', #144, 15.11721778146267600 ) ;
#146 = DIRECTION ( 'NONE',  ( 0.0000000000000000000, 0.0000000000000000000, -1.000000000000000000 ) ) ;
#147 = DIRECTION ( 'NONE',  ( 0.0000000000000000000, -1.000000000000000000, 0.0000000000000000000 ) ) ;
#148 = CARTESIAN_POINT ( 'NONE',  ( 15.11721778096174300, 3.499565319792597300E-009, 0.0000000000000000000 ) ) ;
#149 = AXIS2_PLACEMENT_3D ( 'NONE', #148, #147, #146 ) ;
#150 = PLANE ( 'NONE',  #149 ) ;
#151 = FACE_OUTER_BOUND ( 'NONE', #12, .T. ) ;
#152 = FACE_BOUND ( 'NONE', #28, .T. ) ;
#153 = ADVANCED_FACE ( 'NONE', ( #261, #260 ), #259, .F. ) ;
#154 = DIRECTION ( 'NONE',  ( 0.0000000000000000000, 1.000000000000000000, 0.0000000000000000000 ) ) ;
#155 = CARTESIAN_POINT ( 'NONE',  ( -5.009326287108706300E-010, 3.499565220943523500E-009, 0.0000000000000000000 ) ) ;
#156 = AXIS2_PLACEMENT_3D ( 'NONE', #155, #154, #236 ) ;
#157 = CIRCLE ( 'NONE', #156, 15.11721778146267600 ) ;
#158 = FACE_OUTER_BOUND ( 'NONE', #5, .T. ) ;
#159 = DIRECTION ( 'NONE',  ( 0.0000000000000000000, 0.0000000000000000000, 1.000000000000000000 ) ) ;
#160 = DIRECTION ( 'NONE',  ( 0.0000000000000000000, 1.000000000000000000, 0.0000000000000000000 ) ) ;
#161 = CARTESIAN_POINT ( 'NONE',  ( -5.009326287108706300E-010, 2.412507003500041800, 0.0000000000000000000 ) ) ;
#162 = AXIS2_PLACEMENT_3D ( 'NONE', #161, #160, #159 ) ;
#163 = CYLINDRICAL_SURFACE ( 'NONE', #162, 6.000000000000000900 ) ;
#164 = CARTESIAN_POINT ( 'NONE',  ( -5.009318939470583400E-010, -12.99999999650043500, -6.000000000000001800 ) ) ;
#165 = DIRECTION ( 'NONE',  ( 0.0000000000000000000, 0.0000000000000000000, 1.000000000000000000 ) ) ;
#166 = DIRECTION ( 'NONE',  ( 0.0000000000000000000, 1.000000000000000000, 0.0000000000000000000 ) ) ;
#167 = CARTESIAN_POINT ( 'NONE',  ( -5.009326287108706300E-010, 3.499565220943523500E-009, 0.0000000000000000000 ) ) ;
#168 = AXIS2_PLACEMENT_3D ( 'NONE', #167, #166, #165 ) ;
#169 = CIRCLE ( 'NONE', #168, 6.000000000000000000 ) ;
#170 = CARTESIAN_POINT ( 'NONE',  ( -5.009326287108706300E-010, 3.499565220943523500E-009, 6.000000000000000000 ) ) ;
#171 = DIRECTION ( 'NONE',  ( 0.0000000000000000000, 1.000000000000000000, 0.0000000000000000000 ) ) ;
#172 = VECTOR ( 'NONE', #171, 1000.000000000000000 ) ;
#173 = CARTESIAN_POINT ( 'NONE',  ( -5.009318939470583400E-010, 2.412507003500041800, -6.000000000000000900 ) ) ;
#174 = LINE ( 'NONE', #173, #172 ) ;
#175 = CARTESIAN_POINT ( 'NONE',  ( -5.009326287108706300E-010, -12.99999999650043500, 6.000000000000001800 ) ) ;
#176 = DIRECTION ( 'NONE',  ( 0.0000000000000000000, 0.0000000000000000000, 1.000000000000000000 ) ) ;
#177 = DIRECTION ( 'NONE',  ( 0.0000000000000000000, 1.000000000000000000, 0.0000000000000000000 ) ) ;
#178 = CARTESIAN_POINT ( 'NONE',  ( -5.009326287108706300E-010, 3.499565220943523500E-009, 0.0000000000000000000 ) ) ;
#179 = AXIS2_PLACEMENT_3D ( 'NONE', #178, #177, #176 ) ;
#180 = MECHANICAL_CONTEXT ( 'NONE', #182, 'mechanical' ) ;
#181 = APPLICATION_PROTOCOL_DEFINITION ( 'international standard', 'config_control_design', 1994, #182 ) ;
#182 = APPLICATION_CONTEXT ( 'configuration controlled 3d designs of mechanical parts and assemblies' ) ;
#183 = DIRECTION ( 'NONE',  ( 0.0000000000000000000, 0.0000000000000000000, 1.000000000000000000 ) ) ;
#184 = DIRECTION ( 'NONE',  ( 0.0000000000000000000, 1.000000000000000000, 0.0000000000000000000 ) ) ;
#185 = CARTESIAN_POINT ( 'NONE',  ( -5.009326287108706300E-010, 2.412507003500041800, 0.0000000000000000000 ) ) ;
#186 = AXIS2_PLACEMENT_3D ( 'NONE', #185, #184, #183 ) ;
#187 = CIRCLE ( 'NONE', #179, 6.000000000000000000 ) ;
#188 = CYLINDRICAL_SURFACE ( 'NONE', #186, 2.500000000000000400 ) ;
#189 = FACE_OUTER_BOUND ( 'NONE', #39, .T. ) ;
#190 = DIRECTION ( 'NONE',  ( 0.0000000000000000000, 0.0000000000000000000, 1.000000000000000000 ) ) ;
#191 = DIRECTION ( 'NONE',  ( 0.0000000000000000000, 1.000000000000000000, 0.0000000000000000000 ) ) ;
#192 = CARTESIAN_POINT ( 'NONE',  ( -5.009326287108706300E-010, -0.8759652619112321400, 0.0000000000000000000 ) ) ;
#193 = AXIS2_PLACEMENT_3D ( 'NONE', #192, #191, #190 ) ;
#194 = CIRCLE ( 'NONE', #193, 16.10949565817635300 ) ;
#195 = DIRECTION ( 'NONE',  ( 0.0000000000000000000, 0.0000000000000000000, 1.000000000000000000 ) ) ;
#196 = DIRECTION ( 'NONE',  ( 0.0000000000000000000, 1.000000000000000000, 0.0000000000000000000 ) ) ;
#197 = PRODUCT_DEFINITION_FORMATION_WITH_SPECIFIED_SOURCE ( 'ANY', '', #227, .NOT_KNOWN. ) ;
#198 = CC_DESIGN_DATE_AND_TIME_ASSIGNMENT ( #200, #199, ( #218 ) ) ;
#199 = DATE_TIME_ROLE ( 'creation_date' ) ;
#200 = DATE_AND_TIME ( #201, #202 ) ;
#201 = CALENDAR_DATE ( 2009, 29, 6 ) ;
#202 = LOCAL_TIME ( 11, 26, 8.000000000000000000, #203 ) ;
#203 = COORDINATED_UNIVERSAL_TIME_OFFSET ( 9, 0, .AHEAD. ) ;
#204 = CC_DESIGN_PERSON_AND_ORGANIZATION_ASSIGNMENT ( #206, #205, ( #218 ) ) ;
#205 = PERSON_AND_ORGANIZATION_ROLE ( 'creator' ) ;
#206 = PERSON_AND_ORGANIZATION ( #226, #225 ) ;
#207 = CC_DESIGN_APPROVAL ( #215, ( #218 ) ) ;
#208 = APPROVAL_DATE_TIME ( #209, #215 ) ;
#209 = DATE_AND_TIME ( #210, #211 ) ;
#210 = CALENDAR_DATE ( 2009, 29, 6 ) ;
#211 = LOCAL_TIME ( 11, 26, 8.000000000000000000, #212 ) ;
#212 = COORDINATED_UNIVERSAL_TIME_OFFSET ( 9, 0, .AHEAD. ) ;
#213 = APPROVAL_PERSON_ORGANIZATION ( #217, #215, #214 ) ;
#214 = APPROVAL_ROLE ( '' ) ;
#215 = APPROVAL ( #216, 'UNSPECIFIED' ) ;
#216 = APPROVAL_STATUS ( 'not_yet_approved' ) ;
#217 = PERSON_AND_ORGANIZATION ( #226, #225 ) ;
#218 = PRODUCT_DEFINITION ( 'UNKNOWN', '', #197, #219 ) ;
#219 = DESIGN_CONTEXT ( 'detailed design', #221, 'design' ) ;
#220 = APPLICATION_PROTOCOL_DEFINITION ( 'international standard', 'config_control_design', 1994, #221 ) ;
#221 = APPLICATION_CONTEXT ( 'configuration controlled 3d designs of mechanical parts and assemblies' ) ;
#222 = CC_DESIGN_PERSON_AND_ORGANIZATION_ASSIGNMENT ( #224, #223, ( #227 ) ) ;
#223 = PERSON_AND_ORGANIZATION_ROLE ( 'design_owner' ) ;
#224 = PERSON_AND_ORGANIZATION ( #226, #225 ) ;
#225 = ORGANIZATION ( 'UNSPECIFIED', 'UNSPECIFIED', '' ) ;
#226 = PERSON ( 'UNSPECIFIED', 'UNSPECIFIED', 'UNSPECIFIED', ('UNSPECIFIED'), ('UNSPECIFIED'), ('UNSPECIFIED') ) ;
#227 = PRODUCT ( 'C-30-RK-38-gray', 'C-30-RK-38-gray', '', ( #180 ) ) ;
#228 = CARTESIAN_POINT ( 'NONE',  ( -5.009326287108706300E-010, -12.99999999650043500, 0.0000000000000000000 ) ) ;
#229 = AXIS2_PLACEMENT_3D ( 'NONE', #228, #196, #195 ) ;
#230 = CIRCLE ( 'NONE', #229, 6.000000000000001800 ) ;
#231 = DIRECTION ( 'NONE',  ( 0.0000000000000000000, 0.0000000000000000000, 1.000000000000000000 ) ) ;
#232 = DIRECTION ( 'NONE',  ( 0.0000000000000000000, 1.000000000000000000, 0.0000000000000000000 ) ) ;
#233 = AXIS2_PLACEMENT_3D ( 'NONE', #235, #232, #231 ) ;
#234 = TOROIDAL_SURFACE ( 'NONE', #233, 15.11721778146268100, 1.000000000000000900 ) ;
#235 = CARTESIAN_POINT ( 'NONE',  ( -5.009326287108706300E-010, -0.9999999965004345800, 0.0000000000000000000 ) ) ;
#236 = DIRECTION ( 'NONE',  ( 0.0000000000000000000, 0.0000000000000000000, 1.000000000000000000 ) ) ;
#237 = DIRECTION ( 'NONE',  ( 1.224606353612349900E-016, 0.0000000000000000000, -1.000000000000000000 ) ) ;
#238 = DIRECTION ( 'NONE',  ( 1.000000000000000000, 0.0000000000000000000, 1.224606353822377300E-016 ) ) ;
#239 = CARTESIAN_POINT ( 'NONE',  ( -5.009307774467759400E-010, -0.9999999965004345800, -15.11721778146268100 ) ) ;
#240 = AXIS2_PLACEMENT_3D ( 'NONE', #239, #238, #237 ) ;
#241 = CARTESIAN_POINT ( 'NONE',  ( -5.009318939470583400E-010, 3.499565220943523500E-009, -6.000000000000000000 ) ) ;
#242 = CARTESIAN_POINT ( 'NONE',  ( -5.009307166892862700E-010, 3.499565220943523500E-009, -15.11721778146267600 ) ) ;
#243 = CIRCLE ( 'NONE', #240, 1.000000000000000900 ) ;
#244 = FACE_OUTER_BOUND ( 'NONE', #4, .T. ) ;
#245 = DIRECTION ( 'NONE',  ( 1.000000000000000000, 0.0000000000000000000, 0.0000000000000000000 ) ) ;
#246 = DIRECTION ( 'NONE',  ( 0.0000000000000000000, 0.0000000000000000000, 1.000000000000000000 ) ) ;
#247 = AXIS2_PLACEMENT_3D ( 'NONE', #254, #246, #245 ) ;
#248 = ADVANCED_BREP_SHAPE_REPRESENTATION ( 'C-30-RK-38-gray', ( #70, #247 ), #249 ) ;
#249 =( GEOMETRIC_REPRESENTATION_CONTEXT ( 3 ) GLOBAL_UNCERTAINTY_ASSIGNED_CONTEXT ( ( #250 ) ) GLOBAL_UNIT_ASSIGNED_CONTEXT ( ( #253, #252, #251 ) ) REPRESENTATION_CONTEXT ( 'NONE', 'WORKASPACE' ) );
#250 = UNCERTAINTY_MEASURE_WITH_UNIT (LENGTH_MEASURE( 1.000000000000000100E-005 ), #253, 'distance_accuracy_value', 'NONE');
#251 =( NAMED_UNIT ( * ) SI_UNIT ( $, .STERADIAN. ) SOLID_ANGLE_UNIT ( ) );
#252 =( NAMED_UNIT ( * ) PLANE_ANGLE_UNIT ( ) SI_UNIT ( $, .RADIAN. ) );
#253 =( LENGTH_UNIT ( ) NAMED_UNIT ( * ) SI_UNIT ( .MILLI., .METRE. ) );
#254 = CARTESIAN_POINT ( 'NONE',  ( 0.0000000000000000000, 0.0000000000000000000, 0.0000000000000000000 ) ) ;
#255 = DIRECTION ( 'NONE',  ( 0.0000000000000000000, 0.0000000000000000000, -1.000000000000000000 ) ) ;
#256 = DIRECTION ( 'NONE',  ( 0.0000000000000000000, -1.000000000000000000, 0.0000000000000000000 ) ) ;
#257 = CARTESIAN_POINT ( 'NONE',  ( 5.999999999499069100, -12.99999999650043500, 0.0000000000000000000 ) ) ;
#258 = AXIS2_PLACEMENT_3D ( 'NONE', #257, #256, #255 ) ;
#259 = PLANE ( 'NONE',  #258 ) ;
#260 = FACE_OUTER_BOUND ( 'NONE', #97, .T. ) ;
#261 = FACE_BOUND ( 'NONE', #93, .T. ) ;
#262 = DIRECTION ( 'NONE',  ( 0.0000000000000000000, 0.0000000000000000000, 1.000000000000000000 ) ) ;
#263 = DIRECTION ( 'NONE',  ( 0.0000000000000000000, 1.000000000000000000, 0.0000000000000000000 ) ) ;
#264 = CARTESIAN_POINT ( 'NONE',  ( -5.009326287108706300E-010, -12.99999999650043500, 0.0000000000000000000 ) ) ;
#265 = AXIS2_PLACEMENT_3D ( 'NONE', #264, #263, #262 ) ;
#266 = CIRCLE ( 'NONE', #265, 2.500000000000000000 ) ;
#267 = DIRECTION ( 'NONE',  ( 0.0000000000000000000, 0.0000000000000000000, 1.000000000000000000 ) ) ;
#268 = DIRECTION ( 'NONE',  ( 0.0000000000000000000, 1.000000000000000000, 0.0000000000000000000 ) ) ;
#269 = CARTESIAN_POINT ( 'NONE',  ( 2.499999999499068700, -23.99999999650043500, 0.0000000000000000000 ) ) ;
#270 = AXIS2_PLACEMENT_3D ( 'NONE', #269, #268, #267 ) ;
#271 = PLANE ( 'NONE',  #270 ) ;
#272 = FACE_BOUND ( 'NONE', #135, .T. ) ;
#273 = FACE_OUTER_BOUND ( 'NONE', #110, .T. ) ;
#274 = DIRECTION ( 'NONE',  ( 0.0000000000000000000, 0.0000000000000000000, 1.000000000000000000 ) ) ;
#275 = DIRECTION ( 'NONE',  ( 0.0000000000000000000, 1.000000000000000000, 0.0000000000000000000 ) ) ;
#276 = CARTESIAN_POINT ( 'NONE',  ( -5.009326287108706300E-010, -23.99999999650043500, 0.0000000000000000000 ) ) ;
#277 = AXIS2_PLACEMENT_3D ( 'NONE', #276, #275, #274 ) ;
#278 = CIRCLE ( 'NONE', #277, 19.00000000000000000 ) ;
#279 = DIRECTION ( 'NONE',  ( 0.0000000000000000000, 0.0000000000000000000, 1.000000000000000000 ) ) ;
#280 = DIRECTION ( 'NONE',  ( 0.0000000000000000000, 1.000000000000000000, 0.0000000000000000000 ) ) ;
#281 = AXIS2_PLACEMENT_3D ( 'NONE', #286, #280, #279 ) ;
#282 = CIRCLE ( 'NONE', #281, 2.500000000000001300 ) ;
#283 = DIRECTION ( 'NONE',  ( 0.0000000000000000000, 0.0000000000000000000, -1.000000000000000000 ) ) ;
#284 = DIRECTION ( 'NONE',  ( 0.0000000000000000000, -1.000000000000000000, 0.0000000000000000000 ) ) ;
#285 = AXIS2_PLACEMENT_3D ( 'NONE', #293, #284, #283 ) ;
#286 = CARTESIAN_POINT ( 'NONE',  ( -5.009326287108706300E-010, -23.99999999650043500, 0.0000000000000000000 ) ) ;
#287 = CONICAL_SURFACE ( 'NONE', #285, 19.00000000000000000, 0.1243549945467613300 ) ;
#288 = FACE_OUTER_BOUND ( 'NONE', #88, .T. ) ;
#289 = DIRECTION ( 'NONE',  ( 0.0000000000000000000, 0.0000000000000000000, -1.000000000000000000 ) ) ;
#290 = DIRECTION ( 'NONE',  ( 0.0000000000000000000, -1.000000000000000000, 0.0000000000000000000 ) ) ;
#291 = CARTESIAN_POINT ( 'NONE',  ( -5.009326287108706300E-010, -23.99999999650043500, 0.0000000000000000000 ) ) ;
#292 = AXIS2_PLACEMENT_3D ( 'NONE', #291, #290, #289 ) ;
#293 = CARTESIAN_POINT ( 'NONE',  ( -5.009326287108706300E-010, -23.99999999650043500, 0.0000000000000000000 ) ) ;
#294 = CONICAL_SURFACE ( 'NONE', #292, 19.00000000000000000, 0.1243549945467613300 ) ;
#295 = FACE_OUTER_BOUND ( 'NONE', #85, .T. ) ;
#296 = DIRECTION ( 'NONE',  ( 0.0000000000000000000, 0.0000000000000000000, 1.000000000000000000 ) ) ;
#297 = DIRECTION ( 'NONE',  ( 0.0000000000000000000, 1.000000000000000000, 0.0000000000000000000 ) ) ;
#298 = CARTESIAN_POINT ( 'NONE',  ( -5.009326287108706300E-010, -0.8759652619112321400, 0.0000000000000000000 ) ) ;
#299 = AXIS2_PLACEMENT_3D ( 'NONE', #298, #297, #296 ) ;
#300 = CIRCLE ( 'NONE', #299, 16.10949565817635300 ) ;
#301 = DIRECTION ( 'NONE',  ( 1.518937240726167100E-017, -0.9922778767136676300, 0.1240347345892083400 ) ) ;
#302 = VECTOR ( 'NONE', #301, 1000.000000000000000 ) ;
#303 = CARTESIAN_POINT ( 'NONE',  ( -5.009303019587983700E-010, -23.99999999650043500, 19.00000000000000000 ) ) ;
#304 = LINE ( 'NONE', #303, #302 ) ;
#305 = DIRECTION ( 'NONE',  ( 0.0000000000000000000, 1.000000000000000000, 0.0000000000000000000 ) ) ;
#306 = VECTOR ( 'NONE', #305, 1000.000000000000000 ) ;
#307 = CARTESIAN_POINT ( 'NONE',  ( -5.009323225592821800E-010, 2.412507003500041800, -2.500000000000000400 ) ) ;
#308 = LINE ( 'NONE', #307, #306 ) ;
#309 = CARTESIAN_POINT ( 'NONE',  ( -5.009323225592821800E-010, -12.99999999650043500, -2.500000000000000000 ) ) ;
#310 = DIRECTION ( 'NONE',  ( 0.0000000000000000000, 0.0000000000000000000, 1.000000000000000000 ) ) ;
#311 = DIRECTION ( 'NONE',  ( 0.0000000000000000000, 1.000000000000000000, 0.0000000000000000000 ) ) ;
#312 = CARTESIAN_POINT ( 'NONE',  ( -5.009326287108706300E-010, -23.99999999650043500, 0.0000000000000000000 ) ) ;
#313 = AXIS2_PLACEMENT_3D ( 'NONE', #312, #311, #310 ) ;
#314 = CIRCLE ( 'NONE', #313, 2.500000000000001300 ) ;
#315 = CARTESIAN_POINT ( 'NONE',  ( -5.009326287108706300E-010, -23.99999999650043500, 2.500000000000001300 ) ) ;
#316 = DIRECTION ( 'NONE',  ( 0.0000000000000000000, 0.0000000000000000000, 1.000000000000000000 ) ) ;
#317 = DIRECTION ( 'NONE',  ( 0.0000000000000000000, 1.000000000000000000, 0.0000000000000000000 ) ) ;
#318 = CARTESIAN_POINT ( 'NONE',  ( -5.009326287108706300E-010, 2.412507003500041800, 0.0000000000000000000 ) ) ;
#319 = AXIS2_PLACEMENT_3D ( 'NONE', #318, #317, #316 ) ;
#320 = CYLINDRICAL_SURFACE ( 'NONE', #319, 2.500000000000000400 ) ;
#321 = FACE_OUTER_BOUND ( 'NONE', #56, .T. ) ;
#322 = DIRECTION ( 'NONE',  ( 0.0000000000000000000, -0.9922778767136676300, -0.1240347345892083400 ) ) ;
#323 = VECTOR ( 'NONE', #322, 1000.000000000000000 ) ;
#324 = CARTESIAN_POINT ( 'NONE',  ( -5.009326287108706300E-010, -23.99999999650043500, -19.00000000000000000 ) ) ;
#325 = DIRECTION ( 'NONE',  ( 0.0000000000000000000, 0.0000000000000000000, 1.000000000000000000 ) ) ;
#326 = DIRECTION ( 'NONE',  ( 0.0000000000000000000, 1.000000000000000000, 0.0000000000000000000 ) ) ;
#327 = CARTESIAN_POINT ( 'NONE',  ( -5.009326287108706300E-010, -23.99999999650043500, 0.0000000000000000000 ) ) ;
#328 = AXIS2_PLACEMENT_3D ( 'NONE', #327, #326, #325 ) ;
#329 = CIRCLE ( 'NONE', #328, 19.00000000000000000 ) ;
#330 = LINE ( 'NONE', #324, #323 ) ;
#331 = CARTESIAN_POINT ( 'NONE',  ( -5.009303019587983700E-010, -23.99999999650043500, 19.00000000000000000 ) ) ;
#332 = CARTESIAN_POINT ( 'NONE',  ( -5.009326287108706300E-010, -0.8759652619112321400, 16.10949565817635300 ) ) ;
#333 = CARTESIAN_POINT ( 'NONE',  ( -5.009306559317965900E-010, -0.8759652619112321400, -16.10949565817635300 ) ) ;
#334 = CARTESIAN_POINT ( 'NONE',  ( -5.009326287108706300E-010, -23.99999999650043500, -19.00000000000000000 ) ) ;
#335 = CARTESIAN_POINT ( 'NONE',  ( -5.009323225592821800E-010, -23.99999999650043500, -2.500000000000001300 ) ) ;
#336 = DIRECTION ( 'NONE',  ( 0.0000000000000000000, 0.0000000000000000000, 1.000000000000000000 ) ) ;
#337 = DIRECTION ( 'NONE',  ( 0.0000000000000000000, 1.000000000000000000, 0.0000000000000000000 ) ) ;
#338 = CARTESIAN_POINT ( 'NONE',  ( -5.009326287108706300E-010, 2.412507003500041800, 0.0000000000000000000 ) ) ;
#339 = AXIS2_PLACEMENT_3D ( 'NONE', #338, #337, #336 ) ;
#340 = CYLINDRICAL_SURFACE ( 'NONE', #339, 6.000000000000000900 ) ;
#341 = FACE_OUTER_BOUND ( 'NONE', #64, .T. ) ;
#342 = DIRECTION ( 'NONE',  ( 0.0000000000000000000, 1.000000000000000000, 0.0000000000000000000 ) ) ;
#343 = VECTOR ( 'NONE', #342, 1000.000000000000000 ) ;
#344 = CARTESIAN_POINT ( 'NONE',  ( -5.009326287108706300E-010, 2.412507003500041800, 2.500000000000000400 ) ) ;
#345 = LINE ( 'NONE', #344, #343 ) ;
#346 = CARTESIAN_POINT ( 'NONE',  ( -5.009326287108706300E-010, -12.99999999650043500, 2.500000000000000000 ) ) ;
#347 = DIRECTION ( 'NONE',  ( 0.0000000000000000000, 0.0000000000000000000, 1.000000000000000000 ) ) ;
#348 = DIRECTION ( 'NONE',  ( 0.0000000000000000000, 1.000000000000000000, 0.0000000000000000000 ) ) ;
#349 = CARTESIAN_POINT ( 'NONE',  ( -5.009326287108706300E-010, -12.99999999650043500, 0.0000000000000000000 ) ) ;
#350 = AXIS2_PLACEMENT_3D ( 'NONE', #349, #348, #347 ) ;
#351 = CIRCLE ( 'NONE', #350, 2.500000000000000000 ) ;
#352 = LOCAL_TIME ( 11, 26, 8.000000000000000000, #379 ) ;
#353 = DATE_TIME_ROLE ( 'classification_date' ) ;
#354 = DATE_AND_TIME ( #355, #352 ) ;
#355 = CALENDAR_DATE ( 2009, 29, 6 ) ;
#356 = SHAPE_DEFINITION_REPRESENTATION ( #357, #248 ) ;
#357 = PRODUCT_DEFINITION_SHAPE ( 'NONE', 'NONE',  #218 ) ;
#358 = PRODUCT_RELATED_PRODUCT_CATEGORY ( 'detail', '', ( #227 ) ) ;
#359 = CC_DESIGN_SECURITY_CLASSIFICATION ( #380, ( #197 ) ) ;
#360 = CC_DESIGN_APPROVAL ( #364, ( #380 ) ) ;
#361 = APPROVAL_DATE_TIME ( #362, #364 ) ;
#362 = DATE_AND_TIME ( #373, #374 ) ;
#363 = APPROVAL_ROLE ( '' ) ;
#364 = APPROVAL ( #365, 'UNSPECIFIED' ) ;
#365 = APPROVAL_STATUS ( 'not_yet_approved' ) ;
#366 = PERSON_AND_ORGANIZATION ( #226, #225 ) ;
#367 = PERSON_AND_ORGANIZATION ( #226, #225 ) ;
#368 = SECURITY_CLASSIFICATION_LEVEL ( 'unclassified' ) ;
#369 = PERSON_AND_ORGANIZATION ( #226, #225 ) ;
#370 = PERSON_AND_ORGANIZATION_ROLE ( 'design_supplier' ) ;
#371 = PERSON_AND_ORGANIZATION_ROLE ( 'classification_officer' ) ;
#372 = CC_DESIGN_PERSON_AND_ORGANIZATION_ASSIGNMENT ( #99, #98, ( #197 ) ) ;
#373 = CALENDAR_DATE ( 2009, 29, 6 ) ;
#374 = LOCAL_TIME ( 11, 26, 8.000000000000000000, #375 ) ;
#375 = COORDINATED_UNIVERSAL_TIME_OFFSET ( 9, 0, .AHEAD. ) ;
#376 = APPROVAL_PERSON_ORGANIZATION ( #366, #364, #363 ) ;
#377 = CC_DESIGN_PERSON_AND_ORGANIZATION_ASSIGNMENT ( #369, #370, ( #197 ) ) ;
#378 = CC_DESIGN_DATE_AND_TIME_ASSIGNMENT ( #354, #353, ( #380 ) ) ;
#379 = COORDINATED_UNIVERSAL_TIME_OFFSET ( 9, 0, .AHEAD. ) ;
#380 = SECURITY_CLASSIFICATION ( '', '', #368 ) ;
#381 = CC_DESIGN_PERSON_AND_ORGANIZATION_ASSIGNMENT ( #367, #371, ( #380 ) ) ;
ENDSEC;
END-ISO-10303-21;
