ISO-10303-21;
HEADER;
FILE_DESCRIPTION (( 'STEP AP203' ),
    '1' );
FILE_NAME ('C-30-RK-38.STEP',
    '2009-06-26T07:15:50',
    ( '11sw' ),
    ( '^LQ»¢®ïÐ' ),
    'SwSTEP 2.0',
    'SolidWorks 2007',
    '' );
FILE_SCHEMA (( 'CONFIG_CONTROL_DESIGN' ));
ENDSEC;

DATA;
#1 = APPROVAL_ROLE ( '' ) ;
#2 = DATE_AND_TIME ( #7, #5 ) ;
#3 = APPROVAL_PERSON_ORGANIZATION ( #106, #104, #1 ) ;
#4 = APPROVAL_DATE_TIME ( #2, #104 ) ;
#5 = LOCAL_TIME ( 16, 15, 50.00000000000000000, #6 ) ;
#6 = COORDINATED_UNIVERSAL_TIME_OFFSET ( 9, 0, .AHEAD. ) ;
#7 = CALENDAR_DATE ( 2009, 26, 6 ) ;
#8 = CC_DESIGN_APPROVAL ( #104, ( #107 ) ) ;
#9 = DIRECTION ( 'NONE',  ( 0.0000000000000000000, 0.0000000000000000000, 1.000000000000000000 ) ) ;
#10 = DIRECTION ( 'NONE',  ( 0.0000000000000000000, 1.000000000000000000, 0.0000000000000000000 ) ) ;
#11 = CARTESIAN_POINT ( 'NONE',  ( -5.009326287108706300E-010, 3.499565220943523500E-009, 0.0000000000000000000 ) ) ;
#12 = AXIS2_PLACEMENT_3D ( 'NONE', #11, #10, #9 ) ;
#13 = CIRCLE ( 'NONE', #12, 15.11721778146267600 ) ;
#14 = COORDINATED_UNIVERSAL_TIME_OFFSET ( 9, 0, .AHEAD. ) ;
#15 = DIRECTION ( 'NONE',  ( 0.0000000000000000000, 0.0000000000000000000, 1.000000000000000000 ) ) ;
#16 = DIRECTION ( 'NONE',  ( -1.000000000000000000, 0.0000000000000000000, 0.0000000000000000000 ) ) ;
#17 = CARTESIAN_POINT ( 'NONE',  ( -5.009326287108706300E-010, -0.9999999965004345800, 15.11721778146268100 ) ) ;
#18 = AXIS2_PLACEMENT_3D ( 'NONE', #17, #16, #15 ) ;
#19 = CIRCLE ( 'NONE', #18, 1.000000000000000900 ) ;
#20 = DIRECTION ( 'NONE',  ( 0.0000000000000000000, 0.0000000000000000000, 1.000000000000000000 ) ) ;
#21 = DIRECTION ( 'NONE',  ( 0.0000000000000000000, 1.000000000000000000, 0.0000000000000000000 ) ) ;
#22 = CARTESIAN_POINT ( 'NONE',  ( -5.009326287108706300E-010, -0.9999999965004345800, 0.0000000000000000000 ) ) ;
#23 = AXIS2_PLACEMENT_3D ( 'NONE', #22, #21, #20 ) ;
#24 = TOROIDAL_SURFACE ( 'NONE', #23, 15.11721778146268100, 1.000000000000000900 ) ;
#25 = FACE_OUTER_BOUND ( 'NONE', #165, .T. ) ;
#26 = DIRECTION ( 'NONE',  ( 0.0000000000000000000, 0.0000000000000000000, 1.000000000000000000 ) ) ;
#27 = DIRECTION ( 'NONE',  ( 0.0000000000000000000, 1.000000000000000000, 0.0000000000000000000 ) ) ;
#28 = CARTESIAN_POINT ( 'NONE',  ( -5.009326287108706300E-010, -0.8759652619112321400, 0.0000000000000000000 ) ) ;
#29 = AXIS2_PLACEMENT_3D ( 'NONE', #28, #27, #26 ) ;
#30 = CIRCLE ( 'NONE', #29, 16.10949565817635300 ) ;
#31 = DIRECTION ( 'NONE',  ( 0.0000000000000000000, 0.0000000000000000000, -1.000000000000000000 ) ) ;
#32 = DIRECTION ( 'NONE',  ( 0.0000000000000000000, -1.000000000000000000, 0.0000000000000000000 ) ) ;
#33 = CARTESIAN_POINT ( 'NONE',  ( 15.11721778096174300, 3.499565319792597300E-009, 0.0000000000000000000 ) ) ;
#34 = AXIS2_PLACEMENT_3D ( 'NONE', #33, #32, #31 ) ;
#35 = PLANE ( 'NONE',  #34 ) ;
#36 = FACE_OUTER_BOUND ( 'NONE', #159, .T. ) ;
#37 = FACE_BOUND ( 'NONE', #157, .T. ) ;
#38 = DIRECTION ( 'NONE',  ( 0.0000000000000000000, 0.0000000000000000000, 1.000000000000000000 ) ) ;
#39 = DIRECTION ( 'NONE',  ( 0.0000000000000000000, 1.000000000000000000, 0.0000000000000000000 ) ) ;
#40 = CARTESIAN_POINT ( 'NONE',  ( -5.009326287108706300E-010, 3.499565220943523500E-009, 0.0000000000000000000 ) ) ;
#41 = AXIS2_PLACEMENT_3D ( 'NONE', #40, #39, #38 ) ;
#42 = CIRCLE ( 'NONE', #41, 6.000000000000000000 ) ;
#43 = DIRECTION ( 'NONE',  ( 0.0000000000000000000, 0.0000000000000000000, 1.000000000000000000 ) ) ;
#44 = DIRECTION ( 'NONE',  ( 0.0000000000000000000, 1.000000000000000000, 0.0000000000000000000 ) ) ;
#45 = CARTESIAN_POINT ( 'NONE',  ( -5.009326287108706300E-010, 3.499565220943523500E-009, 0.0000000000000000000 ) ) ;
#46 = AXIS2_PLACEMENT_3D ( 'NONE', #45, #44, #43 ) ;
#47 = DIRECTION ( 'NONE',  ( 0.0000000000000000000, 0.0000000000000000000, 1.000000000000000000 ) ) ;
#48 = DIRECTION ( 'NONE',  ( 0.0000000000000000000, 1.000000000000000000, 0.0000000000000000000 ) ) ;
#49 = CARTESIAN_POINT ( 'NONE',  ( -5.009326287108706300E-010, 2.412507003500041800, 0.0000000000000000000 ) ) ;
#50 = AXIS2_PLACEMENT_3D ( 'NONE', #49, #48, #47 ) ;
#51 = CIRCLE ( 'NONE', #46, 15.11721778146267600 ) ;
#52 = CYLINDRICAL_SURFACE ( 'NONE', #50, 6.000000000000000900 ) ;
#53 = FACE_OUTER_BOUND ( 'NONE', #148, .T. ) ;
#54 = DIRECTION ( 'NONE',  ( 0.0000000000000000000, 0.0000000000000000000, 1.000000000000000000 ) ) ;
#55 = DIRECTION ( 'NONE',  ( 0.0000000000000000000, 1.000000000000000000, 0.0000000000000000000 ) ) ;
#56 = CARTESIAN_POINT ( 'NONE',  ( -5.009326287108706300E-010, -12.99999999650043500, 0.0000000000000000000 ) ) ;
#57 = AXIS2_PLACEMENT_3D ( 'NONE', #56, #55, #54 ) ;
#58 = CIRCLE ( 'NONE', #57, 2.500000000000000000 ) ;
#59 = DIRECTION ( 'NONE',  ( 0.0000000000000000000, 0.0000000000000000000, -1.000000000000000000 ) ) ;
#60 = DIRECTION ( 'NONE',  ( 0.0000000000000000000, -1.000000000000000000, 0.0000000000000000000 ) ) ;
#61 = CARTESIAN_POINT ( 'NONE',  ( 5.999999999499069100, -12.99999999650043500, 0.0000000000000000000 ) ) ;
#62 = AXIS2_PLACEMENT_3D ( 'NONE', #61, #60, #59 ) ;
#63 = PLANE ( 'NONE',  #62 ) ;
#64 = FACE_OUTER_BOUND ( 'NONE', #145, .T. ) ;
#65 = FACE_BOUND ( 'NONE', #141, .T. ) ;
#66 = DIRECTION ( 'NONE',  ( 0.0000000000000000000, 0.0000000000000000000, 1.000000000000000000 ) ) ;
#67 = DIRECTION ( 'NONE',  ( 0.0000000000000000000, 1.000000000000000000, 0.0000000000000000000 ) ) ;
#68 = CARTESIAN_POINT ( 'NONE',  ( -5.009326287108706300E-010, -12.99999999650043500, 0.0000000000000000000 ) ) ;
#69 = AXIS2_PLACEMENT_3D ( 'NONE', #68, #67, #66 ) ;
#70 = DIRECTION ( 'NONE',  ( 0.0000000000000000000, 0.0000000000000000000, -1.000000000000000000 ) ) ;
#71 = DIRECTION ( 'NONE',  ( 0.0000000000000000000, -1.000000000000000000, 0.0000000000000000000 ) ) ;
#72 = AXIS2_PLACEMENT_3D ( 'NONE', #81, #71, #70 ) ;
#73 = CIRCLE ( 'NONE', #69, 6.000000000000001800 ) ;
#74 = CONICAL_SURFACE ( 'NONE', #72, 19.00000000000000000, 0.1243549945467613300 ) ;
#75 = FACE_OUTER_BOUND ( 'NONE', #132, .T. ) ;
#76 = DIRECTION ( 'NONE',  ( 0.0000000000000000000, 0.0000000000000000000, 1.000000000000000000 ) ) ;
#77 = DIRECTION ( 'NONE',  ( 0.0000000000000000000, 1.000000000000000000, 0.0000000000000000000 ) ) ;
#78 = CARTESIAN_POINT ( 'NONE',  ( -5.009326287108706300E-010, -23.99999999650043500, 0.0000000000000000000 ) ) ;
#79 = AXIS2_PLACEMENT_3D ( 'NONE', #78, #77, #76 ) ;
#80 = CIRCLE ( 'NONE', #79, 19.00000000000000000 ) ;
#81 = CARTESIAN_POINT ( 'NONE',  ( -5.009326287108706300E-010, -23.99999999650043500, 0.0000000000000000000 ) ) ;
#82 = DIRECTION ( 'NONE',  ( 0.0000000000000000000, 0.0000000000000000000, 1.000000000000000000 ) ) ;
#83 = DIRECTION ( 'NONE',  ( 0.0000000000000000000, 1.000000000000000000, 0.0000000000000000000 ) ) ;
#84 = CARTESIAN_POINT ( 'NONE',  ( 2.499999999499068700, -23.99999999650043500, 0.0000000000000000000 ) ) ;
#85 = AXIS2_PLACEMENT_3D ( 'NONE', #84, #83, #82 ) ;
#86 = PLANE ( 'NONE',  #85 ) ;
#87 = FACE_BOUND ( 'NONE', #128, .T. ) ;
#88 = FACE_OUTER_BOUND ( 'NONE', #124, .T. ) ;
#89 = DIRECTION ( 'NONE',  ( 0.0000000000000000000, 0.0000000000000000000, 1.000000000000000000 ) ) ;
#90 = DIRECTION ( 'NONE',  ( 0.0000000000000000000, 1.000000000000000000, 0.0000000000000000000 ) ) ;
#91 = AXIS2_PLACEMENT_3D ( 'NONE', #96, #90, #89 ) ;
#92 = CIRCLE ( 'NONE', #91, 2.500000000000001300 ) ;
#93 = DIRECTION ( 'NONE',  ( 0.0000000000000000000, 0.0000000000000000000, 1.000000000000000000 ) ) ;
#94 = DIRECTION ( 'NONE',  ( 0.0000000000000000000, 1.000000000000000000, 0.0000000000000000000 ) ) ;
#95 = AXIS2_PLACEMENT_3D ( 'NONE', #103, #94, #93 ) ;
#96 = CARTESIAN_POINT ( 'NONE',  ( -5.009326287108706300E-010, -23.99999999650043500, 0.0000000000000000000 ) ) ;
#97 = CYLINDRICAL_SURFACE ( 'NONE', #95, 2.500000000000000400 ) ;
#98 = FACE_OUTER_BOUND ( 'NONE', #117, .T. ) ;
#99 = DIRECTION ( 'NONE',  ( 0.0000000000000000000, 0.0000000000000000000, -1.000000000000000000 ) ) ;
#100 = DIRECTION ( 'NONE',  ( 0.0000000000000000000, -1.000000000000000000, 0.0000000000000000000 ) ) ;
#101 = CARTESIAN_POINT ( 'NONE',  ( -5.009326287108706300E-010, -23.99999999650043500, 0.0000000000000000000 ) ) ;
#102 = AXIS2_PLACEMENT_3D ( 'NONE', #101, #100, #99 ) ;
#103 = CARTESIAN_POINT ( 'NONE',  ( -5.009326287108706300E-010, 2.412507003500041800, 0.0000000000000000000 ) ) ;
#104 = APPROVAL ( #105, 'UNSPECIFIED' ) ;
#105 = APPROVAL_STATUS ( 'not_yet_approved' ) ;
#106 = PERSON_AND_ORGANIZATION ( #318, #317 ) ;
#107 = PRODUCT_DEFINITION_FORMATION_WITH_SPECIFIED_SOURCE ( 'ANY', '', #319, .NOT_KNOWN. ) ;
#108 = CONICAL_SURFACE ( 'NONE', #102, 19.00000000000000000, 0.1243549945467613300 ) ;
#109 = FACE_OUTER_BOUND ( 'NONE', #112, .T. ) ;
#110 = MANIFOLD_SOLID_BREP ( 'NONE', #136 ) ;
#111 = ADVANCED_FACE ( 'NONE', ( #109 ), #108, .T. ) ;
#112 = EDGE_LOOP ( 'NONE', ( #214, #211, #205, #208 ) ) ;
#113 = ORIENTED_EDGE ( 'NONE', *, *, #126, .T. ) ;
#114 = ORIENTED_EDGE ( 'NONE', *, *, #137, .T. ) ;
#115 = ORIENTED_EDGE ( 'NONE', *, *, #194, .T. ) ;
#116 = ADVANCED_FACE ( 'NONE', ( #98 ), #97, .F. ) ;
#117 = EDGE_LOOP ( 'NONE', ( #118, #119, #121, #122 ) ) ;
#118 = ORIENTED_EDGE ( 'NONE', *, *, #184, .F. ) ;
#119 = ORIENTED_EDGE ( 'NONE', *, *, #120, .F. ) ;
#120 = EDGE_CURVE ( 'NONE', #199, #203, #92, .T. ) ;
#121 = ORIENTED_EDGE ( 'NONE', *, *, #196, .T. ) ;
#122 = ORIENTED_EDGE ( 'NONE', *, *, #143, .T. ) ;
#123 = ADVANCED_FACE ( 'NONE', ( #88, #87 ), #86, .F. ) ;
#124 = EDGE_LOOP ( 'NONE', ( #125, #127 ) ) ;
#125 = ORIENTED_EDGE ( 'NONE', *, *, #126, .F. ) ;
#126 = EDGE_CURVE ( 'NONE', #206, #213, #80, .T. ) ;
#127 = ORIENTED_EDGE ( 'NONE', *, *, #209, .F. ) ;
#128 = EDGE_LOOP ( 'NONE', ( #129, #130 ) ) ;
#129 = ORIENTED_EDGE ( 'NONE', *, *, #120, .T. ) ;
#130 = ORIENTED_EDGE ( 'NONE', *, *, #202, .T. ) ;
#131 = ADVANCED_FACE ( 'NONE', ( #75 ), #74, .T. ) ;
#132 = EDGE_LOOP ( 'NONE', ( #133, #134, #135, #113 ) ) ;
#133 = ORIENTED_EDGE ( 'NONE', *, *, #212, .F. ) ;
#134 = ORIENTED_EDGE ( 'NONE', *, *, #161, .F. ) ;
#135 = ORIENTED_EDGE ( 'NONE', *, *, #207, .T. ) ;
#136 = CLOSED_SHELL ( 'NONE', ( #111, #204, #187, #179, #163, #156, #149, #140, #116, #123, #131 ) ) ;
#137 = EDGE_CURVE ( 'NONE', #192, #191, #73, .T. ) ;
#138 = ORIENTED_EDGE ( 'NONE', *, *, #178, .T. ) ;
#139 = ORIENTED_EDGE ( 'NONE', *, *, #154, .T. ) ;
#140 = ADVANCED_FACE ( 'NONE', ( #65, #64 ), #63, .F. ) ;
#141 = EDGE_LOOP ( 'NONE', ( #142, #144 ) ) ;
#142 = ORIENTED_EDGE ( 'NONE', *, *, #143, .F. ) ;
#143 = EDGE_CURVE ( 'NONE', #197, #193, #58, .T. ) ;
#144 = ORIENTED_EDGE ( 'NONE', *, *, #189, .F. ) ;
#145 = EDGE_LOOP ( 'NONE', ( #114, #115 ) ) ;
#146 = ORIENTED_EDGE ( 'NONE', *, *, #181, .F. ) ;
#147 = ORIENTED_EDGE ( 'NONE', *, *, #137, .F. ) ;
#148 = EDGE_LOOP ( 'NONE', ( #146, #147, #138, #139 ) ) ;
#149 = ADVANCED_FACE ( 'NONE', ( #53 ), #52, .F. ) ;
#150 = ORIENTED_EDGE ( 'NONE', *, *, #151, .T. ) ;
#151 = EDGE_CURVE ( 'NONE', #172, #169, #51, .T. ) ;
#152 = ORIENTED_EDGE ( 'NONE', *, *, #151, .F. ) ;
#153 = ORIENTED_EDGE ( 'NONE', *, *, #154, .F. ) ;
#154 = EDGE_CURVE ( 'NONE', #175, #183, #42, .T. ) ;
#155 = ORIENTED_EDGE ( 'NONE', *, *, #174, .F. ) ;
#156 = ADVANCED_FACE ( 'NONE', ( #37, #36 ), #35, .F. ) ;
#157 = EDGE_LOOP ( 'NONE', ( #153, #155 ) ) ;
#158 = ORIENTED_EDGE ( 'NONE', *, *, #166, .T. ) ;
#159 = EDGE_LOOP ( 'NONE', ( #160, #150 ) ) ;
#160 = ORIENTED_EDGE ( 'NONE', *, *, #168, .T. ) ;
#161 = EDGE_CURVE ( 'NONE', #210, #215, #30, .T. ) ;
#162 = ORIENTED_EDGE ( 'NONE', *, *, #173, .F. ) ;
#163 = ADVANCED_FACE ( 'NONE', ( #25 ), #24, .T. ) ;
#164 = ORIENTED_EDGE ( 'NONE', *, *, #161, .T. ) ;
#165 = EDGE_LOOP ( 'NONE', ( #162, #164, #158, #152 ) ) ;
#166 = EDGE_CURVE ( 'NONE', #215, #169, #19, .T. ) ;
#167 = ORIENTED_EDGE ( 'NONE', *, *, #166, .F. ) ;
#168 = EDGE_CURVE ( 'NONE', #169, #172, #13, .T. ) ;
#169 = VERTEX_POINT ( 'NONE', #329 ) ;
#170 = ORIENTED_EDGE ( 'NONE', *, *, #216, .T. ) ;
#171 = ORIENTED_EDGE ( 'NONE', *, *, #173, .T. ) ;
#172 = VERTEX_POINT ( 'NONE', #349 ) ;
#173 = EDGE_CURVE ( 'NONE', #210, #172, #327, .T. ) ;
#174 = EDGE_CURVE ( 'NONE', #183, #175, #314, .T. ) ;
#175 = VERTEX_POINT ( 'NONE', #310 ) ;
#176 = EDGE_LOOP ( 'NONE', ( #170, #171, #195, #167 ) ) ;
#177 = ORIENTED_EDGE ( 'NONE', *, *, #178, .F. ) ;
#178 = EDGE_CURVE ( 'NONE', #192, #175, #309, .T. ) ;
#179 = ADVANCED_FACE ( 'NONE', ( #305 ), #304, .T. ) ;
#180 = ORIENTED_EDGE ( 'NONE', *, *, #174, .T. ) ;
#181 = EDGE_CURVE ( 'NONE', #191, #183, #299, .T. ) ;
#182 = ORIENTED_EDGE ( 'NONE', *, *, #181, .T. ) ;
#183 = VERTEX_POINT ( 'NONE', #295 ) ;
#184 = EDGE_CURVE ( 'NONE', #203, #193, #294, .T. ) ;
#185 = ORIENTED_EDGE ( 'NONE', *, *, #194, .F. ) ;
#186 = ORIENTED_EDGE ( 'NONE', *, *, #196, .F. ) ;
#187 = ADVANCED_FACE ( 'NONE', ( #290 ), #289, .F. ) ;
#188 = EDGE_LOOP ( 'NONE', ( #185, #182, #180, #177 ) ) ;
#189 = EDGE_CURVE ( 'NONE', #193, #197, #283, .T. ) ;
#190 = ORIENTED_EDGE ( 'NONE', *, *, #189, .T. ) ;
#191 = VERTEX_POINT ( 'NONE', #279 ) ;
#192 = VERTEX_POINT ( 'NONE', #278 ) ;
#193 = VERTEX_POINT ( 'NONE', #277 ) ;
#194 = EDGE_CURVE ( 'NONE', #191, #192, #276, .T. ) ;
#195 = ORIENTED_EDGE ( 'NONE', *, *, #168, .F. ) ;
#196 = EDGE_CURVE ( 'NONE', #199, #197, #271, .T. ) ;
#197 = VERTEX_POINT ( 'NONE', #267 ) ;
#198 = ORIENTED_EDGE ( 'NONE', *, *, #184, .T. ) ;
#199 = VERTEX_POINT ( 'NONE', #266 ) ;
#200 = EDGE_LOOP ( 'NONE', ( #201, #198, #190, #186 ) ) ;
#201 = ORIENTED_EDGE ( 'NONE', *, *, #202, .F. ) ;
#202 = EDGE_CURVE ( 'NONE', #203, #199, #265, .T. ) ;
#203 = VERTEX_POINT ( 'NONE', #260 ) ;
#204 = ADVANCED_FACE ( 'NONE', ( #259 ), #258, .F. ) ;
#205 = ORIENTED_EDGE ( 'NONE', *, *, #209, .T. ) ;
#206 = VERTEX_POINT ( 'NONE', #253 ) ;
#207 = EDGE_CURVE ( 'NONE', #210, #206, #252, .T. ) ;
#208 = ORIENTED_EDGE ( 'NONE', *, *, #207, .F. ) ;
#209 = EDGE_CURVE ( 'NONE', #213, #206, #248, .T. ) ;
#210 = VERTEX_POINT ( 'NONE', #243 ) ;
#211 = ORIENTED_EDGE ( 'NONE', *, *, #212, .T. ) ;
#212 = EDGE_CURVE ( 'NONE', #215, #213, #242, .T. ) ;
#213 = VERTEX_POINT ( 'NONE', #238 ) ;
#214 = ORIENTED_EDGE ( 'NONE', *, *, #216, .F. ) ;
#215 = VERTEX_POINT ( 'NONE', #237 ) ;
#216 = EDGE_CURVE ( 'NONE', #215, #210, #236, .T. ) ;
#217 = CC_DESIGN_DATE_AND_TIME_ASSIGNMENT ( #219, #218, ( #344 ) ) ;
#218 = DATE_TIME_ROLE ( 'creation_date' ) ;
#219 = DATE_AND_TIME ( #220, #221 ) ;
#220 = CALENDAR_DATE ( 2009, 26, 6 ) ;
#221 = LOCAL_TIME ( 16, 15, 50.00000000000000000, #14 ) ;
#222 = DIRECTION ( 'NONE',  ( 1.000000000000000000, 0.0000000000000000000, 0.0000000000000000000 ) ) ;
#223 = CARTESIAN_POINT ( 'NONE',  ( 0.0000000000000000000, 0.0000000000000000000, 0.0000000000000000000 ) ) ;
#224 = AXIS2_PLACEMENT_3D ( 'NONE', #223, #231, #222 ) ;
#225 = ADVANCED_BREP_SHAPE_REPRESENTATION ( 'C-30-RK-38', ( #110, #224 ), #226 ) ;
#226 =( GEOMETRIC_REPRESENTATION_CONTEXT ( 3 ) GLOBAL_UNCERTAINTY_ASSIGNED_CONTEXT ( ( #227 ) ) GLOBAL_UNIT_ASSIGNED_CONTEXT ( ( #230, #229, #228 ) ) REPRESENTATION_CONTEXT ( 'NONE', 'WORKASPACE' ) );
#227 = UNCERTAINTY_MEASURE_WITH_UNIT (LENGTH_MEASURE( 1.000000000000000100E-005 ), #230, 'distance_accuracy_value', 'NONE');
#228 =( NAMED_UNIT ( * ) SI_UNIT ( $, .STERADIAN. ) SOLID_ANGLE_UNIT ( ) );
#229 =( NAMED_UNIT ( * ) PLANE_ANGLE_UNIT ( ) SI_UNIT ( $, .RADIAN. ) );
#230 =( LENGTH_UNIT ( ) NAMED_UNIT ( * ) SI_UNIT ( .MILLI., .METRE. ) );
#231 = DIRECTION ( 'NONE',  ( 0.0000000000000000000, 0.0000000000000000000, 1.000000000000000000 ) ) ;
#232 = DIRECTION ( 'NONE',  ( 0.0000000000000000000, 0.0000000000000000000, 1.000000000000000000 ) ) ;
#233 = DIRECTION ( 'NONE',  ( 0.0000000000000000000, 1.000000000000000000, 0.0000000000000000000 ) ) ;
#234 = CARTESIAN_POINT ( 'NONE',  ( -5.009326287108706300E-010, -0.8759652619112321400, 0.0000000000000000000 ) ) ;
#235 = AXIS2_PLACEMENT_3D ( 'NONE', #234, #233, #232 ) ;
#236 = CIRCLE ( 'NONE', #235, 16.10949565817635300 ) ;
#237 = CARTESIAN_POINT ( 'NONE',  ( -5.009326287108706300E-010, -0.8759652619112321400, 16.10949565817635300 ) ) ;
#238 = CARTESIAN_POINT ( 'NONE',  ( -5.009303019587983700E-010, -23.99999999650043500, 19.00000000000000000 ) ) ;
#239 = DIRECTION ( 'NONE',  ( 1.518937240726167100E-017, -0.9922778767136676300, 0.1240347345892083400 ) ) ;
#240 = VECTOR ( 'NONE', #239, 1000.000000000000000 ) ;
#241 = CARTESIAN_POINT ( 'NONE',  ( -5.009303019587983700E-010, -23.99999999650043500, 19.00000000000000000 ) ) ;
#242 = LINE ( 'NONE', #241, #240 ) ;
#243 = CARTESIAN_POINT ( 'NONE',  ( -5.009306559317965900E-010, -0.8759652619112321400, -16.10949565817635300 ) ) ;
#244 = DIRECTION ( 'NONE',  ( 0.0000000000000000000, 0.0000000000000000000, 1.000000000000000000 ) ) ;
#245 = DIRECTION ( 'NONE',  ( 0.0000000000000000000, 1.000000000000000000, 0.0000000000000000000 ) ) ;
#246 = CARTESIAN_POINT ( 'NONE',  ( -5.009326287108706300E-010, -23.99999999650043500, 0.0000000000000000000 ) ) ;
#247 = AXIS2_PLACEMENT_3D ( 'NONE', #246, #245, #244 ) ;
#248 = CIRCLE ( 'NONE', #247, 19.00000000000000000 ) ;
#249 = DIRECTION ( 'NONE',  ( 0.0000000000000000000, -0.9922778767136676300, -0.1240347345892083400 ) ) ;
#250 = VECTOR ( 'NONE', #249, 1000.000000000000000 ) ;
#251 = CARTESIAN_POINT ( 'NONE',  ( -5.009326287108706300E-010, -23.99999999650043500, -19.00000000000000000 ) ) ;
#252 = LINE ( 'NONE', #251, #250 ) ;
#253 = CARTESIAN_POINT ( 'NONE',  ( -5.009326287108706300E-010, -23.99999999650043500, -19.00000000000000000 ) ) ;
#254 = DIRECTION ( 'NONE',  ( 0.0000000000000000000, 0.0000000000000000000, 1.000000000000000000 ) ) ;
#255 = DIRECTION ( 'NONE',  ( 0.0000000000000000000, 1.000000000000000000, 0.0000000000000000000 ) ) ;
#256 = CARTESIAN_POINT ( 'NONE',  ( -5.009326287108706300E-010, 2.412507003500041800, 0.0000000000000000000 ) ) ;
#257 = AXIS2_PLACEMENT_3D ( 'NONE', #256, #255, #254 ) ;
#258 = CYLINDRICAL_SURFACE ( 'NONE', #257, 2.500000000000000400 ) ;
#259 = FACE_OUTER_BOUND ( 'NONE', #200, .T. ) ;
#260 = CARTESIAN_POINT ( 'NONE',  ( -5.009323225592821800E-010, -23.99999999650043500, -2.500000000000001300 ) ) ;
#261 = DIRECTION ( 'NONE',  ( 0.0000000000000000000, 0.0000000000000000000, 1.000000000000000000 ) ) ;
#262 = DIRECTION ( 'NONE',  ( 0.0000000000000000000, 1.000000000000000000, 0.0000000000000000000 ) ) ;
#263 = CARTESIAN_POINT ( 'NONE',  ( -5.009326287108706300E-010, -23.99999999650043500, 0.0000000000000000000 ) ) ;
#264 = AXIS2_PLACEMENT_3D ( 'NONE', #263, #262, #261 ) ;
#265 = CIRCLE ( 'NONE', #264, 2.500000000000001300 ) ;
#266 = CARTESIAN_POINT ( 'NONE',  ( -5.009326287108706300E-010, -23.99999999650043500, 2.500000000000001300 ) ) ;
#267 = CARTESIAN_POINT ( 'NONE',  ( -5.009326287108706300E-010, -12.99999999650043500, 2.500000000000000000 ) ) ;
#268 = DIRECTION ( 'NONE',  ( 0.0000000000000000000, 1.000000000000000000, 0.0000000000000000000 ) ) ;
#269 = VECTOR ( 'NONE', #268, 1000.000000000000000 ) ;
#270 = CARTESIAN_POINT ( 'NONE',  ( -5.009326287108706300E-010, 2.412507003500041800, 2.500000000000000400 ) ) ;
#271 = LINE ( 'NONE', #270, #269 ) ;
#272 = DIRECTION ( 'NONE',  ( 0.0000000000000000000, 0.0000000000000000000, 1.000000000000000000 ) ) ;
#273 = DIRECTION ( 'NONE',  ( 0.0000000000000000000, 1.000000000000000000, 0.0000000000000000000 ) ) ;
#274 = CARTESIAN_POINT ( 'NONE',  ( -5.009326287108706300E-010, -12.99999999650043500, 0.0000000000000000000 ) ) ;
#275 = AXIS2_PLACEMENT_3D ( 'NONE', #274, #273, #272 ) ;
#276 = CIRCLE ( 'NONE', #275, 6.000000000000001800 ) ;
#277 = CARTESIAN_POINT ( 'NONE',  ( -5.009323225592821800E-010, -12.99999999650043500, -2.500000000000000000 ) ) ;
#278 = CARTESIAN_POINT ( 'NONE',  ( -5.009326287108706300E-010, -12.99999999650043500, 6.000000000000001800 ) ) ;
#279 = CARTESIAN_POINT ( 'NONE',  ( -5.009318939470583400E-010, -12.99999999650043500, -6.000000000000001800 ) ) ;
#280 = DIRECTION ( 'NONE',  ( 0.0000000000000000000, 0.0000000000000000000, 1.000000000000000000 ) ) ;
#281 = DIRECTION ( 'NONE',  ( 0.0000000000000000000, 1.000000000000000000, 0.0000000000000000000 ) ) ;
#282 = AXIS2_PLACEMENT_3D ( 'NONE', #288, #281, #280 ) ;
#283 = CIRCLE ( 'NONE', #282, 2.500000000000000000 ) ;
#284 = DIRECTION ( 'NONE',  ( 0.0000000000000000000, 0.0000000000000000000, 1.000000000000000000 ) ) ;
#285 = DIRECTION ( 'NONE',  ( 0.0000000000000000000, 1.000000000000000000, 0.0000000000000000000 ) ) ;
#286 = CARTESIAN_POINT ( 'NONE',  ( -5.009326287108706300E-010, 2.412507003500041800, 0.0000000000000000000 ) ) ;
#287 = AXIS2_PLACEMENT_3D ( 'NONE', #286, #285, #284 ) ;
#288 = CARTESIAN_POINT ( 'NONE',  ( -5.009326287108706300E-010, -12.99999999650043500, 0.0000000000000000000 ) ) ;
#289 = CYLINDRICAL_SURFACE ( 'NONE', #287, 6.000000000000000900 ) ;
#290 = FACE_OUTER_BOUND ( 'NONE', #188, .T. ) ;
#291 = DIRECTION ( 'NONE',  ( 0.0000000000000000000, 1.000000000000000000, 0.0000000000000000000 ) ) ;
#292 = VECTOR ( 'NONE', #291, 1000.000000000000000 ) ;
#293 = CARTESIAN_POINT ( 'NONE',  ( -5.009323225592821800E-010, 2.412507003500041800, -2.500000000000000400 ) ) ;
#294 = LINE ( 'NONE', #293, #292 ) ;
#295 = CARTESIAN_POINT ( 'NONE',  ( -5.009318939470583400E-010, 3.499565220943523500E-009, -6.000000000000000000 ) ) ;
#296 = DIRECTION ( 'NONE',  ( 0.0000000000000000000, 1.000000000000000000, 0.0000000000000000000 ) ) ;
#297 = VECTOR ( 'NONE', #296, 1000.000000000000000 ) ;
#298 = CARTESIAN_POINT ( 'NONE',  ( -5.009318939470583400E-010, 2.412507003500041800, -6.000000000000000900 ) ) ;
#299 = LINE ( 'NONE', #298, #297 ) ;
#300 = DIRECTION ( 'NONE',  ( 0.0000000000000000000, 0.0000000000000000000, 1.000000000000000000 ) ) ;
#301 = DIRECTION ( 'NONE',  ( 0.0000000000000000000, 1.000000000000000000, 0.0000000000000000000 ) ) ;
#302 = CARTESIAN_POINT ( 'NONE',  ( -5.009326287108706300E-010, -0.9999999965004345800, 0.0000000000000000000 ) ) ;
#303 = AXIS2_PLACEMENT_3D ( 'NONE', #302, #301, #300 ) ;
#304 = TOROIDAL_SURFACE ( 'NONE', #303, 15.11721778146268100, 1.000000000000000900 ) ;
#305 = FACE_OUTER_BOUND ( 'NONE', #176, .T. ) ;
#306 = DIRECTION ( 'NONE',  ( 0.0000000000000000000, 1.000000000000000000, 0.0000000000000000000 ) ) ;
#307 = VECTOR ( 'NONE', #306, 1000.000000000000000 ) ;
#308 = CARTESIAN_POINT ( 'NONE',  ( -5.009326287108706300E-010, 2.412507003500041800, 6.000000000000000900 ) ) ;
#309 = LINE ( 'NONE', #308, #307 ) ;
#310 = CARTESIAN_POINT ( 'NONE',  ( -5.009326287108706300E-010, 3.499565220943523500E-009, 6.000000000000000000 ) ) ;
#311 = DIRECTION ( 'NONE',  ( 0.0000000000000000000, 0.0000000000000000000, 1.000000000000000000 ) ) ;
#312 = DIRECTION ( 'NONE',  ( 0.0000000000000000000, 1.000000000000000000, 0.0000000000000000000 ) ) ;
#313 = AXIS2_PLACEMENT_3D ( 'NONE', #328, #312, #311 ) ;
#314 = CIRCLE ( 'NONE', #313, 6.000000000000000000 ) ;
#315 = PERSON_AND_ORGANIZATION_ROLE ( 'design_owner' ) ;
#316 = PERSON_AND_ORGANIZATION ( #318, #317 ) ;
#317 = ORGANIZATION ( 'UNSPECIFIED', 'UNSPECIFIED', '' ) ;
#318 = PERSON ( 'UNSPECIFIED', 'UNSPECIFIED', 'UNSPECIFIED', ('UNSPECIFIED'), ('UNSPECIFIED'), ('UNSPECIFIED') ) ;
#319 = PRODUCT ( 'C-30-RK-38', 'C-30-RK-38', '', ( #320 ) ) ;
#320 = MECHANICAL_CONTEXT ( 'NONE', #322, 'mechanical' ) ;
#321 = APPLICATION_PROTOCOL_DEFINITION ( 'international standard', 'config_control_design', 1994, #322 ) ;
#322 = APPLICATION_CONTEXT ( 'configuration controlled 3d designs of mechanical parts and assemblies' ) ;
#323 = DIRECTION ( 'NONE',  ( 1.224606353612349900E-016, 0.0000000000000000000, -1.000000000000000000 ) ) ;
#324 = DIRECTION ( 'NONE',  ( 1.000000000000000000, 0.0000000000000000000, 1.224606353822377300E-016 ) ) ;
#325 = CARTESIAN_POINT ( 'NONE',  ( -5.009307774467759400E-010, -0.9999999965004345800, -15.11721778146268100 ) ) ;
#326 = AXIS2_PLACEMENT_3D ( 'NONE', #325, #324, #323 ) ;
#327 = CIRCLE ( 'NONE', #326, 1.000000000000000900 ) ;
#328 = CARTESIAN_POINT ( 'NONE',  ( -5.009326287108706300E-010, 3.499565220943523500E-009, 0.0000000000000000000 ) ) ;
#329 = CARTESIAN_POINT ( 'NONE',  ( -5.009326287108706300E-010, 3.499565220943523500E-009, 15.11721778146267600 ) ) ;
#330 = CC_DESIGN_PERSON_AND_ORGANIZATION_ASSIGNMENT ( #332, #331, ( #344 ) ) ;
#331 = PERSON_AND_ORGANIZATION_ROLE ( 'creator' ) ;
#332 = PERSON_AND_ORGANIZATION ( #318, #317 ) ;
#333 = CC_DESIGN_APPROVAL ( #341, ( #344 ) ) ;
#334 = APPROVAL_DATE_TIME ( #335, #341 ) ;
#335 = DATE_AND_TIME ( #336, #337 ) ;
#336 = CALENDAR_DATE ( 2009, 26, 6 ) ;
#337 = LOCAL_TIME ( 16, 15, 50.00000000000000000, #338 ) ;
#338 = COORDINATED_UNIVERSAL_TIME_OFFSET ( 9, 0, .AHEAD. ) ;
#339 = APPROVAL_PERSON_ORGANIZATION ( #343, #341, #340 ) ;
#340 = APPROVAL_ROLE ( '' ) ;
#341 = APPROVAL ( #342, 'UNSPECIFIED' ) ;
#342 = APPROVAL_STATUS ( 'not_yet_approved' ) ;
#343 = PERSON_AND_ORGANIZATION ( #318, #317 ) ;
#344 = PRODUCT_DEFINITION ( 'UNKNOWN', '', #107, #345 ) ;
#345 = DESIGN_CONTEXT ( 'detailed design', #347, 'design' ) ;
#346 = APPLICATION_PROTOCOL_DEFINITION ( 'international standard', 'config_control_design', 1994, #347 ) ;
#347 = APPLICATION_CONTEXT ( 'configuration controlled 3d designs of mechanical parts and assemblies' ) ;
#348 = CC_DESIGN_PERSON_AND_ORGANIZATION_ASSIGNMENT ( #316, #315, ( #319 ) ) ;
#349 = CARTESIAN_POINT ( 'NONE',  ( -5.009307166892862700E-010, 3.499565220943523500E-009, -15.11721778146267600 ) ) ;
#350 = CC_DESIGN_PERSON_AND_ORGANIZATION_ASSIGNMENT ( #367, #370, ( #368 ) ) ;
#351 = CC_DESIGN_APPROVAL ( #363, ( #368 ) ) ;
#352 = APPROVAL_DATE_TIME ( #353, #363 ) ;
#353 = DATE_AND_TIME ( #354, #355 ) ;
#354 = CALENDAR_DATE ( 2009, 26, 6 ) ;
#355 = LOCAL_TIME ( 16, 15, 50.00000000000000000, #356 ) ;
#356 = COORDINATED_UNIVERSAL_TIME_OFFSET ( 9, 0, .AHEAD. ) ;
#357 = CC_DESIGN_PERSON_AND_ORGANIZATION_ASSIGNMENT ( #371, #372, ( #107 ) ) ;
#358 = SHAPE_DEFINITION_REPRESENTATION ( #359, #225 ) ;
#359 = PRODUCT_DEFINITION_SHAPE ( 'NONE', 'NONE',  #344 ) ;
#360 = PERSON_AND_ORGANIZATION_ROLE ( 'design_supplier' ) ;
#361 = APPROVAL_PERSON_ORGANIZATION ( #381, #363, #362 ) ;
#362 = APPROVAL_ROLE ( '' ) ;
#363 = APPROVAL ( #380, 'UNSPECIFIED' ) ;
#364 = LOCAL_TIME ( 16, 15, 50.00000000000000000, #377 ) ;
#365 = PRODUCT_RELATED_PRODUCT_CATEGORY ( 'detail', '', ( #319 ) ) ;
#366 = CC_DESIGN_SECURITY_CLASSIFICATION ( #368, ( #107 ) ) ;
#367 = PERSON_AND_ORGANIZATION ( #318, #317 ) ;
#368 = SECURITY_CLASSIFICATION ( '', '', #369 ) ;
#369 = SECURITY_CLASSIFICATION_LEVEL ( 'unclassified' ) ;
#370 = PERSON_AND_ORGANIZATION_ROLE ( 'classification_officer' ) ;
#371 = PERSON_AND_ORGANIZATION ( #318, #317 ) ;
#372 = PERSON_AND_ORGANIZATION_ROLE ( 'creator' ) ;
#373 = PERSON_AND_ORGANIZATION ( #318, #317 ) ;
#374 = DATE_AND_TIME ( #375, #364 ) ;
#375 = CALENDAR_DATE ( 2009, 26, 6 ) ;
#376 = CC_DESIGN_PERSON_AND_ORGANIZATION_ASSIGNMENT ( #373, #360, ( #107 ) ) ;
#377 = COORDINATED_UNIVERSAL_TIME_OFFSET ( 9, 0, .AHEAD. ) ;
#378 = CC_DESIGN_DATE_AND_TIME_ASSIGNMENT ( #374, #379, ( #368 ) ) ;
#379 = DATE_TIME_ROLE ( 'classification_date' ) ;
#380 = APPROVAL_STATUS ( 'not_yet_approved' ) ;
#381 = PERSON_AND_ORGANIZATION ( #318, #317 ) ;
ENDSEC;
END-ISO-10303-21;
