ISO-10303-21;
HEADER;
FILE_DESCRIPTION (( 'STEP AP203' ),
    '1' );
FILE_NAME ('C-30-RK-3617.STEP',
    '2009-06-29T05:07:29',
    ( '11sw' ),
    ( '^LQ»¢®ïÐ' ),
    'SwSTEP 2.0',
    'SolidWorks 2007',
    '' );
FILE_SCHEMA (( 'CONFIG_CONTROL_DESIGN' ));
ENDSEC;

DATA;
#1 = ADVANCED_FACE ( 'NONE', ( #117 ), #119, .F. ) ;
#2 = ORIENTED_EDGE ( 'NONE', *, *, #68, .T. ) ;
#3 = EDGE_LOOP ( 'NONE', ( #128, #131, #59, #126 ) ) ;
#4 = ORIENTED_EDGE ( 'NONE', *, *, #120, .F. ) ;
#5 = VERTEX_POINT ( 'NONE', #92 ) ;
#6 = VERTEX_POINT ( 'NONE', #91 ) ;
#7 = EDGE_CURVE ( 'NONE', #6, #5, #63, .T. ) ;
#8 = ORIENTED_EDGE ( 'NONE', *, *, #7, .T. ) ;
#9 = DIRECTION ( 'NONE',  ( 0.0000000000000000000, 0.0000000000000000000, 1.000000000000000000 ) ) ;
#10 = EDGE_CURVE ( 'NONE', #12, #14, #64, .T. ) ;
#11 = ORIENTED_EDGE ( 'NONE', *, *, #16, .T. ) ;
#12 = VERTEX_POINT ( 'NONE', #100 ) ;
#13 = ORIENTED_EDGE ( 'NONE', *, *, #10, .F. ) ;
#14 = VERTEX_POINT ( 'NONE', #99 ) ;
#15 = EDGE_LOOP ( 'NONE', ( #13, #11, #8, #4 ) ) ;
#16 = EDGE_CURVE ( 'NONE', #12, #6, #84, .T. ) ;
#17 = CLOSED_SHELL ( 'NONE', ( #90, #121, #105, #53, #110, #29, #27, #1, #46 ) ) ;
#18 = ORIENTED_EDGE ( 'NONE', *, *, #22, .T. ) ;
#19 = ORIENTED_EDGE ( 'NONE', *, *, #20, .T. ) ;
#20 = EDGE_CURVE ( 'NONE', #50, #127, #137, .T. ) ;
#21 = ORIENTED_EDGE ( 'NONE', *, *, #42, .F. ) ;
#22 = EDGE_CURVE ( 'NONE', #14, #12, #66, .T. ) ;
#23 = ORIENTED_EDGE ( 'NONE', *, *, #10, .T. ) ;
#24 = ORIENTED_EDGE ( 'NONE', *, *, #20, .F. ) ;
#25 = ORIENTED_EDGE ( 'NONE', *, *, #77, .F. ) ;
#26 = EDGE_LOOP ( 'NONE', ( #18, #23 ) ) ;
#27 = ADVANCED_FACE ( 'NONE', ( #74, #76 ), #75, .F. ) ;
#28 = ORIENTED_EDGE ( 'NONE', *, *, #122, .T. ) ;
#29 = ADVANCED_FACE ( 'NONE', ( #49 ), #58, .F. ) ;
#30 = ORIENTED_EDGE ( 'NONE', *, *, #16, .F. ) ;
#31 = ORIENTED_EDGE ( 'NONE', *, *, #22, .F. ) ;
#32 = ORIENTED_EDGE ( 'NONE', *, *, #132, .F. ) ;
#33 = EDGE_LOOP ( 'NONE', ( #30, #31, #40, #37 ) ) ;
#34 = ORIENTED_EDGE ( 'NONE', *, *, #38, .F. ) ;
#35 = ORIENTED_EDGE ( 'NONE', *, *, #80, .T. ) ;
#36 = EDGE_LOOP ( 'NONE', ( #24, #25 ) ) ;
#37 = ORIENTED_EDGE ( 'NONE', *, *, #38, .T. ) ;
#38 = EDGE_CURVE ( 'NONE', #5, #6, #138, .T. ) ;
#39 = EDGE_LOOP ( 'NONE', ( #34, #44 ) ) ;
#40 = ORIENTED_EDGE ( 'NONE', *, *, #120, .T. ) ;
#41 = EDGE_LOOP ( 'NONE', ( #32, #21, #2, #19 ) ) ;
#42 = EDGE_CURVE ( 'NONE', #130, #129, #153, .T. ) ;
#43 = ORIENTED_EDGE ( 'NONE', *, *, #115, .T. ) ;
#44 = ORIENTED_EDGE ( 'NONE', *, *, #7, .F. ) ;
#45 = EDGE_LOOP ( 'NONE', ( #43, #35 ) ) ;
#46 = ADVANCED_FACE ( 'NONE', ( #165, #158 ), #163, .F. ) ;
#47 = CARTESIAN_POINT ( 'NONE',  ( 8.499999999499070900, -8.999999996500433100, 0.0000000000000000000 ) ) ;
#48 = AXIS2_PLACEMENT_3D ( 'NONE', #47, #98, #97 ) ;
#49 = FACE_OUTER_BOUND ( 'NONE', #41, .T. ) ;
#50 = VERTEX_POINT ( 'NONE', #154 ) ;
#51 = ORIENTED_EDGE ( 'NONE', *, *, #52, .F. ) ;
#52 = EDGE_CURVE ( 'NONE', #108, #116, #143, .T. ) ;
#53 = ADVANCED_FACE ( 'NONE', ( #171 ), #170, .T. ) ;
#54 = EDGE_LOOP ( 'NONE', ( #123, #124, #78, #79 ) ) ;
#55 = DIRECTION ( 'NONE',  ( 0.0000000000000000000, 0.0000000000000000000, 1.000000000000000000 ) ) ;
#56 = DIRECTION ( 'NONE',  ( 0.0000000000000000000, 1.000000000000000000, 0.0000000000000000000 ) ) ;
#57 = AXIS2_PLACEMENT_3D ( 'NONE', #96, #56, #55 ) ;
#58 = CYLINDRICAL_SURFACE ( 'NONE', #57, 3.000000000000000000 ) ;
#59 = ORIENTED_EDGE ( 'NONE', *, *, #77, .T. ) ;
#60 = DIRECTION ( 'NONE',  ( 0.0000000000000000000, 1.000000000000000000, 0.0000000000000000000 ) ) ;
#61 = CARTESIAN_POINT ( 'NONE',  ( -5.009326287108706300E-010, 3.499566955666999500E-009, 0.0000000000000000000 ) ) ;
#62 = AXIS2_PLACEMENT_3D ( 'NONE', #61, #60, #65 ) ;
#63 = CIRCLE ( 'NONE', #62, 8.500000000000000000 ) ;
#64 = CIRCLE ( 'NONE', #113, 8.500000000000003600 ) ;
#65 = DIRECTION ( 'NONE',  ( 0.0000000000000000000, 0.0000000000000000000, 1.000000000000000000 ) ) ;
#66 = CIRCLE ( 'NONE', #73, 8.500000000000003600 ) ;
#67 = DIRECTION ( 'NONE',  ( 0.0000000000000000000, 0.0000000000000000000, 1.000000000000000000 ) ) ;
#68 = EDGE_CURVE ( 'NONE', #130, #50, #172, .T. ) ;
#69 = EDGE_LOOP ( 'NONE', ( #106, #93, #114, #51 ) ) ;
#70 = AXIS2_PLACEMENT_3D ( 'NONE', #88, #87, #67 ) ;
#71 = DIRECTION ( 'NONE',  ( 0.0000000000000000000, 0.0000000000000000000, 1.000000000000000000 ) ) ;
#72 = DIRECTION ( 'NONE',  ( 0.0000000000000000000, 1.000000000000000000, 0.0000000000000000000 ) ) ;
#73 = AXIS2_PLACEMENT_3D ( 'NONE', #89, #72, #71 ) ;
#74 = FACE_BOUND ( 'NONE', #36, .T. ) ;
#75 = PLANE ( 'NONE',  #48 ) ;
#76 = FACE_OUTER_BOUND ( 'NONE', #26, .T. ) ;
#77 = EDGE_CURVE ( 'NONE', #127, #50, #179, .T. ) ;
#78 = ORIENTED_EDGE ( 'NONE', *, *, #52, .T. ) ;
#79 = ORIENTED_EDGE ( 'NONE', *, *, #80, .F. ) ;
#80 = EDGE_CURVE ( 'NONE', #95, #116, #195, .T. ) ;
#81 = DIRECTION ( 'NONE',  ( 0.0000000000000000000, 1.000000000000000000, 0.0000000000000000000 ) ) ;
#82 = VECTOR ( 'NONE', #81, 1000.000000000000000 ) ;
#83 = CARTESIAN_POINT ( 'NONE',  ( -5.009315877954698800E-010, 2.412507003500041800, -8.500000000000001800 ) ) ;
#84 = LINE ( 'NONE', #83, #82 ) ;
#85 = EDGE_LOOP ( 'NONE', ( #86, #28 ) ) ;
#86 = ORIENTED_EDGE ( 'NONE', *, *, #42, .T. ) ;
#87 = DIRECTION ( 'NONE',  ( 0.0000000000000000000, 1.000000000000000000, 0.0000000000000000000 ) ) ;
#88 = CARTESIAN_POINT ( 'NONE',  ( -5.009326287108706300E-010, -8.999999996500433100, 0.0000000000000000000 ) ) ;
#89 = CARTESIAN_POINT ( 'NONE',  ( -5.009326287108706300E-010, -8.999999996500433100, 0.0000000000000000000 ) ) ;
#90 = ADVANCED_FACE ( 'NONE', ( #187 ), #185, .F. ) ;
#91 = CARTESIAN_POINT ( 'NONE',  ( -5.009315877954698800E-010, 3.499566955666999500E-009, -8.500000000000000000 ) ) ;
#92 = CARTESIAN_POINT ( 'NONE',  ( -5.009326287108706300E-010, 3.499566955666999500E-009, 8.500000000000000000 ) ) ;
#93 = ORIENTED_EDGE ( 'NONE', *, *, #94, .T. ) ;
#94 = EDGE_CURVE ( 'NONE', #109, #95, #194, .T. ) ;
#95 = VERTEX_POINT ( 'NONE', #189 ) ;
#96 = CARTESIAN_POINT ( 'NONE',  ( -5.009326287108706300E-010, 2.412507003500041800, 0.0000000000000000000 ) ) ;
#97 = DIRECTION ( 'NONE',  ( 0.0000000000000000000, 0.0000000000000000000, -1.000000000000000000 ) ) ;
#98 = DIRECTION ( 'NONE',  ( 0.0000000000000000000, -1.000000000000000000, 0.0000000000000000000 ) ) ;
#99 = CARTESIAN_POINT ( 'NONE',  ( -5.009326287108706300E-010, -8.999999996500433100, 8.500000000000003600 ) ) ;
#100 = CARTESIAN_POINT ( 'NONE',  ( -5.009315877954698800E-010, -8.999999996500433100, -8.500000000000003600 ) ) ;
#101 = DIRECTION ( 'NONE',  ( 0.0000000000000000000, 0.0000000000000000000, 1.000000000000000000 ) ) ;
#102 = EDGE_LOOP ( 'NONE', ( #103, #104 ) ) ;
#103 = ORIENTED_EDGE ( 'NONE', *, *, #107, .F. ) ;
#104 = ORIENTED_EDGE ( 'NONE', *, *, #125, .F. ) ;
#105 = ADVANCED_FACE ( 'NONE', ( #188 ), #147, .T. ) ;
#106 = ORIENTED_EDGE ( 'NONE', *, *, #107, .T. ) ;
#107 = EDGE_CURVE ( 'NONE', #108, #109, #252, .T. ) ;
#108 = VERTEX_POINT ( 'NONE', #247 ) ;
#109 = VERTEX_POINT ( 'NONE', #246 ) ;
#110 = ADVANCED_FACE ( 'NONE', ( #245, #244 ), #243, .F. ) ;
#111 = DIRECTION ( 'NONE',  ( 0.0000000000000000000, 1.000000000000000000, 0.0000000000000000000 ) ) ;
#112 = CARTESIAN_POINT ( 'NONE',  ( -5.009326287108706300E-010, -8.999999996500433100, 0.0000000000000000000 ) ) ;
#113 = AXIS2_PLACEMENT_3D ( 'NONE', #112, #111, #101 ) ;
#114 = ORIENTED_EDGE ( 'NONE', *, *, #115, .F. ) ;
#115 = EDGE_CURVE ( 'NONE', #116, #95, #210, .T. ) ;
#116 = VERTEX_POINT ( 'NONE', #206 ) ;
#117 = FACE_OUTER_BOUND ( 'NONE', #33, .T. ) ;
#118 = MANIFOLD_SOLID_BREP ( 'NONE', #17 ) ;
#119 = CYLINDRICAL_SURFACE ( 'NONE', #136, 8.500000000000001800 ) ;
#120 = EDGE_CURVE ( 'NONE', #14, #5, #205, .T. ) ;
#121 = ADVANCED_FACE ( 'NONE', ( #201 ), #199, .F. ) ;
#122 = EDGE_CURVE ( 'NONE', #129, #130, #200, .T. ) ;
#123 = ORIENTED_EDGE ( 'NONE', *, *, #94, .F. ) ;
#124 = ORIENTED_EDGE ( 'NONE', *, *, #125, .T. ) ;
#125 = EDGE_CURVE ( 'NONE', #109, #108, #235, .T. ) ;
#126 = ORIENTED_EDGE ( 'NONE', *, *, #68, .F. ) ;
#127 = VERTEX_POINT ( 'NONE', #230 ) ;
#128 = ORIENTED_EDGE ( 'NONE', *, *, #122, .F. ) ;
#129 = VERTEX_POINT ( 'NONE', #229 ) ;
#130 = VERTEX_POINT ( 'NONE', #228 ) ;
#131 = ORIENTED_EDGE ( 'NONE', *, *, #132, .T. ) ;
#132 = EDGE_CURVE ( 'NONE', #129, #127, #227, .T. ) ;
#133 = DIRECTION ( 'NONE',  ( 0.0000000000000000000, 0.0000000000000000000, 1.000000000000000000 ) ) ;
#134 = DIRECTION ( 'NONE',  ( 0.0000000000000000000, 1.000000000000000000, 0.0000000000000000000 ) ) ;
#135 = CARTESIAN_POINT ( 'NONE',  ( -5.009326287108706300E-010, 2.412507003500041800, 0.0000000000000000000 ) ) ;
#136 = AXIS2_PLACEMENT_3D ( 'NONE', #135, #134, #133 ) ;
#137 = CIRCLE ( 'NONE', #70, 2.999999999999999100 ) ;
#138 = CIRCLE ( 'NONE', #142, 8.500000000000000000 ) ;
#139 = DIRECTION ( 'NONE',  ( 0.0000000000000000000, 1.000000000000000000, 0.0000000000000000000 ) ) ;
#140 = CARTESIAN_POINT ( 'NONE',  ( -5.009326287108706300E-010, 3.499566955666999500E-009, 0.0000000000000000000 ) ) ;
#141 = DIRECTION ( 'NONE',  ( 0.0000000000000000000, 0.0000000000000000000, 1.000000000000000000 ) ) ;
#142 = AXIS2_PLACEMENT_3D ( 'NONE', #140, #139, #141 ) ;
#143 = CIRCLE ( 'NONE', #149, 18.00000000000000400 ) ;
#144 = DIRECTION ( 'NONE',  ( 0.0000000000000000000, 0.0000000000000000000, 1.000000000000000000 ) ) ;
#145 = AXIS2_PLACEMENT_3D ( 'NONE', #146, #150, #144 ) ;
#146 = CARTESIAN_POINT ( 'NONE',  ( -5.009326287108706300E-010, -15.03775264031680900, 0.0000000000000000000 ) ) ;
#147 = TOROIDAL_SURFACE ( 'NONE', #145, 0.1072756318901933700, 18.00000000000000400 ) ;
#148 = DIRECTION ( 'NONE',  ( 0.0000000000000000000, 0.0000000000000000000, 1.000000000000000000 ) ) ;
#149 = AXIS2_PLACEMENT_3D ( 'NONE', #152, #151, #148 ) ;
#150 = DIRECTION ( 'NONE',  ( 0.0000000000000000000, 1.000000000000000000, 0.0000000000000000000 ) ) ;
#151 = DIRECTION ( 'NONE',  ( -1.000000000000000000, 0.0000000000000000000, 0.0000000000000000000 ) ) ;
#152 = CARTESIAN_POINT ( 'NONE',  ( -5.009326287108706300E-010, -15.03775264031680900, 0.1072756318901933700 ) ) ;
#153 = CIRCLE ( 'NONE', #161, 3.000000000000000900 ) ;
#154 = CARTESIAN_POINT ( 'NONE',  ( -5.009326287108706300E-010, -8.999999996500433100, 2.999999999999999100 ) ) ;
#155 = DIRECTION ( 'NONE',  ( 0.0000000000000000000, 0.0000000000000000000, -1.000000000000000000 ) ) ;
#156 = DIRECTION ( 'NONE',  ( 0.0000000000000000000, -1.000000000000000000, 0.0000000000000000000 ) ) ;
#157 = CARTESIAN_POINT ( 'NONE',  ( 9.999999999499067400, 3.499566955666999500E-009, 0.0000000000000000000 ) ) ;
#158 = FACE_OUTER_BOUND ( 'NONE', #45, .T. ) ;
#159 = DIRECTION ( 'NONE',  ( 0.0000000000000000000, 0.0000000000000000000, 1.000000000000000000 ) ) ;
#160 = DIRECTION ( 'NONE',  ( 0.0000000000000000000, 1.000000000000000000, 0.0000000000000000000 ) ) ;
#161 = AXIS2_PLACEMENT_3D ( 'NONE', #164, #160, #159 ) ;
#162 = AXIS2_PLACEMENT_3D ( 'NONE', #157, #156, #155 ) ;
#163 = PLANE ( 'NONE',  #162 ) ;
#164 = CARTESIAN_POINT ( 'NONE',  ( -5.009326287108706300E-010, -16.99999999650043100, 0.0000000000000000000 ) ) ;
#165 = FACE_BOUND ( 'NONE', #39, .T. ) ;
#166 = DIRECTION ( 'NONE',  ( 0.0000000000000000000, 0.0000000000000000000, 1.000000000000000000 ) ) ;
#167 = DIRECTION ( 'NONE',  ( 0.0000000000000000000, 1.000000000000000000, 0.0000000000000000000 ) ) ;
#168 = CARTESIAN_POINT ( 'NONE',  ( -5.009326287108706300E-010, -15.03775264031680900, 0.0000000000000000000 ) ) ;
#169 = AXIS2_PLACEMENT_3D ( 'NONE', #168, #167, #166 ) ;
#170 = TOROIDAL_SURFACE ( 'NONE', #169, 0.1072756318901933700, 18.00000000000000400 ) ;
#171 = FACE_OUTER_BOUND ( 'NONE', #54, .T. ) ;
#172 = LINE ( 'NONE', #175, #174 ) ;
#173 = DIRECTION ( 'NONE',  ( 0.0000000000000000000, 1.000000000000000000, 0.0000000000000000000 ) ) ;
#174 = VECTOR ( 'NONE', #173, 1000.000000000000000 ) ;
#175 = CARTESIAN_POINT ( 'NONE',  ( -5.009326287108706300E-010, 2.412507003500041800, 3.000000000000000000 ) ) ;
#176 = DIRECTION ( 'NONE',  ( 0.0000000000000000000, 1.000000000000000000, 0.0000000000000000000 ) ) ;
#177 = CARTESIAN_POINT ( 'NONE',  ( -5.009326287108706300E-010, -8.999999996500433100, 0.0000000000000000000 ) ) ;
#178 = AXIS2_PLACEMENT_3D ( 'NONE', #177, #176, #9 ) ;
#179 = CIRCLE ( 'NONE', #178, 2.999999999999999100 ) ;
#180 = AXIS2_PLACEMENT_3D ( 'NONE', #197, #196, #186 ) ;
#181 = DIRECTION ( 'NONE',  ( 0.0000000000000000000, 0.0000000000000000000, 1.000000000000000000 ) ) ;
#182 = DIRECTION ( 'NONE',  ( 0.0000000000000000000, 1.000000000000000000, 0.0000000000000000000 ) ) ;
#183 = CARTESIAN_POINT ( 'NONE',  ( -5.009326287108706300E-010, 2.412507003500041800, 0.0000000000000000000 ) ) ;
#184 = AXIS2_PLACEMENT_3D ( 'NONE', #183, #182, #181 ) ;
#185 = CYLINDRICAL_SURFACE ( 'NONE', #184, 8.500000000000001800 ) ;
#186 = DIRECTION ( 'NONE',  ( 0.0000000000000000000, 0.0000000000000000000, 1.000000000000000000 ) ) ;
#187 = FACE_OUTER_BOUND ( 'NONE', #15, .T. ) ;
#188 = FACE_OUTER_BOUND ( 'NONE', #69, .T. ) ;
#189 = CARTESIAN_POINT ( 'NONE',  ( -5.009309142619752800E-010, 3.499566955666999500E-009, -10.00000000000000000 ) ) ;
#190 = DIRECTION ( 'NONE',  ( 1.224606353836737700E-016, 0.0000000000000000000, -1.000000000000000000 ) ) ;
#191 = DIRECTION ( 'NONE',  ( 1.000000000000000000, 0.0000000000000000000, 1.224606353822377300E-016 ) ) ;
#192 = CARTESIAN_POINT ( 'NONE',  ( -5.009326155738285400E-010, -15.03775264031680900, -0.1072756318901933700 ) ) ;
#193 = AXIS2_PLACEMENT_3D ( 'NONE', #192, #191, #190 ) ;
#194 = CIRCLE ( 'NONE', #193, 18.00000000000000400 ) ;
#195 = CIRCLE ( 'NONE', #180, 10.00000000000000000 ) ;
#196 = DIRECTION ( 'NONE',  ( 0.0000000000000000000, 1.000000000000000000, 0.0000000000000000000 ) ) ;
#197 = CARTESIAN_POINT ( 'NONE',  ( -5.009326287108706300E-010, 3.499566955666999500E-009, 0.0000000000000000000 ) ) ;
#198 = AXIS2_PLACEMENT_3D ( 'NONE', #242, #241, #240 ) ;
#199 = CYLINDRICAL_SURFACE ( 'NONE', #198, 3.000000000000000000 ) ;
#200 = CIRCLE ( 'NONE', #239, 3.000000000000000900 ) ;
#201 = FACE_OUTER_BOUND ( 'NONE', #3, .T. ) ;
#202 = DIRECTION ( 'NONE',  ( 0.0000000000000000000, 1.000000000000000000, 0.0000000000000000000 ) ) ;
#203 = VECTOR ( 'NONE', #202, 1000.000000000000000 ) ;
#204 = CARTESIAN_POINT ( 'NONE',  ( -5.009326287108706300E-010, 2.412507003500041800, 8.500000000000001800 ) ) ;
#205 = LINE ( 'NONE', #204, #203 ) ;
#206 = CARTESIAN_POINT ( 'NONE',  ( -5.009326287108706300E-010, 3.499566955666999500E-009, 10.00000000000000000 ) ) ;
#207 = DIRECTION ( 'NONE',  ( 0.0000000000000000000, 0.0000000000000000000, 1.000000000000000000 ) ) ;
#208 = DIRECTION ( 'NONE',  ( 0.0000000000000000000, 1.000000000000000000, 0.0000000000000000000 ) ) ;
#209 = AXIS2_PLACEMENT_3D ( 'NONE', #215, #208, #207 ) ;
#210 = CIRCLE ( 'NONE', #209, 10.00000000000000000 ) ;
#211 = DIRECTION ( 'NONE',  ( 0.0000000000000000000, 0.0000000000000000000, 1.000000000000000000 ) ) ;
#212 = DIRECTION ( 'NONE',  ( 0.0000000000000000000, 1.000000000000000000, 0.0000000000000000000 ) ) ;
#213 = CARTESIAN_POINT ( 'NONE',  ( 2.999999999499068300, -16.99999999650043100, 0.0000000000000000000 ) ) ;
#214 = AXIS2_PLACEMENT_3D ( 'NONE', #213, #212, #211 ) ;
#215 = CARTESIAN_POINT ( 'NONE',  ( -5.009326287108706300E-010, 3.499566955666999500E-009, 0.0000000000000000000 ) ) ;
#216 = SHAPE_DEFINITION_REPRESENTATION ( #253, #217 ) ;
#217 = ADVANCED_BREP_SHAPE_REPRESENTATION ( 'C-30-RK-3617', ( #118, #331 ), #218 ) ;
#218 =( GEOMETRIC_REPRESENTATION_CONTEXT ( 3 ) GLOBAL_UNCERTAINTY_ASSIGNED_CONTEXT ( ( #219 ) ) GLOBAL_UNIT_ASSIGNED_CONTEXT ( ( #222, #221, #220 ) ) REPRESENTATION_CONTEXT ( 'NONE', 'WORKASPACE' ) );
#219 = UNCERTAINTY_MEASURE_WITH_UNIT (LENGTH_MEASURE( 1.000000000000000100E-005 ), #222, 'distance_accuracy_value', 'NONE');
#220 =( NAMED_UNIT ( * ) SI_UNIT ( $, .STERADIAN. ) SOLID_ANGLE_UNIT ( ) );
#221 =( NAMED_UNIT ( * ) PLANE_ANGLE_UNIT ( ) SI_UNIT ( $, .RADIAN. ) );
#222 =( LENGTH_UNIT ( ) NAMED_UNIT ( * ) SI_UNIT ( .MILLI., .METRE. ) );
#223 = CARTESIAN_POINT ( 'NONE',  ( 0.0000000000000000000, 0.0000000000000000000, 0.0000000000000000000 ) ) ;
#224 = DIRECTION ( 'NONE',  ( 0.0000000000000000000, 1.000000000000000000, 0.0000000000000000000 ) ) ;
#225 = VECTOR ( 'NONE', #224, 1000.000000000000000 ) ;
#226 = CARTESIAN_POINT ( 'NONE',  ( -5.009322613289644800E-010, 2.412507003500041800, -3.000000000000000000 ) ) ;
#227 = LINE ( 'NONE', #226, #225 ) ;
#228 = CARTESIAN_POINT ( 'NONE',  ( -5.009326287108706300E-010, -16.99999999650043100, 3.000000000000000900 ) ) ;
#229 = CARTESIAN_POINT ( 'NONE',  ( -5.009322613289644800E-010, -16.99999999650043100, -3.000000000000000900 ) ) ;
#230 = CARTESIAN_POINT ( 'NONE',  ( -5.009322613289644800E-010, -8.999999996500433100, -2.999999999999999100 ) ) ;
#231 = DIRECTION ( 'NONE',  ( 0.0000000000000000000, 0.0000000000000000000, 1.000000000000000000 ) ) ;
#232 = DIRECTION ( 'NONE',  ( 0.0000000000000000000, 1.000000000000000000, 0.0000000000000000000 ) ) ;
#233 = CARTESIAN_POINT ( 'NONE',  ( -5.009326287108706300E-010, -16.99999999650043100, 0.0000000000000000000 ) ) ;
#234 = AXIS2_PLACEMENT_3D ( 'NONE', #233, #232, #231 ) ;
#235 = CIRCLE ( 'NONE', #234, 18.00000000000000000 ) ;
#236 = DIRECTION ( 'NONE',  ( 0.0000000000000000000, 0.0000000000000000000, 1.000000000000000000 ) ) ;
#237 = DIRECTION ( 'NONE',  ( 0.0000000000000000000, 1.000000000000000000, 0.0000000000000000000 ) ) ;
#238 = CARTESIAN_POINT ( 'NONE',  ( -5.009326287108706300E-010, -16.99999999650043100, 0.0000000000000000000 ) ) ;
#239 = AXIS2_PLACEMENT_3D ( 'NONE', #238, #237, #236 ) ;
#240 = DIRECTION ( 'NONE',  ( 0.0000000000000000000, 0.0000000000000000000, 1.000000000000000000 ) ) ;
#241 = DIRECTION ( 'NONE',  ( 0.0000000000000000000, 1.000000000000000000, 0.0000000000000000000 ) ) ;
#242 = CARTESIAN_POINT ( 'NONE',  ( -5.009326287108706300E-010, 2.412507003500041800, 0.0000000000000000000 ) ) ;
#243 = PLANE ( 'NONE',  #214 ) ;
#244 = FACE_BOUND ( 'NONE', #85, .T. ) ;
#245 = FACE_OUTER_BOUND ( 'NONE', #102, .T. ) ;
#246 = CARTESIAN_POINT ( 'NONE',  ( -5.009304244194337500E-010, -16.99999999650043100, -18.00000000000000000 ) ) ;
#247 = CARTESIAN_POINT ( 'NONE',  ( -5.009326287108706300E-010, -16.99999999650043100, 18.00000000000000000 ) ) ;
#248 = DIRECTION ( 'NONE',  ( 0.0000000000000000000, 0.0000000000000000000, 1.000000000000000000 ) ) ;
#249 = DIRECTION ( 'NONE',  ( 0.0000000000000000000, 1.000000000000000000, 0.0000000000000000000 ) ) ;
#250 = CARTESIAN_POINT ( 'NONE',  ( -5.009326287108706300E-010, -16.99999999650043100, 0.0000000000000000000 ) ) ;
#251 = AXIS2_PLACEMENT_3D ( 'NONE', #250, #249, #248 ) ;
#252 = CIRCLE ( 'NONE', #251, 18.00000000000000000 ) ;
#253 = PRODUCT_DEFINITION_SHAPE ( 'NONE', 'NONE',  #316 ) ;
#254 = PRODUCT_RELATED_PRODUCT_CATEGORY ( 'detail', '', ( #325 ) ) ;
#255 = CC_DESIGN_SECURITY_CLASSIFICATION ( #276, ( #295 ) ) ;
#256 = CC_DESIGN_APPROVAL ( #264, ( #276 ) ) ;
#257 = APPROVAL_DATE_TIME ( #258, #264 ) ;
#258 = DATE_AND_TIME ( #259, #260 ) ;
#259 = CALENDAR_DATE ( 2009, 29, 6 ) ;
#260 = LOCAL_TIME ( 14, 7, 29.00000000000000000, #261 ) ;
#261 = COORDINATED_UNIVERSAL_TIME_OFFSET ( 9, 0, .AHEAD. ) ;
#262 = APPROVAL_PERSON_ORGANIZATION ( #266, #264, #263 ) ;
#263 = APPROVAL_ROLE ( '' ) ;
#264 = APPROVAL ( #265, 'UNSPECIFIED' ) ;
#265 = APPROVAL_STATUS ( 'not_yet_approved' ) ;
#266 = PERSON_AND_ORGANIZATION ( #324, #323 ) ;
#267 = CC_DESIGN_DATE_AND_TIME_ASSIGNMENT ( #269, #268, ( #276 ) ) ;
#268 = DATE_TIME_ROLE ( 'classification_date' ) ;
#269 = DATE_AND_TIME ( #270, #271 ) ;
#270 = CALENDAR_DATE ( 2009, 29, 6 ) ;
#271 = LOCAL_TIME ( 14, 7, 29.00000000000000000, #272 ) ;
#272 = COORDINATED_UNIVERSAL_TIME_OFFSET ( 9, 0, .AHEAD. ) ;
#273 = CC_DESIGN_PERSON_AND_ORGANIZATION_ASSIGNMENT ( #275, #274, ( #276 ) ) ;
#274 = PERSON_AND_ORGANIZATION_ROLE ( 'classification_officer' ) ;
#275 = PERSON_AND_ORGANIZATION ( #324, #323 ) ;
#276 = SECURITY_CLASSIFICATION ( '', '', #277 ) ;
#277 = SECURITY_CLASSIFICATION_LEVEL ( 'unclassified' ) ;
#278 = CC_DESIGN_PERSON_AND_ORGANIZATION_ASSIGNMENT ( #280, #279, ( #295 ) ) ;
#279 = PERSON_AND_ORGANIZATION_ROLE ( 'design_supplier' ) ;
#280 = PERSON_AND_ORGANIZATION ( #324, #323 ) ;
#281 = CC_DESIGN_PERSON_AND_ORGANIZATION_ASSIGNMENT ( #283, #282, ( #295 ) ) ;
#282 = PERSON_AND_ORGANIZATION_ROLE ( 'creator' ) ;
#283 = PERSON_AND_ORGANIZATION ( #324, #323 ) ;
#284 = CC_DESIGN_APPROVAL ( #292, ( #295 ) ) ;
#285 = APPROVAL_DATE_TIME ( #286, #292 ) ;
#286 = DATE_AND_TIME ( #287, #288 ) ;
#287 = CALENDAR_DATE ( 2009, 29, 6 ) ;
#288 = LOCAL_TIME ( 14, 7, 29.00000000000000000, #289 ) ;
#289 = COORDINATED_UNIVERSAL_TIME_OFFSET ( 9, 0, .AHEAD. ) ;
#290 = APPROVAL_PERSON_ORGANIZATION ( #294, #292, #291 ) ;
#291 = APPROVAL_ROLE ( '' ) ;
#292 = APPROVAL ( #293, 'UNSPECIFIED' ) ;
#293 = APPROVAL_STATUS ( 'not_yet_approved' ) ;
#294 = PERSON_AND_ORGANIZATION ( #324, #323 ) ;
#295 = PRODUCT_DEFINITION_FORMATION_WITH_SPECIFIED_SOURCE ( 'ANY', '', #325, .NOT_KNOWN. ) ;
#296 = CC_DESIGN_DATE_AND_TIME_ASSIGNMENT ( #298, #297, ( #316 ) ) ;
#297 = DATE_TIME_ROLE ( 'creation_date' ) ;
#298 = DATE_AND_TIME ( #299, #300 ) ;
#299 = CALENDAR_DATE ( 2009, 29, 6 ) ;
#300 = LOCAL_TIME ( 14, 7, 29.00000000000000000, #301 ) ;
#301 = COORDINATED_UNIVERSAL_TIME_OFFSET ( 9, 0, .AHEAD. ) ;
#302 = CC_DESIGN_PERSON_AND_ORGANIZATION_ASSIGNMENT ( #304, #303, ( #316 ) ) ;
#303 = PERSON_AND_ORGANIZATION_ROLE ( 'creator' ) ;
#304 = PERSON_AND_ORGANIZATION ( #324, #323 ) ;
#305 = CC_DESIGN_APPROVAL ( #313, ( #316 ) ) ;
#306 = APPROVAL_DATE_TIME ( #307, #313 ) ;
#307 = DATE_AND_TIME ( #308, #309 ) ;
#308 = CALENDAR_DATE ( 2009, 29, 6 ) ;
#309 = LOCAL_TIME ( 14, 7, 29.00000000000000000, #310 ) ;
#310 = COORDINATED_UNIVERSAL_TIME_OFFSET ( 9, 0, .AHEAD. ) ;
#311 = APPROVAL_PERSON_ORGANIZATION ( #315, #313, #312 ) ;
#312 = APPROVAL_ROLE ( '' ) ;
#313 = APPROVAL ( #314, 'UNSPECIFIED' ) ;
#314 = APPROVAL_STATUS ( 'not_yet_approved' ) ;
#315 = PERSON_AND_ORGANIZATION ( #324, #323 ) ;
#316 = PRODUCT_DEFINITION ( 'UNKNOWN', '', #295, #317 ) ;
#317 = DESIGN_CONTEXT ( 'detailed design', #319, 'design' ) ;
#318 = APPLICATION_PROTOCOL_DEFINITION ( 'international standard', 'config_control_design', 1994, #319 ) ;
#319 = APPLICATION_CONTEXT ( 'configuration controlled 3d designs of mechanical parts and assemblies' ) ;
#320 = CC_DESIGN_PERSON_AND_ORGANIZATION_ASSIGNMENT ( #322, #321, ( #325 ) ) ;
#321 = PERSON_AND_ORGANIZATION_ROLE ( 'design_owner' ) ;
#322 = PERSON_AND_ORGANIZATION ( #324, #323 ) ;
#323 = ORGANIZATION ( 'UNSPECIFIED', 'UNSPECIFIED', '' ) ;
#324 = PERSON ( 'UNSPECIFIED', 'UNSPECIFIED', 'UNSPECIFIED', ('UNSPECIFIED'), ('UNSPECIFIED'), ('UNSPECIFIED') ) ;
#325 = PRODUCT ( 'C-30-RK-3617', 'C-30-RK-3617', '', ( #326 ) ) ;
#326 = MECHANICAL_CONTEXT ( 'NONE', #328, 'mechanical' ) ;
#327 = APPLICATION_PROTOCOL_DEFINITION ( 'international standard', 'config_control_design', 1994, #328 ) ;
#328 = APPLICATION_CONTEXT ( 'configuration controlled 3d designs of mechanical parts and assemblies' ) ;
#329 = DIRECTION ( 'NONE',  ( 1.000000000000000000, 0.0000000000000000000, 0.0000000000000000000 ) ) ;
#330 = DIRECTION ( 'NONE',  ( 0.0000000000000000000, 0.0000000000000000000, 1.000000000000000000 ) ) ;
#331 = AXIS2_PLACEMENT_3D ( 'NONE', #223, #330, #329 ) ;
ENDSEC;
END-ISO-10303-21;
