ISO-10303-21;
HEADER;
FILE_DESCRIPTION (( 'STEP AP203' ),
    '1' );
FILE_NAME ('C-30-RK-3617.STEP',
    '2009-06-26T07:59:07',
    ( '11sw' ),
    ( '^LQ»¢®ïÐ' ),
    'SwSTEP 2.0',
    'SolidWorks 2007',
    '' );
FILE_SCHEMA (( 'CONFIG_CONTROL_DESIGN' ));
ENDSEC;

DATA;
#1 = DIRECTION ( 'NONE',  ( 0.0000000000000000000, 0.0000000000000000000, 1.000000000000000000 ) ) ;
#2 = DIRECTION ( 'NONE',  ( 0.0000000000000000000, 1.000000000000000000, 0.0000000000000000000 ) ) ;
#3 = CARTESIAN_POINT ( 'NONE',  ( 2.999999999499068300, -16.99999999650043100, 0.0000000000000000000 ) ) ;
#4 = AXIS2_PLACEMENT_3D ( 'NONE', #3, #2, #1 ) ;
#5 = PLANE ( 'NONE',  #4 ) ;
#6 = FACE_BOUND ( 'NONE', #171, .T. ) ;
#7 = FACE_OUTER_BOUND ( 'NONE', #176, .T. ) ;
#8 = DIRECTION ( 'NONE',  ( 0.0000000000000000000, 0.0000000000000000000, 1.000000000000000000 ) ) ;
#9 = DIRECTION ( 'NONE',  ( 0.0000000000000000000, 1.000000000000000000, 0.0000000000000000000 ) ) ;
#10 = CARTESIAN_POINT ( 'NONE',  ( -5.009326287108706300E-010, 3.499566955666999500E-009, 0.0000000000000000000 ) ) ;
#11 = AXIS2_PLACEMENT_3D ( 'NONE', #10, #9, #8 ) ;
#12 = DIRECTION ( 'NONE',  ( 0.0000000000000000000, 0.0000000000000000000, 1.000000000000000000 ) ) ;
#13 = DIRECTION ( 'NONE',  ( 0.0000000000000000000, 1.000000000000000000, 0.0000000000000000000 ) ) ;
#14 = CARTESIAN_POINT ( 'NONE',  ( -5.009326287108706300E-010, 2.412507003500041800, 0.0000000000000000000 ) ) ;
#15 = AXIS2_PLACEMENT_3D ( 'NONE', #14, #13, #12 ) ;
#16 = CIRCLE ( 'NONE', #11, 10.00000000000000000 ) ;
#17 = CYLINDRICAL_SURFACE ( 'NONE', #15, 3.000000000000000000 ) ;
#18 = FACE_OUTER_BOUND ( 'NONE', #166, .T. ) ;
#19 = DIRECTION ( 'NONE',  ( 0.0000000000000000000, 0.0000000000000000000, 1.000000000000000000 ) ) ;
#20 = DIRECTION ( 'NONE',  ( 0.0000000000000000000, 1.000000000000000000, 0.0000000000000000000 ) ) ;
#21 = AXIS2_PLACEMENT_3D ( 'NONE', #27, #20, #19 ) ;
#22 = CIRCLE ( 'NONE', #21, 3.000000000000000900 ) ;
#23 = DIRECTION ( 'NONE',  ( 0.0000000000000000000, 0.0000000000000000000, 1.000000000000000000 ) ) ;
#24 = DIRECTION ( 'NONE',  ( 0.0000000000000000000, 1.000000000000000000, 0.0000000000000000000 ) ) ;
#25 = CARTESIAN_POINT ( 'NONE',  ( -5.009326287108706300E-010, 2.412507003500041800, 0.0000000000000000000 ) ) ;
#26 = AXIS2_PLACEMENT_3D ( 'NONE', #25, #24, #23 ) ;
#27 = CARTESIAN_POINT ( 'NONE',  ( -5.009326287108706300E-010, -16.99999999650043100, 0.0000000000000000000 ) ) ;
#28 = CYLINDRICAL_SURFACE ( 'NONE', #26, 8.500000000000001800 ) ;
#29 = FACE_OUTER_BOUND ( 'NONE', #156, .T. ) ;
#30 = DIRECTION ( 'NONE',  ( 0.0000000000000000000, 0.0000000000000000000, 1.000000000000000000 ) ) ;
#31 = DIRECTION ( 'NONE',  ( 0.0000000000000000000, 1.000000000000000000, 0.0000000000000000000 ) ) ;
#32 = CARTESIAN_POINT ( 'NONE',  ( -5.009326287108706300E-010, -8.999999996500433100, 0.0000000000000000000 ) ) ;
#33 = AXIS2_PLACEMENT_3D ( 'NONE', #32, #31, #30 ) ;
#34 = CIRCLE ( 'NONE', #33, 8.500000000000003600 ) ;
#35 = DIRECTION ( 'NONE',  ( 0.0000000000000000000, 0.0000000000000000000, -1.000000000000000000 ) ) ;
#36 = DIRECTION ( 'NONE',  ( 0.0000000000000000000, -1.000000000000000000, 0.0000000000000000000 ) ) ;
#37 = CARTESIAN_POINT ( 'NONE',  ( 9.999999999499067400, 3.499566955666999500E-009, 0.0000000000000000000 ) ) ;
#38 = AXIS2_PLACEMENT_3D ( 'NONE', #37, #36, #35 ) ;
#39 = PLANE ( 'NONE',  #38 ) ;
#40 = FACE_OUTER_BOUND ( 'NONE', #144, .T. ) ;
#41 = FACE_BOUND ( 'NONE', #150, .T. ) ;
#42 = DIRECTION ( 'NONE',  ( 0.0000000000000000000, 0.0000000000000000000, 1.000000000000000000 ) ) ;
#43 = DIRECTION ( 'NONE',  ( 0.0000000000000000000, 1.000000000000000000, 0.0000000000000000000 ) ) ;
#44 = CARTESIAN_POINT ( 'NONE',  ( -5.009326287108706300E-010, 3.499566955666999500E-009, 0.0000000000000000000 ) ) ;
#45 = AXIS2_PLACEMENT_3D ( 'NONE', #44, #43, #42 ) ;
#46 = CIRCLE ( 'NONE', #45, 8.500000000000000000 ) ;
#47 = DIRECTION ( 'NONE',  ( 0.0000000000000000000, 0.0000000000000000000, -1.000000000000000000 ) ) ;
#48 = DIRECTION ( 'NONE',  ( 0.0000000000000000000, -1.000000000000000000, 0.0000000000000000000 ) ) ;
#49 = CARTESIAN_POINT ( 'NONE',  ( 8.499999999499070900, -8.999999996500433100, 0.0000000000000000000 ) ) ;
#50 = AXIS2_PLACEMENT_3D ( 'NONE', #49, #48, #47 ) ;
#51 = PLANE ( 'NONE',  #50 ) ;
#52 = FACE_OUTER_BOUND ( 'NONE', #140, .T. ) ;
#53 = DIRECTION ( 'NONE',  ( 0.0000000000000000000, 0.0000000000000000000, 1.000000000000000000 ) ) ;
#54 = DIRECTION ( 'NONE',  ( 0.0000000000000000000, 1.000000000000000000, 0.0000000000000000000 ) ) ;
#55 = CARTESIAN_POINT ( 'NONE',  ( -5.009326287108706300E-010, -8.999999996500433100, 0.0000000000000000000 ) ) ;
#56 = AXIS2_PLACEMENT_3D ( 'NONE', #55, #54, #53 ) ;
#57 = CIRCLE ( 'NONE', #56, 2.999999999999999100 ) ;
#58 = FACE_BOUND ( 'NONE', #142, .T. ) ;
#59 = CARTESIAN_POINT ( 'NONE',  ( -5.009315877954698800E-010, 3.499566955666999500E-009, -8.500000000000000000 ) ) ;
#60 = DIRECTION ( 'NONE',  ( 0.0000000000000000000, 1.000000000000000000, 0.0000000000000000000 ) ) ;
#61 = VECTOR ( 'NONE', #60, 1000.000000000000000 ) ;
#62 = CARTESIAN_POINT ( 'NONE',  ( -5.009315877954698800E-010, 2.412507003500041800, -8.500000000000001800 ) ) ;
#63 = LINE ( 'NONE', #62, #61 ) ;
#64 = CARTESIAN_POINT ( 'NONE',  ( -5.009326287108706300E-010, -8.999999996500433100, 8.500000000000003600 ) ) ;
#65 = DIRECTION ( 'NONE',  ( 0.0000000000000000000, 0.0000000000000000000, 1.000000000000000000 ) ) ;
#66 = DIRECTION ( 'NONE',  ( 0.0000000000000000000, 1.000000000000000000, 0.0000000000000000000 ) ) ;
#67 = AXIS2_PLACEMENT_3D ( 'NONE', #74, #66, #65 ) ;
#68 = CIRCLE ( 'NONE', #67, 8.500000000000003600 ) ;
#69 = CARTESIAN_POINT ( 'NONE',  ( -5.009315877954698800E-010, -8.999999996500433100, -8.500000000000003600 ) ) ;
#70 = DIRECTION ( 'NONE',  ( 0.0000000000000000000, 0.0000000000000000000, 1.000000000000000000 ) ) ;
#71 = DIRECTION ( 'NONE',  ( 0.0000000000000000000, 1.000000000000000000, 0.0000000000000000000 ) ) ;
#72 = AXIS2_PLACEMENT_3D ( 'NONE', #75, #71, #70 ) ;
#73 = CYLINDRICAL_SURFACE ( 'NONE', #72, 8.500000000000001800 ) ;
#74 = CARTESIAN_POINT ( 'NONE',  ( -5.009326287108706300E-010, -8.999999996500433100, 0.0000000000000000000 ) ) ;
#75 = CARTESIAN_POINT ( 'NONE',  ( -5.009326287108706300E-010, 2.412507003500041800, 0.0000000000000000000 ) ) ;
#76 = DIRECTION ( 'NONE',  ( 0.0000000000000000000, 0.0000000000000000000, 1.000000000000000000 ) ) ;
#77 = DIRECTION ( 'NONE',  ( 0.0000000000000000000, 1.000000000000000000, 0.0000000000000000000 ) ) ;
#78 = CARTESIAN_POINT ( 'NONE',  ( -5.009326287108706300E-010, -8.999999996500433100, 0.0000000000000000000 ) ) ;
#79 = AXIS2_PLACEMENT_3D ( 'NONE', #78, #77, #76 ) ;
#80 = CIRCLE ( 'NONE', #79, 2.999999999999999100 ) ;
#81 = FACE_OUTER_BOUND ( 'NONE', #128, .T. ) ;
#82 = CARTESIAN_POINT ( 'NONE',  ( -5.009322613289644800E-010, -8.999999996500433100, -2.999999999999999100 ) ) ;
#83 = DIRECTION ( 'NONE',  ( 0.0000000000000000000, 1.000000000000000000, 0.0000000000000000000 ) ) ;
#84 = VECTOR ( 'NONE', #83, 1000.000000000000000 ) ;
#85 = CARTESIAN_POINT ( 'NONE',  ( -5.009322613289644800E-010, 2.412507003500041800, -3.000000000000000000 ) ) ;
#86 = LINE ( 'NONE', #85, #84 ) ;
#87 = CARTESIAN_POINT ( 'NONE',  ( -5.009326287108706300E-010, -16.99999999650043100, 3.000000000000000900 ) ) ;
#88 = CARTESIAN_POINT ( 'NONE',  ( -5.009322613289644800E-010, -16.99999999650043100, -3.000000000000000900 ) ) ;
#89 = DIRECTION ( 'NONE',  ( 0.0000000000000000000, 0.0000000000000000000, 1.000000000000000000 ) ) ;
#90 = DIRECTION ( 'NONE',  ( 0.0000000000000000000, 1.000000000000000000, 0.0000000000000000000 ) ) ;
#91 = CARTESIAN_POINT ( 'NONE',  ( -5.009326287108706300E-010, -16.99999999650043100, 0.0000000000000000000 ) ) ;
#92 = AXIS2_PLACEMENT_3D ( 'NONE', #91, #90, #89 ) ;
#93 = DIRECTION ( 'NONE',  ( 0.0000000000000000000, 0.0000000000000000000, 1.000000000000000000 ) ) ;
#94 = DIRECTION ( 'NONE',  ( 0.0000000000000000000, 1.000000000000000000, 0.0000000000000000000 ) ) ;
#95 = AXIS2_PLACEMENT_3D ( 'NONE', #103, #94, #93 ) ;
#96 = CIRCLE ( 'NONE', #92, 3.000000000000000900 ) ;
#97 = CYLINDRICAL_SURFACE ( 'NONE', #95, 3.000000000000000000 ) ;
#98 = FACE_OUTER_BOUND ( 'NONE', #116, .T. ) ;
#99 = DIRECTION ( 'NONE',  ( 0.0000000000000000000, 1.000000000000000000, 0.0000000000000000000 ) ) ;
#100 = VECTOR ( 'NONE', #99, 1000.000000000000000 ) ;
#101 = CARTESIAN_POINT ( 'NONE',  ( -5.009326287108706300E-010, 2.412507003500041800, 8.500000000000001800 ) ) ;
#102 = LINE ( 'NONE', #101, #100 ) ;
#103 = CARTESIAN_POINT ( 'NONE',  ( -5.009326287108706300E-010, 2.412507003500041800, 0.0000000000000000000 ) ) ;
#104 = CARTESIAN_POINT ( 'NONE',  ( -5.009326287108706300E-010, 3.499566955666999500E-009, 8.500000000000000000 ) ) ;
#105 = DIRECTION ( 'NONE',  ( 0.0000000000000000000, 0.0000000000000000000, 1.000000000000000000 ) ) ;
#106 = DIRECTION ( 'NONE',  ( 0.0000000000000000000, 1.000000000000000000, 0.0000000000000000000 ) ) ;
#107 = CARTESIAN_POINT ( 'NONE',  ( -5.009326287108706300E-010, 3.499566955666999500E-009, 0.0000000000000000000 ) ) ;
#108 = AXIS2_PLACEMENT_3D ( 'NONE', #107, #106, #105 ) ;
#109 = CIRCLE ( 'NONE', #108, 8.500000000000000000 ) ;
#110 = ORIENTED_EDGE ( 'NONE', *, *, #111, .T. ) ;
#111 = EDGE_CURVE ( 'NONE', #135, #112, #109, .T. ) ;
#112 = VERTEX_POINT ( 'NONE', #104 ) ;
#113 = ORIENTED_EDGE ( 'NONE', *, *, #114, .F. ) ;
#114 = EDGE_CURVE ( 'NONE', #132, #112, #102, .T. ) ;
#115 = ADVANCED_FACE ( 'NONE', ( #98 ), #97, .F. ) ;
#116 = EDGE_LOOP ( 'NONE', ( #117, #121, #124, #187 ) ) ;
#117 = ORIENTED_EDGE ( 'NONE', *, *, #118, .F. ) ;
#118 = EDGE_CURVE ( 'NONE', #119, #120, #96, .T. ) ;
#119 = VERTEX_POINT ( 'NONE', #88 ) ;
#120 = VERTEX_POINT ( 'NONE', #87 ) ;
#121 = ORIENTED_EDGE ( 'NONE', *, *, #122, .T. ) ;
#122 = EDGE_CURVE ( 'NONE', #119, #123, #86, .T. ) ;
#123 = VERTEX_POINT ( 'NONE', #82 ) ;
#124 = ORIENTED_EDGE ( 'NONE', *, *, #125, .T. ) ;
#125 = EDGE_CURVE ( 'NONE', #123, #198, #80, .T. ) ;
#126 = MANIFOLD_SOLID_BREP ( 'NONE', #137 ) ;
#127 = ADVANCED_FACE ( 'NONE', ( #81 ), #73, .F. ) ;
#128 = EDGE_LOOP ( 'NONE', ( #129, #133, #110, #113 ) ) ;
#129 = ORIENTED_EDGE ( 'NONE', *, *, #130, .F. ) ;
#130 = EDGE_CURVE ( 'NONE', #131, #132, #68, .T. ) ;
#131 = VERTEX_POINT ( 'NONE', #69 ) ;
#132 = VERTEX_POINT ( 'NONE', #64 ) ;
#133 = ORIENTED_EDGE ( 'NONE', *, *, #134, .T. ) ;
#134 = EDGE_CURVE ( 'NONE', #131, #135, #63, .T. ) ;
#135 = VERTEX_POINT ( 'NONE', #59 ) ;
#136 = ORIENTED_EDGE ( 'NONE', *, *, #172, .T. ) ;
#137 = CLOSED_SHELL ( 'NONE', ( #127, #115, #191, #177, #173, #165, #146, #155, #149 ) ) ;
#138 = ORIENTED_EDGE ( 'NONE', *, *, #141, .F. ) ;
#139 = ORIENTED_EDGE ( 'NONE', *, *, #125, .F. ) ;
#140 = EDGE_LOOP ( 'NONE', ( #152, #154 ) ) ;
#141 = EDGE_CURVE ( 'NONE', #198, #123, #57, .T. ) ;
#142 = EDGE_LOOP ( 'NONE', ( #138, #139 ) ) ;
#143 = ORIENTED_EDGE ( 'NONE', *, *, #111, .F. ) ;
#144 = EDGE_LOOP ( 'NONE', ( #145, #136 ) ) ;
#145 = ORIENTED_EDGE ( 'NONE', *, *, #184, .T. ) ;
#146 = ADVANCED_FACE ( 'NONE', ( #58, #52 ), #51, .F. ) ;
#147 = ORIENTED_EDGE ( 'NONE', *, *, #148, .T. ) ;
#148 = EDGE_CURVE ( 'NONE', #112, #135, #46, .T. ) ;
#149 = ADVANCED_FACE ( 'NONE', ( #41, #40 ), #39, .F. ) ;
#150 = EDGE_LOOP ( 'NONE', ( #151, #143 ) ) ;
#151 = ORIENTED_EDGE ( 'NONE', *, *, #148, .F. ) ;
#152 = ORIENTED_EDGE ( 'NONE', *, *, #153, .T. ) ;
#153 = EDGE_CURVE ( 'NONE', #132, #131, #34, .T. ) ;
#154 = ORIENTED_EDGE ( 'NONE', *, *, #130, .T. ) ;
#155 = ADVANCED_FACE ( 'NONE', ( #29 ), #28, .F. ) ;
#156 = EDGE_LOOP ( 'NONE', ( #157, #158, #159, #147 ) ) ;
#157 = ORIENTED_EDGE ( 'NONE', *, *, #134, .F. ) ;
#158 = ORIENTED_EDGE ( 'NONE', *, *, #153, .F. ) ;
#159 = ORIENTED_EDGE ( 'NONE', *, *, #114, .T. ) ;
#160 = ORIENTED_EDGE ( 'NONE', *, *, #188, .F. ) ;
#161 = ORIENTED_EDGE ( 'NONE', *, *, #180, .F. ) ;
#162 = ORIENTED_EDGE ( 'NONE', *, *, #163, .T. ) ;
#163 = EDGE_CURVE ( 'NONE', #120, #119, #22, .T. ) ;
#164 = ORIENTED_EDGE ( 'NONE', *, *, #118, .T. ) ;
#165 = ADVANCED_FACE ( 'NONE', ( #18 ), #17, .F. ) ;
#166 = EDGE_LOOP ( 'NONE', ( #167, #168, #169, #170 ) ) ;
#167 = ORIENTED_EDGE ( 'NONE', *, *, #122, .F. ) ;
#168 = ORIENTED_EDGE ( 'NONE', *, *, #163, .F. ) ;
#169 = ORIENTED_EDGE ( 'NONE', *, *, #192, .T. ) ;
#170 = ORIENTED_EDGE ( 'NONE', *, *, #141, .T. ) ;
#171 = EDGE_LOOP ( 'NONE', ( #162, #164 ) ) ;
#172 = EDGE_CURVE ( 'NONE', #194, #183, #16, .T. ) ;
#173 = ADVANCED_FACE ( 'NONE', ( #7, #6 ), #5, .F. ) ;
#174 = ORIENTED_EDGE ( 'NONE', *, *, #172, .F. ) ;
#175 = ORIENTED_EDGE ( 'NONE', *, *, #179, .T. ) ;
#176 = EDGE_LOOP ( 'NONE', ( #160, #161 ) ) ;
#177 = ADVANCED_FACE ( 'NONE', ( #319 ), #327, .T. ) ;
#178 = ORIENTED_EDGE ( 'NONE', *, *, #190, .F. ) ;
#179 = EDGE_CURVE ( 'NONE', #196, #183, #331, .T. ) ;
#180 = EDGE_CURVE ( 'NONE', #197, #196, #326, .T. ) ;
#181 = ORIENTED_EDGE ( 'NONE', *, *, #179, .F. ) ;
#182 = EDGE_LOOP ( 'NONE', ( #178, #185, #175, #174 ) ) ;
#183 = VERTEX_POINT ( 'NONE', #321 ) ;
#184 = EDGE_CURVE ( 'NONE', #183, #194, #314, .T. ) ;
#185 = ORIENTED_EDGE ( 'NONE', *, *, #180, .T. ) ;
#186 = ORIENTED_EDGE ( 'NONE', *, *, #184, .F. ) ;
#187 = ORIENTED_EDGE ( 'NONE', *, *, #192, .F. ) ;
#188 = EDGE_CURVE ( 'NONE', #196, #197, #309, .T. ) ;
#189 = ORIENTED_EDGE ( 'NONE', *, *, #190, .T. ) ;
#190 = EDGE_CURVE ( 'NONE', #197, #194, #304, .T. ) ;
#191 = ADVANCED_FACE ( 'NONE', ( #299 ), #298, .T. ) ;
#192 = EDGE_CURVE ( 'NONE', #120, #198, #297, .T. ) ;
#193 = EDGE_LOOP ( 'NONE', ( #195, #189, #186, #181 ) ) ;
#194 = VERTEX_POINT ( 'NONE', #289 ) ;
#195 = ORIENTED_EDGE ( 'NONE', *, *, #188, .T. ) ;
#196 = VERTEX_POINT ( 'NONE', #288 ) ;
#197 = VERTEX_POINT ( 'NONE', #287 ) ;
#198 = VERTEX_POINT ( 'NONE', #286 ) ;
#199 = PRODUCT_DEFINITION_SHAPE ( 'NONE', 'NONE',  #262 ) ;
#200 = PRODUCT_RELATED_PRODUCT_CATEGORY ( 'detail', '', ( #271 ) ) ;
#201 = CC_DESIGN_SECURITY_CLASSIFICATION ( #222, ( #241 ) ) ;
#202 = CC_DESIGN_APPROVAL ( #210, ( #222 ) ) ;
#203 = APPROVAL_DATE_TIME ( #204, #210 ) ;
#204 = DATE_AND_TIME ( #205, #206 ) ;
#205 = CALENDAR_DATE ( 2009, 26, 6 ) ;
#206 = LOCAL_TIME ( 16, 59, 7.000000000000000000, #207 ) ;
#207 = COORDINATED_UNIVERSAL_TIME_OFFSET ( 9, 0, .AHEAD. ) ;
#208 = APPROVAL_PERSON_ORGANIZATION ( #212, #210, #209 ) ;
#209 = APPROVAL_ROLE ( '' ) ;
#210 = APPROVAL ( #211, 'UNSPECIFIED' ) ;
#211 = APPROVAL_STATUS ( 'not_yet_approved' ) ;
#212 = PERSON_AND_ORGANIZATION ( #270, #269 ) ;
#213 = CC_DESIGN_DATE_AND_TIME_ASSIGNMENT ( #215, #214, ( #222 ) ) ;
#214 = DATE_TIME_ROLE ( 'classification_date' ) ;
#215 = DATE_AND_TIME ( #216, #217 ) ;
#216 = CALENDAR_DATE ( 2009, 26, 6 ) ;
#217 = LOCAL_TIME ( 16, 59, 7.000000000000000000, #218 ) ;
#218 = COORDINATED_UNIVERSAL_TIME_OFFSET ( 9, 0, .AHEAD. ) ;
#219 = CC_DESIGN_PERSON_AND_ORGANIZATION_ASSIGNMENT ( #221, #220, ( #222 ) ) ;
#220 = PERSON_AND_ORGANIZATION_ROLE ( 'classification_officer' ) ;
#221 = PERSON_AND_ORGANIZATION ( #270, #269 ) ;
#222 = SECURITY_CLASSIFICATION ( '', '', #223 ) ;
#223 = SECURITY_CLASSIFICATION_LEVEL ( 'unclassified' ) ;
#224 = CC_DESIGN_PERSON_AND_ORGANIZATION_ASSIGNMENT ( #226, #225, ( #241 ) ) ;
#225 = PERSON_AND_ORGANIZATION_ROLE ( 'design_supplier' ) ;
#226 = PERSON_AND_ORGANIZATION ( #270, #269 ) ;
#227 = CC_DESIGN_PERSON_AND_ORGANIZATION_ASSIGNMENT ( #229, #228, ( #241 ) ) ;
#228 = PERSON_AND_ORGANIZATION_ROLE ( 'creator' ) ;
#229 = PERSON_AND_ORGANIZATION ( #270, #269 ) ;
#230 = CC_DESIGN_APPROVAL ( #238, ( #241 ) ) ;
#231 = APPROVAL_DATE_TIME ( #232, #238 ) ;
#232 = DATE_AND_TIME ( #233, #234 ) ;
#233 = CALENDAR_DATE ( 2009, 26, 6 ) ;
#234 = LOCAL_TIME ( 16, 59, 7.000000000000000000, #235 ) ;
#235 = COORDINATED_UNIVERSAL_TIME_OFFSET ( 9, 0, .AHEAD. ) ;
#236 = APPROVAL_PERSON_ORGANIZATION ( #240, #238, #237 ) ;
#237 = APPROVAL_ROLE ( '' ) ;
#238 = APPROVAL ( #239, 'UNSPECIFIED' ) ;
#239 = APPROVAL_STATUS ( 'not_yet_approved' ) ;
#240 = PERSON_AND_ORGANIZATION ( #270, #269 ) ;
#241 = PRODUCT_DEFINITION_FORMATION_WITH_SPECIFIED_SOURCE ( 'ANY', '', #271, .NOT_KNOWN. ) ;
#242 = CC_DESIGN_DATE_AND_TIME_ASSIGNMENT ( #244, #243, ( #262 ) ) ;
#243 = DATE_TIME_ROLE ( 'creation_date' ) ;
#244 = DATE_AND_TIME ( #245, #246 ) ;
#245 = CALENDAR_DATE ( 2009, 26, 6 ) ;
#246 = LOCAL_TIME ( 16, 59, 7.000000000000000000, #247 ) ;
#247 = COORDINATED_UNIVERSAL_TIME_OFFSET ( 9, 0, .AHEAD. ) ;
#248 = CC_DESIGN_PERSON_AND_ORGANIZATION_ASSIGNMENT ( #250, #249, ( #262 ) ) ;
#249 = PERSON_AND_ORGANIZATION_ROLE ( 'creator' ) ;
#250 = PERSON_AND_ORGANIZATION ( #270, #269 ) ;
#251 = CC_DESIGN_APPROVAL ( #259, ( #262 ) ) ;
#252 = APPROVAL_DATE_TIME ( #253, #259 ) ;
#253 = DATE_AND_TIME ( #254, #255 ) ;
#254 = CALENDAR_DATE ( 2009, 26, 6 ) ;
#255 = LOCAL_TIME ( 16, 59, 7.000000000000000000, #256 ) ;
#256 = COORDINATED_UNIVERSAL_TIME_OFFSET ( 9, 0, .AHEAD. ) ;
#257 = APPROVAL_PERSON_ORGANIZATION ( #261, #259, #258 ) ;
#258 = APPROVAL_ROLE ( '' ) ;
#259 = APPROVAL ( #260, 'UNSPECIFIED' ) ;
#260 = APPROVAL_STATUS ( 'not_yet_approved' ) ;
#261 = PERSON_AND_ORGANIZATION ( #270, #269 ) ;
#262 = PRODUCT_DEFINITION ( 'UNKNOWN', '', #241, #263 ) ;
#263 = DESIGN_CONTEXT ( 'detailed design', #265, 'design' ) ;
#264 = APPLICATION_PROTOCOL_DEFINITION ( 'international standard', 'config_control_design', 1994, #265 ) ;
#265 = APPLICATION_CONTEXT ( 'configuration controlled 3d designs of mechanical parts and assemblies' ) ;
#266 = CC_DESIGN_PERSON_AND_ORGANIZATION_ASSIGNMENT ( #268, #267, ( #271 ) ) ;
#267 = PERSON_AND_ORGANIZATION_ROLE ( 'design_owner' ) ;
#268 = PERSON_AND_ORGANIZATION ( #270, #269 ) ;
#269 = ORGANIZATION ( 'UNSPECIFIED', 'UNSPECIFIED', '' ) ;
#270 = PERSON ( 'UNSPECIFIED', 'UNSPECIFIED', 'UNSPECIFIED', ('UNSPECIFIED'), ('UNSPECIFIED'), ('UNSPECIFIED') ) ;
#271 = PRODUCT ( 'C-30-RK-3617', 'C-30-RK-3617', '', ( #272 ) ) ;
#272 = MECHANICAL_CONTEXT ( 'NONE', #274, 'mechanical' ) ;
#273 = APPLICATION_PROTOCOL_DEFINITION ( 'international standard', 'config_control_design', 1994, #274 ) ;
#274 = APPLICATION_CONTEXT ( 'configuration controlled 3d designs of mechanical parts and assemblies' ) ;
#275 = DIRECTION ( 'NONE',  ( 1.000000000000000000, 0.0000000000000000000, 0.0000000000000000000 ) ) ;
#276 = DIRECTION ( 'NONE',  ( 0.0000000000000000000, 0.0000000000000000000, 1.000000000000000000 ) ) ;
#277 = AXIS2_PLACEMENT_3D ( 'NONE', #285, #276, #275 ) ;
#278 = SHAPE_DEFINITION_REPRESENTATION ( #199, #279 ) ;
#279 = ADVANCED_BREP_SHAPE_REPRESENTATION ( 'C-30-RK-3617', ( #126, #277 ), #280 ) ;
#280 =( GEOMETRIC_REPRESENTATION_CONTEXT ( 3 ) GLOBAL_UNCERTAINTY_ASSIGNED_CONTEXT ( ( #281 ) ) GLOBAL_UNIT_ASSIGNED_CONTEXT ( ( #284, #283, #282 ) ) REPRESENTATION_CONTEXT ( 'NONE', 'WORKASPACE' ) );
#281 = UNCERTAINTY_MEASURE_WITH_UNIT (LENGTH_MEASURE( 1.000000000000000100E-005 ), #284, 'distance_accuracy_value', 'NONE');
#282 =( NAMED_UNIT ( * ) SI_UNIT ( $, .STERADIAN. ) SOLID_ANGLE_UNIT ( ) );
#283 =( NAMED_UNIT ( * ) PLANE_ANGLE_UNIT ( ) SI_UNIT ( $, .RADIAN. ) );
#284 =( LENGTH_UNIT ( ) NAMED_UNIT ( * ) SI_UNIT ( .MILLI., .METRE. ) );
#285 = CARTESIAN_POINT ( 'NONE',  ( 0.0000000000000000000, 0.0000000000000000000, 0.0000000000000000000 ) ) ;
#286 = CARTESIAN_POINT ( 'NONE',  ( -5.009326287108706300E-010, -8.999999996500433100, 2.999999999999999100 ) ) ;
#287 = CARTESIAN_POINT ( 'NONE',  ( -5.009304244194337500E-010, -16.99999999650043100, -18.00000000000000400 ) ) ;
#288 = CARTESIAN_POINT ( 'NONE',  ( -5.009326287108706300E-010, -16.99999999650043100, 18.00000000000000400 ) ) ;
#289 = CARTESIAN_POINT ( 'NONE',  ( -5.009309142619752800E-010, 3.499566955666999500E-009, -10.00000000000000000 ) ) ;
#290 = DIRECTION ( 'NONE',  ( 0.0000000000000000000, 1.000000000000000000, 0.0000000000000000000 ) ) ;
#291 = VECTOR ( 'NONE', #290, 1000.000000000000000 ) ;
#292 = CARTESIAN_POINT ( 'NONE',  ( -5.009326287108706300E-010, 2.412507003500041800, 3.000000000000000000 ) ) ;
#293 = DIRECTION ( 'NONE',  ( 0.0000000000000000000, 0.0000000000000000000, 1.000000000000000000 ) ) ;
#294 = DIRECTION ( 'NONE',  ( 0.0000000000000000000, 1.000000000000000000, 0.0000000000000000000 ) ) ;
#295 = CARTESIAN_POINT ( 'NONE',  ( -5.009326287108706300E-010, -15.03775264031680900, 0.0000000000000000000 ) ) ;
#296 = AXIS2_PLACEMENT_3D ( 'NONE', #295, #294, #293 ) ;
#297 = LINE ( 'NONE', #292, #291 ) ;
#298 = TOROIDAL_SURFACE ( 'NONE', #296, 0.1072756318901933700, 18.00000000000000400 ) ;
#299 = FACE_OUTER_BOUND ( 'NONE', #193, .T. ) ;
#300 = DIRECTION ( 'NONE',  ( 1.224606353836737700E-016, 0.0000000000000000000, -1.000000000000000000 ) ) ;
#301 = DIRECTION ( 'NONE',  ( 1.000000000000000000, 0.0000000000000000000, 1.224606353822377300E-016 ) ) ;
#302 = CARTESIAN_POINT ( 'NONE',  ( -5.009326155738285400E-010, -15.03775264031680900, -0.1072756318901933700 ) ) ;
#303 = AXIS2_PLACEMENT_3D ( 'NONE', #302, #301, #300 ) ;
#304 = CIRCLE ( 'NONE', #303, 18.00000000000000400 ) ;
#305 = DIRECTION ( 'NONE',  ( 0.0000000000000000000, 0.0000000000000000000, 1.000000000000000000 ) ) ;
#306 = DIRECTION ( 'NONE',  ( 0.0000000000000000000, 1.000000000000000000, 0.0000000000000000000 ) ) ;
#307 = CARTESIAN_POINT ( 'NONE',  ( -5.009326287108706300E-010, -16.99999999650043100, 0.0000000000000000000 ) ) ;
#308 = AXIS2_PLACEMENT_3D ( 'NONE', #307, #306, #305 ) ;
#309 = CIRCLE ( 'NONE', #308, 18.00000000000000000 ) ;
#310 = DIRECTION ( 'NONE',  ( 0.0000000000000000000, 0.0000000000000000000, 1.000000000000000000 ) ) ;
#311 = DIRECTION ( 'NONE',  ( 0.0000000000000000000, 1.000000000000000000, 0.0000000000000000000 ) ) ;
#312 = CARTESIAN_POINT ( 'NONE',  ( -5.009326287108706300E-010, 3.499566955666999500E-009, 0.0000000000000000000 ) ) ;
#313 = AXIS2_PLACEMENT_3D ( 'NONE', #312, #311, #310 ) ;
#314 = CIRCLE ( 'NONE', #313, 10.00000000000000000 ) ;
#315 = DIRECTION ( 'NONE',  ( 0.0000000000000000000, 0.0000000000000000000, 1.000000000000000000 ) ) ;
#316 = DIRECTION ( 'NONE',  ( 0.0000000000000000000, 1.000000000000000000, 0.0000000000000000000 ) ) ;
#317 = CARTESIAN_POINT ( 'NONE',  ( -5.009326287108706300E-010, -15.03775264031680900, 0.0000000000000000000 ) ) ;
#318 = CARTESIAN_POINT ( 'NONE',  ( -5.009326287108706300E-010, -15.03775264031680900, 0.1072756318901933700 ) ) ;
#319 = FACE_OUTER_BOUND ( 'NONE', #182, .T. ) ;
#320 = AXIS2_PLACEMENT_3D ( 'NONE', #317, #316, #315 ) ;
#321 = CARTESIAN_POINT ( 'NONE',  ( -5.009326287108706300E-010, 3.499566955666999500E-009, 10.00000000000000000 ) ) ;
#322 = DIRECTION ( 'NONE',  ( 0.0000000000000000000, 0.0000000000000000000, 1.000000000000000000 ) ) ;
#323 = DIRECTION ( 'NONE',  ( 0.0000000000000000000, 1.000000000000000000, 0.0000000000000000000 ) ) ;
#324 = CARTESIAN_POINT ( 'NONE',  ( -5.009326287108706300E-010, -16.99999999650043100, 0.0000000000000000000 ) ) ;
#325 = AXIS2_PLACEMENT_3D ( 'NONE', #324, #323, #322 ) ;
#326 = CIRCLE ( 'NONE', #325, 18.00000000000000000 ) ;
#327 = TOROIDAL_SURFACE ( 'NONE', #320, 0.1072756318901933700, 18.00000000000000400 ) ;
#328 = DIRECTION ( 'NONE',  ( 0.0000000000000000000, 0.0000000000000000000, 1.000000000000000000 ) ) ;
#329 = DIRECTION ( 'NONE',  ( -1.000000000000000000, 0.0000000000000000000, 0.0000000000000000000 ) ) ;
#330 = AXIS2_PLACEMENT_3D ( 'NONE', #318, #329, #328 ) ;
#331 = CIRCLE ( 'NONE', #330, 18.00000000000000400 ) ;
ENDSEC;
END-ISO-10303-21;
