ISO-10303-21;
HEADER;
FILE_DESCRIPTION (( 'STEP AP203' ),
    '1' );
FILE_NAME ('C-30-RK-36-ÃÞÌ«ÙÄ.STEP',
    '2009-06-29T02:16:30',
    ( '11sw' ),
    ( '^LQ»¢®ïÐ' ),
    'SwSTEP 2.0',
    'SolidWorks 2007',
    '' );
FILE_SCHEMA (( 'CONFIG_CONTROL_DESIGN' ));
ENDSEC;

DATA;
#1 = ORIENTED_EDGE ( 'NONE', *, *, #124, .T. ) ;
#2 = ORIENTED_EDGE ( 'NONE', *, *, #16, .T. ) ;
#3 = CLOSED_SHELL ( 'NONE', ( #30, #112, #31, #111, #102, #47, #55, #36, #38, #5, #33 ) ) ;
#4 = ORIENTED_EDGE ( 'NONE', *, *, #115, .F. ) ;
#5 = ADVANCED_FACE ( 'NONE', ( #136, #103 ), #83, .F. ) ;
#6 = EDGE_LOOP ( 'NONE', ( #11, #12 ) ) ;
#7 = ORIENTED_EDGE ( 'NONE', *, *, #10, .T. ) ;
#8 = ORIENTED_EDGE ( 'NONE', *, *, #61, .T. ) ;
#9 = EDGE_CURVE ( 'NONE', #110, #123, #135, .T. ) ;
#10 = EDGE_CURVE ( 'NONE', #17, #18, #146, .T. ) ;
#11 = ORIENTED_EDGE ( 'NONE', *, *, #10, .F. ) ;
#12 = ORIENTED_EDGE ( 'NONE', *, *, #23, .F. ) ;
#13 = EDGE_LOOP ( 'NONE', ( #35, #65 ) ) ;
#14 = ORIENTED_EDGE ( 'NONE', *, *, #9, .F. ) ;
#15 = ORIENTED_EDGE ( 'NONE', *, *, #16, .F. ) ;
#16 = EDGE_CURVE ( 'NONE', #24, #17, #86, .T. ) ;
#17 = VERTEX_POINT ( 'NONE', #129 ) ;
#18 = VERTEX_POINT ( 'NONE', #128 ) ;
#19 = EDGE_CURVE ( 'NONE', #22, #18, #127, .T. ) ;
#20 = ORIENTED_EDGE ( 'NONE', *, *, #19, .T. ) ;
#21 = ORIENTED_EDGE ( 'NONE', *, *, #23, .T. ) ;
#22 = VERTEX_POINT ( 'NONE', #75 ) ;
#23 = EDGE_CURVE ( 'NONE', #18, #17, #72, .T. ) ;
#24 = VERTEX_POINT ( 'NONE', #148 ) ;
#25 = EDGE_CURVE ( 'NONE', #22, #24, #159, .T. ) ;
#26 = EDGE_LOOP ( 'NONE', ( #27, #20, #21, #15 ) ) ;
#27 = ORIENTED_EDGE ( 'NONE', *, *, #25, .F. ) ;
#28 = MANIFOLD_SOLID_BREP ( 'NONE', #3 ) ;
#29 = EDGE_LOOP ( 'NONE', ( #116, #69, #108, #114 ) ) ;
#30 = ADVANCED_FACE ( 'NONE', ( #160 ), #153, .T. ) ;
#31 = ADVANCED_FACE ( 'NONE', ( #210 ), #200, .F. ) ;
#32 = EDGE_LOOP ( 'NONE', ( #34, #4, #2, #7 ) ) ;
#33 = ADVANCED_FACE ( 'NONE', ( #195 ), #178, .T. ) ;
#34 = ORIENTED_EDGE ( 'NONE', *, *, #19, .F. ) ;
#35 = ORIENTED_EDGE ( 'NONE', *, *, #9, .T. ) ;
#36 = ADVANCED_FACE ( 'NONE', ( #180, #179 ), #230, .F. ) ;
#37 = ORIENTED_EDGE ( 'NONE', *, *, #117, .T. ) ;
#38 = ADVANCED_FACE ( 'NONE', ( #218 ), #205, .F. ) ;
#39 = EDGE_CURVE ( 'NONE', #91, #94, #188, .T. ) ;
#40 = EDGE_LOOP ( 'NONE', ( #46, #48 ) ) ;
#41 = ORIENTED_EDGE ( 'NONE', *, *, #39, .F. ) ;
#42 = CC_DESIGN_PERSON_AND_ORGANIZATION_ASSIGNMENT ( #44, #43, ( #325 ) ) ;
#43 = PERSON_AND_ORGANIZATION_ROLE ( 'creator' ) ;
#44 = PERSON_AND_ORGANIZATION ( #333, #332 ) ;
#45 = ORIENTED_EDGE ( 'NONE', *, *, #96, .T. ) ;
#46 = ORIENTED_EDGE ( 'NONE', *, *, #52, .F. ) ;
#47 = ADVANCED_FACE ( 'NONE', ( #167, #166 ), #165, .F. ) ;
#48 = ORIENTED_EDGE ( 'NONE', *, *, #109, .F. ) ;
#49 = EDGE_LOOP ( 'NONE', ( #50, #54 ) ) ;
#50 = ORIENTED_EDGE ( 'NONE', *, *, #93, .T. ) ;
#51 = EDGE_LOOP ( 'NONE', ( #53, #64, #58, #57 ) ) ;
#52 = EDGE_CURVE ( 'NONE', #113, #71, #199, .T. ) ;
#53 = ORIENTED_EDGE ( 'NONE', *, *, #70, .F. ) ;
#54 = ORIENTED_EDGE ( 'NONE', *, *, #39, .T. ) ;
#55 = ADVANCED_FACE ( 'NONE', ( #213 ), #211, .F. ) ;
#56 = EDGE_LOOP ( 'NONE', ( #62, #14, #1, #8 ) ) ;
#57 = ORIENTED_EDGE ( 'NONE', *, *, #52, .T. ) ;
#58 = ORIENTED_EDGE ( 'NONE', *, *, #107, .T. ) ;
#59 = EDGE_CURVE ( 'NONE', #120, #119, #222, .T. ) ;
#60 = EDGE_LOOP ( 'NONE', ( #67, #68 ) ) ;
#61 = EDGE_CURVE ( 'NONE', #97, #106, #228, .T. ) ;
#62 = ORIENTED_EDGE ( 'NONE', *, *, #98, .F. ) ;
#63 = EDGE_LOOP ( 'NONE', ( #66, #37 ) ) ;
#64 = ORIENTED_EDGE ( 'NONE', *, *, #59, .F. ) ;
#65 = ORIENTED_EDGE ( 'NONE', *, *, #99, .T. ) ;
#66 = ORIENTED_EDGE ( 'NONE', *, *, #59, .T. ) ;
#67 = ORIENTED_EDGE ( 'NONE', *, *, #61, .F. ) ;
#68 = ORIENTED_EDGE ( 'NONE', *, *, #121, .F. ) ;
#69 = ORIENTED_EDGE ( 'NONE', *, *, #70, .T. ) ;
#70 = EDGE_CURVE ( 'NONE', #119, #71, #229, .T. ) ;
#71 = VERTEX_POINT ( 'NONE', #174 ) ;
#72 = CIRCLE ( 'NONE', #162, 18.00000000000000000 ) ;
#73 = DATE_AND_TIME ( #139, #140 ) ;
#74 = DIRECTION ( 'NONE',  ( 0.0000000000000000000, 0.0000000000000000000, 1.000000000000000000 ) ) ;
#75 = CARTESIAN_POINT ( 'NONE',  ( -5.009326287108706300E-010, -1.729773587033820400, 15.23587821689091500 ) ) ;
#76 = DIRECTION ( 'NONE',  ( 1.654604890017193000E-017, -0.9908301680442989100, 0.1351132047333134200 ) ) ;
#77 = VECTOR ( 'NONE', #76, 1000.000000000000100 ) ;
#78 = CARTESIAN_POINT ( 'NONE',  ( -5.009304244194337500E-010, -21.99999999650043500, 18.00000000000000000 ) ) ;
#79 = DIRECTION ( 'NONE',  ( 0.0000000000000000000, 0.0000000000000000000, 1.000000000000000000 ) ) ;
#80 = DIRECTION ( 'NONE',  ( 0.0000000000000000000, 1.000000000000000000, 0.0000000000000000000 ) ) ;
#81 = CARTESIAN_POINT ( 'NONE',  ( 2.499999999499068700, -21.99999999650043500, 0.0000000000000000000 ) ) ;
#82 = AXIS2_PLACEMENT_3D ( 'NONE', #81, #80, #79 ) ;
#83 = PLANE ( 'NONE',  #82 ) ;
#84 = CARTESIAN_POINT ( 'NONE',  ( -5.009326287108706300E-010, -21.99999999650043500, 0.0000000000000000000 ) ) ;
#85 = CARTESIAN_POINT ( 'NONE',  ( -5.009326287108706300E-010, -21.99999999650043500, 0.0000000000000000000 ) ) ;
#86 = LINE ( 'NONE', #142, #131 ) ;
#87 = DIRECTION ( 'NONE',  ( 0.0000000000000000000, 0.0000000000000000000, 1.000000000000000000 ) ) ;
#88 = DIRECTION ( 'NONE',  ( 0.0000000000000000000, 1.000000000000000000, 0.0000000000000000000 ) ) ;
#89 = AXIS2_PLACEMENT_3D ( 'NONE', #84, #88, #87 ) ;
#90 = ORIENTED_EDGE ( 'NONE', *, *, #98, .T. ) ;
#91 = VERTEX_POINT ( 'NONE', #173 ) ;
#92 = ORIENTED_EDGE ( 'NONE', *, *, #93, .F. ) ;
#93 = EDGE_CURVE ( 'NONE', #94, #91, #172, .T. ) ;
#94 = VERTEX_POINT ( 'NONE', #246 ) ;
#95 = ORIENTED_EDGE ( 'NONE', *, *, #96, .F. ) ;
#96 = EDGE_CURVE ( 'NONE', #22, #94, #232, .T. ) ;
#97 = VERTEX_POINT ( 'NONE', #310 ) ;
#98 = EDGE_CURVE ( 'NONE', #123, #106, #289, .T. ) ;
#99 = EDGE_CURVE ( 'NONE', #123, #110, #285, .T. ) ;
#100 = EDGE_LOOP ( 'NONE', ( #101, #90, #122, #118 ) ) ;
#101 = ORIENTED_EDGE ( 'NONE', *, *, #99, .F. ) ;
#102 = ADVANCED_FACE ( 'NONE', ( #243 ), #242, .T. ) ;
#103 = FACE_BOUND ( 'NONE', #13, .T. ) ;
#104 = ORIENTED_EDGE ( 'NONE', *, *, #105, .T. ) ;
#105 = EDGE_CURVE ( 'NONE', #24, #91, #237, .T. ) ;
#106 = VERTEX_POINT ( 'NONE', #277 ) ;
#107 = EDGE_CURVE ( 'NONE', #120, #113, #276, .T. ) ;
#108 = ORIENTED_EDGE ( 'NONE', *, *, #109, .T. ) ;
#109 = EDGE_CURVE ( 'NONE', #71, #113, #272, .T. ) ;
#110 = VERTEX_POINT ( 'NONE', #267 ) ;
#111 = ADVANCED_FACE ( 'NONE', ( #266 ), #265, .T. ) ;
#112 = ADVANCED_FACE ( 'NONE', ( #260 ), #259, .F. ) ;
#113 = VERTEX_POINT ( 'NONE', #254 ) ;
#114 = ORIENTED_EDGE ( 'NONE', *, *, #107, .F. ) ;
#115 = EDGE_CURVE ( 'NONE', #24, #22, #253, .T. ) ;
#116 = ORIENTED_EDGE ( 'NONE', *, *, #117, .F. ) ;
#117 = EDGE_CURVE ( 'NONE', #119, #120, #248, .T. ) ;
#118 = ORIENTED_EDGE ( 'NONE', *, *, #124, .F. ) ;
#119 = VERTEX_POINT ( 'NONE', #306 ) ;
#120 = VERTEX_POINT ( 'NONE', #305 ) ;
#121 = EDGE_CURVE ( 'NONE', #106, #97, #304, .T. ) ;
#122 = ORIENTED_EDGE ( 'NONE', *, *, #121, .T. ) ;
#123 = VERTEX_POINT ( 'NONE', #299 ) ;
#124 = EDGE_CURVE ( 'NONE', #110, #97, #298, .T. ) ;
#125 = EDGE_LOOP ( 'NONE', ( #126, #104, #92, #95 ) ) ;
#126 = ORIENTED_EDGE ( 'NONE', *, *, #25, .T. ) ;
#127 = LINE ( 'NONE', #78, #77 ) ;
#128 = CARTESIAN_POINT ( 'NONE',  ( -5.009304244194337500E-010, -21.99999999650043500, 18.00000000000000000 ) ) ;
#129 = CARTESIAN_POINT ( 'NONE',  ( -5.009326287108706300E-010, -21.99999999650043500, -18.00000000000000000 ) ) ;
#130 = DIRECTION ( 'NONE',  ( 0.0000000000000000000, -0.9908301680442989100, -0.1351132047333134200 ) ) ;
#131 = VECTOR ( 'NONE', #130, 1000.000000000000100 ) ;
#132 = EDGE_LOOP ( 'NONE', ( #133, #134, #45, #41 ) ) ;
#133 = ORIENTED_EDGE ( 'NONE', *, *, #105, .F. ) ;
#134 = ORIENTED_EDGE ( 'NONE', *, *, #115, .T. ) ;
#135 = CIRCLE ( 'NONE', #89, 2.500000000000001300 ) ;
#136 = FACE_OUTER_BOUND ( 'NONE', #6, .T. ) ;
#137 = CC_DESIGN_DATE_AND_TIME_ASSIGNMENT ( #73, #138, ( #325 ) ) ;
#138 = DATE_TIME_ROLE ( 'creation_date' ) ;
#139 = CALENDAR_DATE ( 2009, 29, 6 ) ;
#140 = LOCAL_TIME ( 11, 16, 30.00000000000000000, #141 ) ;
#141 = COORDINATED_UNIVERSAL_TIME_OFFSET ( 9, 0, .AHEAD. ) ;
#142 = CARTESIAN_POINT ( 'NONE',  ( -5.009326287108706300E-010, -21.99999999650043500, -18.00000000000000000 ) ) ;
#143 = DIRECTION ( 'NONE',  ( 0.0000000000000000000, 0.0000000000000000000, 1.000000000000000000 ) ) ;
#144 = DIRECTION ( 'NONE',  ( 0.0000000000000000000, 1.000000000000000000, 0.0000000000000000000 ) ) ;
#145 = AXIS2_PLACEMENT_3D ( 'NONE', #85, #144, #143 ) ;
#146 = CIRCLE ( 'NONE', #145, 18.00000000000000000 ) ;
#147 = CARTESIAN_POINT ( 'NONE',  ( -5.009326287108706300E-010, -21.99999999650043500, 0.0000000000000000000 ) ) ;
#148 = CARTESIAN_POINT ( 'NONE',  ( -5.009307629155435700E-010, -1.729773587033820400, -15.23587821689091500 ) ) ;
#149 = DIRECTION ( 'NONE',  ( 0.0000000000000000000, 0.0000000000000000000, 1.000000000000000000 ) ) ;
#150 = DIRECTION ( 'NONE',  ( 0.0000000000000000000, 0.0000000000000000000, -1.000000000000000000 ) ) ;
#151 = DIRECTION ( 'NONE',  ( 0.0000000000000000000, -1.000000000000000000, 0.0000000000000000000 ) ) ;
#152 = AXIS2_PLACEMENT_3D ( 'NONE', #154, #151, #150 ) ;
#153 = CONICAL_SURFACE ( 'NONE', #152, 18.00000000000000000, 0.1355277139855006200 ) ;
#154 = CARTESIAN_POINT ( 'NONE',  ( -5.009326287108706300E-010, -21.99999999650043500, 0.0000000000000000000 ) ) ;
#155 = DIRECTION ( 'NONE',  ( 0.0000000000000000000, 0.0000000000000000000, 1.000000000000000000 ) ) ;
#156 = DIRECTION ( 'NONE',  ( 0.0000000000000000000, 1.000000000000000000, 0.0000000000000000000 ) ) ;
#157 = CARTESIAN_POINT ( 'NONE',  ( -5.009326287108706300E-010, -1.729773587033820400, 0.0000000000000000000 ) ) ;
#158 = AXIS2_PLACEMENT_3D ( 'NONE', #157, #156, #155 ) ;
#159 = CIRCLE ( 'NONE', #158, 15.23587821689091500 ) ;
#160 = FACE_OUTER_BOUND ( 'NONE', #26, .T. ) ;
#161 = DIRECTION ( 'NONE',  ( 0.0000000000000000000, 1.000000000000000000, 0.0000000000000000000 ) ) ;
#162 = AXIS2_PLACEMENT_3D ( 'NONE', #147, #161, #149 ) ;
#163 = DIRECTION ( 'NONE',  ( 0.0000000000000000000, 1.000000000000000000, 0.0000000000000000000 ) ) ;
#164 = DIRECTION ( 'NONE',  ( 0.0000000000000000000, -1.000000000000000000, 0.0000000000000000000 ) ) ;
#165 = PLANE ( 'NONE',  #204 ) ;
#166 = FACE_OUTER_BOUND ( 'NONE', #49, .T. ) ;
#167 = FACE_BOUND ( 'NONE', #40, .T. ) ;
#168 = DIRECTION ( 'NONE',  ( 0.0000000000000000000, 0.0000000000000000000, 1.000000000000000000 ) ) ;
#169 = DIRECTION ( 'NONE',  ( 0.0000000000000000000, 1.000000000000000000, 0.0000000000000000000 ) ) ;
#170 = CARTESIAN_POINT ( 'NONE',  ( -5.009326287108706300E-010, 3.499565220943523500E-009, 0.0000000000000000000 ) ) ;
#171 = AXIS2_PLACEMENT_3D ( 'NONE', #170, #169, #74 ) ;
#172 = CIRCLE ( 'NONE', #171, 13.25421788080230300 ) ;
#173 = CARTESIAN_POINT ( 'NONE',  ( -5.009308842532354700E-010, 3.499565220943523500E-009, -13.25421788080230300 ) ) ;
#174 = CARTESIAN_POINT ( 'NONE',  ( -5.009318939470583400E-010, 3.499565220943523500E-009, -6.000000000000000000 ) ) ;
#175 = DIRECTION ( 'NONE',  ( 0.0000000000000000000, 1.000000000000000000, 0.0000000000000000000 ) ) ;
#176 = VECTOR ( 'NONE', #175, 1000.000000000000000 ) ;
#177 = CARTESIAN_POINT ( 'NONE',  ( -5.009318939470583400E-010, 2.412507003500041800, -6.000000000000000900 ) ) ;
#178 = CONICAL_SURFACE ( 'NONE', #209, 18.00000000000000000, 0.1355277139855006200 ) ;
#179 = FACE_OUTER_BOUND ( 'NONE', #63, .T. ) ;
#180 = FACE_BOUND ( 'NONE', #60, .T. ) ;
#181 = CARTESIAN_POINT ( 'NONE',  ( -5.009326287108706300E-010, 2.412507003500041800, 0.0000000000000000000 ) ) ;
#182 = DIRECTION ( 'NONE',  ( 0.0000000000000000000, 0.0000000000000000000, 1.000000000000000000 ) ) ;
#183 = DIRECTION ( 'NONE',  ( 0.0000000000000000000, 1.000000000000000000, 0.0000000000000000000 ) ) ;
#184 = CARTESIAN_POINT ( 'NONE',  ( -5.009326287108706300E-010, 2.412507003500041800, 0.0000000000000000000 ) ) ;
#185 = DIRECTION ( 'NONE',  ( 0.0000000000000000000, 1.000000000000000000, 0.0000000000000000000 ) ) ;
#186 = CARTESIAN_POINT ( 'NONE',  ( -5.009326287108706300E-010, 3.499565220943523500E-009, 0.0000000000000000000 ) ) ;
#187 = AXIS2_PLACEMENT_3D ( 'NONE', #186, #185, #168 ) ;
#188 = CIRCLE ( 'NONE', #187, 13.25421788080230300 ) ;
#189 = DIRECTION ( 'NONE',  ( 0.0000000000000000000, 0.0000000000000000000, 1.000000000000000000 ) ) ;
#190 = DIRECTION ( 'NONE',  ( 0.0000000000000000000, 1.000000000000000000, 0.0000000000000000000 ) ) ;
#191 = CARTESIAN_POINT ( 'NONE',  ( -5.009326287108706300E-010, -11.99999999650043500, 0.0000000000000000000 ) ) ;
#192 = AXIS2_PLACEMENT_3D ( 'NONE', #191, #190, #189 ) ;
#193 = DIRECTION ( 'NONE',  ( 0.0000000000000000000, 0.0000000000000000000, 1.000000000000000000 ) ) ;
#194 = DIRECTION ( 'NONE',  ( 0.0000000000000000000, 0.0000000000000000000, -1.000000000000000000 ) ) ;
#195 = FACE_OUTER_BOUND ( 'NONE', #32, .T. ) ;
#196 = DIRECTION ( 'NONE',  ( 0.0000000000000000000, 1.000000000000000000, 0.0000000000000000000 ) ) ;
#197 = CARTESIAN_POINT ( 'NONE',  ( -5.009326287108706300E-010, 3.499565220943523500E-009, 0.0000000000000000000 ) ) ;
#198 = AXIS2_PLACEMENT_3D ( 'NONE', #197, #196, #214 ) ;
#199 = CIRCLE ( 'NONE', #198, 6.000000000000000000 ) ;
#200 = CYLINDRICAL_SURFACE ( 'NONE', #223, 6.000000000000000900 ) ;
#201 = DIRECTION ( 'NONE',  ( 0.0000000000000000000, 0.0000000000000000000, -1.000000000000000000 ) ) ;
#202 = DIRECTION ( 'NONE',  ( 0.0000000000000000000, -1.000000000000000000, 0.0000000000000000000 ) ) ;
#203 = CARTESIAN_POINT ( 'NONE',  ( 13.25421788030137000, 3.499565220943523500E-009, 0.0000000000000000000 ) ) ;
#204 = AXIS2_PLACEMENT_3D ( 'NONE', #203, #202, #201 ) ;
#205 = CYLINDRICAL_SURFACE ( 'NONE', #206, 2.500000000000000900 ) ;
#206 = AXIS2_PLACEMENT_3D ( 'NONE', #184, #183, #182 ) ;
#207 = DIRECTION ( 'NONE',  ( 0.0000000000000000000, 0.0000000000000000000, -1.000000000000000000 ) ) ;
#208 = CARTESIAN_POINT ( 'NONE',  ( -5.009326287108706300E-010, -21.99999999650043500, 0.0000000000000000000 ) ) ;
#209 = AXIS2_PLACEMENT_3D ( 'NONE', #208, #164, #194 ) ;
#210 = FACE_OUTER_BOUND ( 'NONE', #29, .T. ) ;
#211 = CYLINDRICAL_SURFACE ( 'NONE', #212, 6.000000000000000900 ) ;
#212 = AXIS2_PLACEMENT_3D ( 'NONE', #221, #220, #219 ) ;
#213 = FACE_OUTER_BOUND ( 'NONE', #51, .T. ) ;
#214 = DIRECTION ( 'NONE',  ( 0.0000000000000000000, 0.0000000000000000000, 1.000000000000000000 ) ) ;
#215 = DIRECTION ( 'NONE',  ( 0.0000000000000000000, -1.000000000000000000, 0.0000000000000000000 ) ) ;
#216 = CARTESIAN_POINT ( 'NONE',  ( 5.999999999499069100, -11.99999999650043500, 0.0000000000000000000 ) ) ;
#217 = AXIS2_PLACEMENT_3D ( 'NONE', #216, #215, #207 ) ;
#218 = FACE_OUTER_BOUND ( 'NONE', #56, .T. ) ;
#219 = DIRECTION ( 'NONE',  ( 0.0000000000000000000, 0.0000000000000000000, 1.000000000000000000 ) ) ;
#220 = DIRECTION ( 'NONE',  ( 0.0000000000000000000, 1.000000000000000000, 0.0000000000000000000 ) ) ;
#221 = CARTESIAN_POINT ( 'NONE',  ( -5.009326287108706300E-010, 2.412507003500041800, 0.0000000000000000000 ) ) ;
#222 = CIRCLE ( 'NONE', #192, 6.000000000000001800 ) ;
#223 = AXIS2_PLACEMENT_3D ( 'NONE', #181, #163, #193 ) ;
#224 = DIRECTION ( 'NONE',  ( 0.0000000000000000000, 0.0000000000000000000, 1.000000000000000000 ) ) ;
#225 = DIRECTION ( 'NONE',  ( 0.0000000000000000000, 1.000000000000000000, 0.0000000000000000000 ) ) ;
#226 = CARTESIAN_POINT ( 'NONE',  ( -5.009326287108706300E-010, -11.99999999650043500, 0.0000000000000000000 ) ) ;
#227 = AXIS2_PLACEMENT_3D ( 'NONE', #226, #225, #224 ) ;
#228 = CIRCLE ( 'NONE', #227, 2.500000000000000400 ) ;
#229 = LINE ( 'NONE', #177, #176 ) ;
#230 = PLANE ( 'NONE',  #217 ) ;
#231 = AXIS2_PLACEMENT_3D ( 'NONE', #313, #312, #311 ) ;
#232 = CIRCLE ( 'NONE', #231, 2.000000000000001800 ) ;
#233 = DIRECTION ( 'NONE',  ( 1.224606353612349900E-016, 0.0000000000000000000, -1.000000000000000000 ) ) ;
#234 = DIRECTION ( 'NONE',  ( 1.000000000000000000, 0.0000000000000000000, 1.224606353822377300E-016 ) ) ;
#235 = CARTESIAN_POINT ( 'NONE',  ( -5.009310055909274600E-010, -1.999999996500434900, -13.25421788080231500 ) ) ;
#236 = AXIS2_PLACEMENT_3D ( 'NONE', #235, #234, #233 ) ;
#237 = CIRCLE ( 'NONE', #236, 2.000000000000001800 ) ;
#238 = DIRECTION ( 'NONE',  ( 0.0000000000000000000, 0.0000000000000000000, 1.000000000000000000 ) ) ;
#239 = DIRECTION ( 'NONE',  ( 0.0000000000000000000, 1.000000000000000000, 0.0000000000000000000 ) ) ;
#240 = CARTESIAN_POINT ( 'NONE',  ( -5.009326287108706300E-010, -1.999999996500434900, 0.0000000000000000000 ) ) ;
#241 = AXIS2_PLACEMENT_3D ( 'NONE', #240, #239, #238 ) ;
#242 = TOROIDAL_SURFACE ( 'NONE', #241, 13.25421788080231500, 2.000000000000000900 ) ;
#243 = FACE_OUTER_BOUND ( 'NONE', #132, .T. ) ;
#244 = DIRECTION ( 'NONE',  ( 0.0000000000000000000, 0.0000000000000000000, 1.000000000000000000 ) ) ;
#245 = DIRECTION ( 'NONE',  ( 0.0000000000000000000, 1.000000000000000000, 0.0000000000000000000 ) ) ;
#246 = CARTESIAN_POINT ( 'NONE',  ( -5.009326287108706300E-010, 3.499565220943523500E-009, 13.25421788080230300 ) ) ;
#247 = CARTESIAN_POINT ( 'NONE',  ( -5.009326287108706300E-010, -11.99999999650043500, 0.0000000000000000000 ) ) ;
#248 = CIRCLE ( 'NONE', #309, 6.000000000000001800 ) ;
#249 = DIRECTION ( 'NONE',  ( 0.0000000000000000000, 0.0000000000000000000, 1.000000000000000000 ) ) ;
#250 = DIRECTION ( 'NONE',  ( 0.0000000000000000000, 1.000000000000000000, 0.0000000000000000000 ) ) ;
#251 = CARTESIAN_POINT ( 'NONE',  ( -5.009326287108706300E-010, -1.729773587033820400, 0.0000000000000000000 ) ) ;
#252 = AXIS2_PLACEMENT_3D ( 'NONE', #251, #250, #249 ) ;
#253 = CIRCLE ( 'NONE', #252, 15.23587821689091500 ) ;
#254 = CARTESIAN_POINT ( 'NONE',  ( -5.009326287108706300E-010, 3.499565220943523500E-009, 6.000000000000000000 ) ) ;
#255 = DIRECTION ( 'NONE',  ( 0.0000000000000000000, 0.0000000000000000000, 1.000000000000000000 ) ) ;
#256 = DIRECTION ( 'NONE',  ( 0.0000000000000000000, 1.000000000000000000, 0.0000000000000000000 ) ) ;
#257 = CARTESIAN_POINT ( 'NONE',  ( -5.009326287108706300E-010, 2.412507003500041800, 0.0000000000000000000 ) ) ;
#258 = AXIS2_PLACEMENT_3D ( 'NONE', #257, #256, #255 ) ;
#259 = CYLINDRICAL_SURFACE ( 'NONE', #258, 2.500000000000000900 ) ;
#260 = FACE_OUTER_BOUND ( 'NONE', #100, .T. ) ;
#261 = DIRECTION ( 'NONE',  ( 0.0000000000000000000, 0.0000000000000000000, 1.000000000000000000 ) ) ;
#262 = DIRECTION ( 'NONE',  ( 0.0000000000000000000, 1.000000000000000000, 0.0000000000000000000 ) ) ;
#263 = CARTESIAN_POINT ( 'NONE',  ( -5.009326287108706300E-010, -1.999999996500434900, 0.0000000000000000000 ) ) ;
#264 = AXIS2_PLACEMENT_3D ( 'NONE', #263, #262, #261 ) ;
#265 = TOROIDAL_SURFACE ( 'NONE', #264, 13.25421788080231500, 2.000000000000000900 ) ;
#266 = FACE_OUTER_BOUND ( 'NONE', #125, .T. ) ;
#267 = CARTESIAN_POINT ( 'NONE',  ( -5.009326287108706300E-010, -21.99999999650043500, 2.500000000000001300 ) ) ;
#268 = DIRECTION ( 'NONE',  ( 0.0000000000000000000, 0.0000000000000000000, 1.000000000000000000 ) ) ;
#269 = DIRECTION ( 'NONE',  ( 0.0000000000000000000, 1.000000000000000000, 0.0000000000000000000 ) ) ;
#270 = CARTESIAN_POINT ( 'NONE',  ( -5.009326287108706300E-010, 3.499565220943523500E-009, 0.0000000000000000000 ) ) ;
#271 = AXIS2_PLACEMENT_3D ( 'NONE', #270, #269, #268 ) ;
#272 = CIRCLE ( 'NONE', #271, 6.000000000000000000 ) ;
#273 = DIRECTION ( 'NONE',  ( 0.0000000000000000000, 1.000000000000000000, 0.0000000000000000000 ) ) ;
#274 = VECTOR ( 'NONE', #273, 1000.000000000000000 ) ;
#275 = CARTESIAN_POINT ( 'NONE',  ( -5.009326287108706300E-010, 2.412507003500041800, 6.000000000000000900 ) ) ;
#276 = LINE ( 'NONE', #275, #274 ) ;
#277 = CARTESIAN_POINT ( 'NONE',  ( -5.009323225592821800E-010, -11.99999999650043500, -2.500000000000000400 ) ) ;
#278 = DIRECTION ( 'NONE',  ( 1.000000000000000000, 0.0000000000000000000, 0.0000000000000000000 ) ) ;
#279 = DIRECTION ( 'NONE',  ( 0.0000000000000000000, 0.0000000000000000000, 1.000000000000000000 ) ) ;
#280 = AXIS2_PLACEMENT_3D ( 'NONE', #294, #279, #278 ) ;
#281 = ADVANCED_BREP_SHAPE_REPRESENTATION ( 'C-30-RK-36-ÃÞÌ«ÙÄ', ( #28, #280 ), #282 ) ;
#282 =( GEOMETRIC_REPRESENTATION_CONTEXT ( 3 ) GLOBAL_UNCERTAINTY_ASSIGNED_CONTEXT ( ( #290 ) ) GLOBAL_UNIT_ASSIGNED_CONTEXT ( ( #293, #292, #291 ) ) REPRESENTATION_CONTEXT ( 'NONE', 'WORKASPACE' ) );
#283 = CARTESIAN_POINT ( 'NONE',  ( -5.009326287108706300E-010, -21.99999999650043500, 0.0000000000000000000 ) ) ;
#284 = AXIS2_PLACEMENT_3D ( 'NONE', #283, #245, #244 ) ;
#285 = CIRCLE ( 'NONE', #284, 2.500000000000001300 ) ;
#286 = DIRECTION ( 'NONE',  ( 0.0000000000000000000, 1.000000000000000000, 0.0000000000000000000 ) ) ;
#287 = VECTOR ( 'NONE', #286, 1000.000000000000000 ) ;
#288 = CARTESIAN_POINT ( 'NONE',  ( -5.009323225592821800E-010, 2.412507003500041800, -2.500000000000000900 ) ) ;
#289 = LINE ( 'NONE', #288, #287 ) ;
#290 = UNCERTAINTY_MEASURE_WITH_UNIT (LENGTH_MEASURE( 1.000000000000000100E-005 ), #293, 'distance_accuracy_value', 'NONE');
#291 =( NAMED_UNIT ( * ) SI_UNIT ( $, .STERADIAN. ) SOLID_ANGLE_UNIT ( ) );
#292 =( NAMED_UNIT ( * ) PLANE_ANGLE_UNIT ( ) SI_UNIT ( $, .RADIAN. ) );
#293 =( LENGTH_UNIT ( ) NAMED_UNIT ( * ) SI_UNIT ( .MILLI., .METRE. ) );
#294 = CARTESIAN_POINT ( 'NONE',  ( 0.0000000000000000000, 0.0000000000000000000, 0.0000000000000000000 ) ) ;
#295 = DIRECTION ( 'NONE',  ( 0.0000000000000000000, 1.000000000000000000, 0.0000000000000000000 ) ) ;
#296 = VECTOR ( 'NONE', #295, 1000.000000000000000 ) ;
#297 = CARTESIAN_POINT ( 'NONE',  ( -5.009326287108706300E-010, 2.412507003500041800, 2.500000000000000900 ) ) ;
#298 = LINE ( 'NONE', #297, #296 ) ;
#299 = CARTESIAN_POINT ( 'NONE',  ( -5.009323225592821800E-010, -21.99999999650043500, -2.500000000000001300 ) ) ;
#300 = DIRECTION ( 'NONE',  ( 0.0000000000000000000, 0.0000000000000000000, 1.000000000000000000 ) ) ;
#301 = DIRECTION ( 'NONE',  ( 0.0000000000000000000, 1.000000000000000000, 0.0000000000000000000 ) ) ;
#302 = CARTESIAN_POINT ( 'NONE',  ( -5.009326287108706300E-010, -11.99999999650043500, 0.0000000000000000000 ) ) ;
#303 = AXIS2_PLACEMENT_3D ( 'NONE', #302, #301, #300 ) ;
#304 = CIRCLE ( 'NONE', #303, 2.500000000000000400 ) ;
#305 = CARTESIAN_POINT ( 'NONE',  ( -5.009326287108706300E-010, -11.99999999650043500, 6.000000000000001800 ) ) ;
#306 = CARTESIAN_POINT ( 'NONE',  ( -5.009318939470583400E-010, -11.99999999650043500, -6.000000000000002700 ) ) ;
#307 = DIRECTION ( 'NONE',  ( 0.0000000000000000000, 0.0000000000000000000, 1.000000000000000000 ) ) ;
#308 = DIRECTION ( 'NONE',  ( 0.0000000000000000000, 1.000000000000000000, 0.0000000000000000000 ) ) ;
#309 = AXIS2_PLACEMENT_3D ( 'NONE', #247, #308, #307 ) ;
#310 = CARTESIAN_POINT ( 'NONE',  ( -5.009326287108706300E-010, -11.99999999650043500, 2.500000000000000400 ) ) ;
#311 = DIRECTION ( 'NONE',  ( 0.0000000000000000000, 0.0000000000000000000, 1.000000000000000000 ) ) ;
#312 = DIRECTION ( 'NONE',  ( -1.000000000000000000, 0.0000000000000000000, 0.0000000000000000000 ) ) ;
#313 = CARTESIAN_POINT ( 'NONE',  ( -5.009326287108706300E-010, -1.999999996500434900, 13.25421788080231500 ) ) ;
#314 = CC_DESIGN_APPROVAL ( #322, ( #325 ) ) ;
#315 = APPROVAL_DATE_TIME ( #316, #322 ) ;
#316 = DATE_AND_TIME ( #317, #318 ) ;
#317 = CALENDAR_DATE ( 2009, 29, 6 ) ;
#318 = LOCAL_TIME ( 11, 16, 30.00000000000000000, #319 ) ;
#319 = COORDINATED_UNIVERSAL_TIME_OFFSET ( 9, 0, .AHEAD. ) ;
#320 = APPROVAL_PERSON_ORGANIZATION ( #324, #322, #321 ) ;
#321 = APPROVAL_ROLE ( '' ) ;
#322 = APPROVAL ( #323, 'UNSPECIFIED' ) ;
#323 = APPROVAL_STATUS ( 'not_yet_approved' ) ;
#324 = PERSON_AND_ORGANIZATION ( #333, #332 ) ;
#325 = PRODUCT_DEFINITION ( 'UNKNOWN', '', #377, #326 ) ;
#326 = DESIGN_CONTEXT ( 'detailed design', #328, 'design' ) ;
#327 = APPLICATION_PROTOCOL_DEFINITION ( 'international standard', 'config_control_design', 1994, #328 ) ;
#328 = APPLICATION_CONTEXT ( 'configuration controlled 3d designs of mechanical parts and assemblies' ) ;
#329 = CC_DESIGN_PERSON_AND_ORGANIZATION_ASSIGNMENT ( #331, #330, ( #334 ) ) ;
#330 = PERSON_AND_ORGANIZATION_ROLE ( 'design_owner' ) ;
#331 = PERSON_AND_ORGANIZATION ( #333, #332 ) ;
#332 = ORGANIZATION ( 'UNSPECIFIED', 'UNSPECIFIED', '' ) ;
#333 = PERSON ( 'UNSPECIFIED', 'UNSPECIFIED', 'UNSPECIFIED', ('UNSPECIFIED'), ('UNSPECIFIED'), ('UNSPECIFIED') ) ;
#334 = PRODUCT ( 'C-30-RK-36-ÃÞÌ«ÙÄ', 'C-30-RK-36-ÃÞÌ«ÙÄ', '', ( #335 ) ) ;
#335 = MECHANICAL_CONTEXT ( 'NONE', #337, 'mechanical' ) ;
#336 = APPLICATION_PROTOCOL_DEFINITION ( 'international standard', 'config_control_design', 1994, #337 ) ;
#337 = APPLICATION_CONTEXT ( 'configuration controlled 3d designs of mechanical parts and assemblies' ) ;
#338 = SHAPE_DEFINITION_REPRESENTATION ( #339, #281 ) ;
#339 = PRODUCT_DEFINITION_SHAPE ( 'NONE', 'NONE',  #325 ) ;
#340 = PRODUCT_RELATED_PRODUCT_CATEGORY ( 'detail', '', ( #334 ) ) ;
#341 = CC_DESIGN_SECURITY_CLASSIFICATION ( #362, ( #377 ) ) ;
#342 = CC_DESIGN_APPROVAL ( #350, ( #362 ) ) ;
#343 = APPROVAL_DATE_TIME ( #344, #350 ) ;
#344 = DATE_AND_TIME ( #345, #346 ) ;
#345 = CALENDAR_DATE ( 2009, 29, 6 ) ;
#346 = LOCAL_TIME ( 11, 16, 30.00000000000000000, #347 ) ;
#347 = COORDINATED_UNIVERSAL_TIME_OFFSET ( 9, 0, .AHEAD. ) ;
#348 = APPROVAL_PERSON_ORGANIZATION ( #352, #350, #349 ) ;
#349 = APPROVAL_ROLE ( '' ) ;
#350 = APPROVAL ( #351, 'UNSPECIFIED' ) ;
#351 = APPROVAL_STATUS ( 'not_yet_approved' ) ;
#352 = PERSON_AND_ORGANIZATION ( #333, #332 ) ;
#353 = CC_DESIGN_DATE_AND_TIME_ASSIGNMENT ( #355, #354, ( #362 ) ) ;
#354 = DATE_TIME_ROLE ( 'classification_date' ) ;
#355 = DATE_AND_TIME ( #356, #357 ) ;
#356 = CALENDAR_DATE ( 2009, 29, 6 ) ;
#357 = LOCAL_TIME ( 11, 16, 30.00000000000000000, #358 ) ;
#358 = COORDINATED_UNIVERSAL_TIME_OFFSET ( 9, 0, .AHEAD. ) ;
#359 = CC_DESIGN_PERSON_AND_ORGANIZATION_ASSIGNMENT ( #361, #360, ( #362 ) ) ;
#360 = PERSON_AND_ORGANIZATION_ROLE ( 'classification_officer' ) ;
#361 = PERSON_AND_ORGANIZATION ( #333, #332 ) ;
#362 = SECURITY_CLASSIFICATION ( '', '', #363 ) ;
#363 = SECURITY_CLASSIFICATION_LEVEL ( 'unclassified' ) ;
#364 = CC_DESIGN_PERSON_AND_ORGANIZATION_ASSIGNMENT ( #366, #365, ( #377 ) ) ;
#365 = PERSON_AND_ORGANIZATION_ROLE ( 'design_supplier' ) ;
#366 = PERSON_AND_ORGANIZATION ( #333, #332 ) ;
#367 = CC_DESIGN_PERSON_AND_ORGANIZATION_ASSIGNMENT ( #369, #368, ( #377 ) ) ;
#368 = PERSON_AND_ORGANIZATION_ROLE ( 'creator' ) ;
#369 = PERSON_AND_ORGANIZATION ( #333, #332 ) ;
#370 = CC_DESIGN_APPROVAL ( #380, ( #377 ) ) ;
#371 = APPROVAL_DATE_TIME ( #372, #380 ) ;
#372 = DATE_AND_TIME ( #373, #374 ) ;
#373 = CALENDAR_DATE ( 2009, 29, 6 ) ;
#374 = LOCAL_TIME ( 11, 16, 30.00000000000000000, #375 ) ;
#375 = COORDINATED_UNIVERSAL_TIME_OFFSET ( 9, 0, .AHEAD. ) ;
#376 = APPROVAL_STATUS ( 'not_yet_approved' ) ;
#377 = PRODUCT_DEFINITION_FORMATION_WITH_SPECIFIED_SOURCE ( 'ANY', '', #334, .NOT_KNOWN. ) ;
#378 = APPROVAL_PERSON_ORGANIZATION ( #381, #380, #379 ) ;
#379 = APPROVAL_ROLE ( '' ) ;
#380 = APPROVAL ( #376, 'UNSPECIFIED' ) ;
#381 = PERSON_AND_ORGANIZATION ( #333, #332 ) ;
ENDSEC;
END-ISO-10303-21;
