ISO-10303-21;
HEADER;
FILE_DESCRIPTION (( 'STEP AP203' ),
    '1' );
FILE_NAME ('C-30-RK-36-gray.STEP',
    '2009-06-29T02:19:49',
    ( '11sw' ),
    ( '^LQ»¢®ïÐ' ),
    'SwSTEP 2.0',
    'SolidWorks 2007',
    '' );
FILE_SCHEMA (( 'CONFIG_CONTROL_DESIGN' ));
ENDSEC;

DATA;
#1 = ORIENTED_EDGE ( 'NONE', *, *, #71, .T. ) ;
#2 = ORIENTED_EDGE ( 'NONE', *, *, #90, .T. ) ;
#3 = ORIENTED_EDGE ( 'NONE', *, *, #66, .T. ) ;
#4 = ORIENTED_EDGE ( 'NONE', *, *, #35, .T. ) ;
#5 = ORIENTED_EDGE ( 'NONE', *, *, #101, .F. ) ;
#6 = CLOSED_SHELL ( 'NONE', ( #122, #91, #49, #55, #37, #23, #16, #62, #39, #28, #69 ) ) ;
#7 = ORIENTED_EDGE ( 'NONE', *, *, #8, .T. ) ;
#8 = EDGE_CURVE ( 'NONE', #95, #53, #117, .T. ) ;
#9 = ORIENTED_EDGE ( 'NONE', *, *, #8, .F. ) ;
#10 = EDGE_CURVE ( 'NONE', #97, #77, #132, .T. ) ;
#11 = EDGE_LOOP ( 'NONE', ( #44, #19 ) ) ;
#12 = ORIENTED_EDGE ( 'NONE', *, *, #32, .F. ) ;
#13 = EDGE_CURVE ( 'NONE', #46, #56, #120, .T. ) ;
#14 = ORIENTED_EDGE ( 'NONE', *, *, #13, .F. ) ;
#15 = EDGE_CURVE ( 'NONE', #34, #77, #123, .T. ) ;
#16 = ADVANCED_FACE ( 'NONE', ( #124 ), #108, .F. ) ;
#17 = EDGE_LOOP ( 'NONE', ( #75, #65, #20, #41 ) ) ;
#18 = EDGE_LOOP ( 'NONE', ( #14, #12 ) ) ;
#19 = ORIENTED_EDGE ( 'NONE', *, *, #51, .F. ) ;
#20 = ORIENTED_EDGE ( 'NONE', *, *, #45, .T. ) ;
#21 = ORIENTED_EDGE ( 'NONE', *, *, #51, .T. ) ;
#22 = EDGE_LOOP ( 'NONE', ( #78, #79 ) ) ;
#23 = ADVANCED_FACE ( 'NONE', ( #137, #136 ), #141, .F. ) ;
#24 = ORIENTED_EDGE ( 'NONE', *, *, #103, .F. ) ;
#25 = ORIENTED_EDGE ( 'NONE', *, *, #40, .F. ) ;
#26 = ORIENTED_EDGE ( 'NONE', *, *, #93, .T. ) ;
#27 = ORIENTED_EDGE ( 'NONE', *, *, #101, .T. ) ;
#28 = ADVANCED_FACE ( 'NONE', ( #139, #143 ), #142, .F. ) ;
#29 = EDGE_LOOP ( 'NONE', ( #105, #72 ) ) ;
#30 = EDGE_LOOP ( 'NONE', ( #58, #59, #48, #67 ) ) ;
#31 = ORIENTED_EDGE ( 'NONE', *, *, #32, .T. ) ;
#32 = EDGE_CURVE ( 'NONE', #56, #46, #179, .T. ) ;
#33 = EDGE_CURVE ( 'NONE', #100, #34, #175, .T. ) ;
#34 = VERTEX_POINT ( 'NONE', #171 ) ;
#35 = EDGE_CURVE ( 'NONE', #54, #36, #170, .T. ) ;
#36 = VERTEX_POINT ( 'NONE', #165 ) ;
#37 = ADVANCED_FACE ( 'NONE', ( #164 ), #161, .T. ) ;
#38 = EDGE_LOOP ( 'NONE', ( #42, #43, #60, #61 ) ) ;
#39 = ADVANCED_FACE ( 'NONE', ( #162 ), #156, .F. ) ;
#40 = EDGE_CURVE ( 'NONE', #100, #97, #151, .T. ) ;
#41 = ORIENTED_EDGE ( 'NONE', *, *, #13, .T. ) ;
#42 = ORIENTED_EDGE ( 'NONE', *, *, #33, .F. ) ;
#43 = ORIENTED_EDGE ( 'NONE', *, *, #40, .T. ) ;
#44 = ORIENTED_EDGE ( 'NONE', *, *, #63, .F. ) ;
#45 = EDGE_CURVE ( 'NONE', #36, #46, #146, .T. ) ;
#46 = VERTEX_POINT ( 'NONE', #206 ) ;
#47 = EDGE_CURVE ( 'NONE', #54, #56, #205, .T. ) ;
#48 = ORIENTED_EDGE ( 'NONE', *, *, #76, .F. ) ;
#49 = ADVANCED_FACE ( 'NONE', ( #201 ), #200, .F. ) ;
#50 = EDGE_LOOP ( 'NONE', ( #52, #57, #31, #68 ) ) ;
#51 = EDGE_CURVE ( 'NONE', #86, #53, #194, .T. ) ;
#52 = ORIENTED_EDGE ( 'NONE', *, *, #35, .F. ) ;
#53 = VERTEX_POINT ( 'NONE', #190 ) ;
#54 = VERTEX_POINT ( 'NONE', #189 ) ;
#55 = ADVANCED_FACE ( 'NONE', ( #188 ), #110, .T. ) ;
#56 = VERTEX_POINT ( 'NONE', #269 ) ;
#57 = ORIENTED_EDGE ( 'NONE', *, *, #47, .T. ) ;
#58 = ORIENTED_EDGE ( 'NONE', *, *, #99, .T. ) ;
#59 = ORIENTED_EDGE ( 'NONE', *, *, #33, .T. ) ;
#60 = ORIENTED_EDGE ( 'NONE', *, *, #10, .T. ) ;
#61 = ORIENTED_EDGE ( 'NONE', *, *, #15, .F. ) ;
#62 = ADVANCED_FACE ( 'NONE', ( #292, #270 ), #290, .F. ) ;
#63 = EDGE_CURVE ( 'NONE', #53, #86, #289, .T. ) ;
#64 = EDGE_LOOP ( 'NONE', ( #3, #4 ) ) ;
#65 = ORIENTED_EDGE ( 'NONE', *, *, #66, .F. ) ;
#66 = EDGE_CURVE ( 'NONE', #36, #54, #298, .T. ) ;
#67 = ORIENTED_EDGE ( 'NONE', *, *, #10, .F. ) ;
#68 = ORIENTED_EDGE ( 'NONE', *, *, #45, .F. ) ;
#69 = ADVANCED_FACE ( 'NONE', ( #299 ), #307, .T. ) ;
#70 = EDGE_LOOP ( 'NONE', ( #24, #25, #2, #1 ) ) ;
#71 = EDGE_CURVE ( 'NONE', #83, #104, #324, .T. ) ;
#72 = ORIENTED_EDGE ( 'NONE', *, *, #82, .F. ) ;
#73 = EDGE_LOOP ( 'NONE', ( #74, #5, #7, #87 ) ) ;
#74 = ORIENTED_EDGE ( 'NONE', *, *, #85, .F. ) ;
#75 = ORIENTED_EDGE ( 'NONE', *, *, #47, .F. ) ;
#76 = EDGE_CURVE ( 'NONE', #77, #34, #275, .T. ) ;
#77 = VERTEX_POINT ( 'NONE', #315 ) ;
#78 = ORIENTED_EDGE ( 'NONE', *, *, #76, .T. ) ;
#79 = ORIENTED_EDGE ( 'NONE', *, *, #15, .T. ) ;
#80 = EDGE_LOOP ( 'NONE', ( #27, #26 ) ) ;
#81 = ORIENTED_EDGE ( 'NONE', *, *, #82, .T. ) ;
#82 = EDGE_CURVE ( 'NONE', #104, #83, #216, .T. ) ;
#83 = VERTEX_POINT ( 'NONE', #314 ) ;
#84 = ORIENTED_EDGE ( 'NONE', *, *, #85, .T. ) ;
#85 = EDGE_CURVE ( 'NONE', #94, #86, #379, .T. ) ;
#86 = VERTEX_POINT ( 'NONE', #344 ) ;
#87 = ORIENTED_EDGE ( 'NONE', *, *, #63, .T. ) ;
#88 = EDGE_LOOP ( 'NONE', ( #92, #84, #21, #9 ) ) ;
#89 = ORIENTED_EDGE ( 'NONE', *, *, #90, .F. ) ;
#90 = EDGE_CURVE ( 'NONE', #100, #83, #343, .T. ) ;
#91 = ADVANCED_FACE ( 'NONE', ( #295 ), #293, .F. ) ;
#92 = ORIENTED_EDGE ( 'NONE', *, *, #93, .F. ) ;
#93 = EDGE_CURVE ( 'NONE', #94, #95, #257, .T. ) ;
#94 = VERTEX_POINT ( 'NONE', #358 ) ;
#95 = VERTEX_POINT ( 'NONE', #357 ) ;
#96 = EDGE_LOOP ( 'NONE', ( #98, #102, #81, #89 ) ) ;
#97 = VERTEX_POINT ( 'NONE', #320 ) ;
#98 = ORIENTED_EDGE ( 'NONE', *, *, #99, .F. ) ;
#99 = EDGE_CURVE ( 'NONE', #97, #100, #319, .T. ) ;
#100 = VERTEX_POINT ( 'NONE', #305 ) ;
#101 = EDGE_CURVE ( 'NONE', #95, #94, #313, .T. ) ;
#102 = ORIENTED_EDGE ( 'NONE', *, *, #103, .T. ) ;
#103 = EDGE_CURVE ( 'NONE', #97, #104, #308, .T. ) ;
#104 = VERTEX_POINT ( 'NONE', #265 ) ;
#105 = ORIENTED_EDGE ( 'NONE', *, *, #71, .F. ) ;
#106 = DIRECTION ( 'NONE',  ( 0.0000000000000000000, 1.000000000000000000, 0.0000000000000000000 ) ) ;
#107 = AXIS2_PLACEMENT_3D ( 'NONE', #111, #106, #158 ) ;
#108 = CYLINDRICAL_SURFACE ( 'NONE', #107, 6.000000000000000900 ) ;
#109 = AXIS2_PLACEMENT_3D ( 'NONE', #186, #187, #276 ) ;
#110 = TOROIDAL_SURFACE ( 'NONE', #109, 13.25421788080231500, 2.000000000000000900 ) ;
#111 = CARTESIAN_POINT ( 'NONE',  ( -5.009326287108706300E-010, 2.412507003500041800, 0.0000000000000000000 ) ) ;
#112 = DIRECTION ( 'NONE',  ( 0.0000000000000000000, 0.0000000000000000000, 1.000000000000000000 ) ) ;
#113 = DIRECTION ( 'NONE',  ( 0.0000000000000000000, 1.000000000000000000, 0.0000000000000000000 ) ) ;
#114 = AXIS2_PLACEMENT_3D ( 'NONE', #121, #113, #112 ) ;
#115 = MANIFOLD_SOLID_BREP ( 'NONE', #6 ) ;
#116 = VECTOR ( 'NONE', #126, 1000.000000000000000 ) ;
#117 = LINE ( 'NONE', #127, #116 ) ;
#118 = DIRECTION ( 'NONE',  ( 0.0000000000000000000, 1.000000000000000000, 0.0000000000000000000 ) ) ;
#119 = AXIS2_PLACEMENT_3D ( 'NONE', #133, #118, #125 ) ;
#120 = CIRCLE ( 'NONE', #119, 6.000000000000000000 ) ;
#121 = CARTESIAN_POINT ( 'NONE',  ( -5.009326287108706300E-010, 3.499565220943523500E-009, 0.0000000000000000000 ) ) ;
#122 = ADVANCED_FACE ( 'NONE', ( #264 ), #262, .T. ) ;
#123 = CIRCLE ( 'NONE', #114, 13.25421788080230300 ) ;
#124 = FACE_OUTER_BOUND ( 'NONE', #17, .T. ) ;
#125 = DIRECTION ( 'NONE',  ( 0.0000000000000000000, 0.0000000000000000000, 1.000000000000000000 ) ) ;
#126 = DIRECTION ( 'NONE',  ( 0.0000000000000000000, 1.000000000000000000, 0.0000000000000000000 ) ) ;
#127 = CARTESIAN_POINT ( 'NONE',  ( -5.009326287108706300E-010, 2.412507003500041800, 2.500000000000000900 ) ) ;
#128 = DIRECTION ( 'NONE',  ( 0.0000000000000000000, 0.0000000000000000000, 1.000000000000000000 ) ) ;
#129 = DIRECTION ( 'NONE',  ( -1.000000000000000000, 0.0000000000000000000, 0.0000000000000000000 ) ) ;
#130 = CARTESIAN_POINT ( 'NONE',  ( -5.009326287108706300E-010, -1.999999996500434900, 13.25421788080231500 ) ) ;
#131 = AXIS2_PLACEMENT_3D ( 'NONE', #130, #129, #128 ) ;
#132 = CIRCLE ( 'NONE', #131, 2.000000000000001800 ) ;
#133 = CARTESIAN_POINT ( 'NONE',  ( -5.009326287108706300E-010, 3.499565220943523500E-009, 0.0000000000000000000 ) ) ;
#134 = CARTESIAN_POINT ( 'NONE',  ( 13.25421788030137000, 3.499565220943523500E-009, 0.0000000000000000000 ) ) ;
#135 = AXIS2_PLACEMENT_3D ( 'NONE', #134, #140, #138 ) ;
#136 = FACE_OUTER_BOUND ( 'NONE', #22, .T. ) ;
#137 = FACE_BOUND ( 'NONE', #18, .T. ) ;
#138 = DIRECTION ( 'NONE',  ( 0.0000000000000000000, 0.0000000000000000000, -1.000000000000000000 ) ) ;
#139 = FACE_OUTER_BOUND ( 'NONE', #29, .T. ) ;
#140 = DIRECTION ( 'NONE',  ( 0.0000000000000000000, -1.000000000000000000, 0.0000000000000000000 ) ) ;
#141 = PLANE ( 'NONE',  #135 ) ;
#142 = PLANE ( 'NONE',  #184 ) ;
#143 = FACE_BOUND ( 'NONE', #80, .T. ) ;
#144 = VECTOR ( 'NONE', #207, 1000.000000000000000 ) ;
#145 = CARTESIAN_POINT ( 'NONE',  ( -5.009326287108706300E-010, 2.412507003500041800, 6.000000000000000900 ) ) ;
#146 = LINE ( 'NONE', #145, #144 ) ;
#147 = DIRECTION ( 'NONE',  ( 0.0000000000000000000, 0.0000000000000000000, 1.000000000000000000 ) ) ;
#148 = DIRECTION ( 'NONE',  ( 0.0000000000000000000, 1.000000000000000000, 0.0000000000000000000 ) ) ;
#149 = CARTESIAN_POINT ( 'NONE',  ( -5.009326287108706300E-010, -1.729773587033820400, 0.0000000000000000000 ) ) ;
#150 = AXIS2_PLACEMENT_3D ( 'NONE', #149, #148, #147 ) ;
#151 = CIRCLE ( 'NONE', #150, 15.23587821689091500 ) ;
#152 = DIRECTION ( 'NONE',  ( 0.0000000000000000000, 0.0000000000000000000, 1.000000000000000000 ) ) ;
#153 = DIRECTION ( 'NONE',  ( 0.0000000000000000000, 1.000000000000000000, 0.0000000000000000000 ) ) ;
#154 = CARTESIAN_POINT ( 'NONE',  ( -5.009326287108706300E-010, 2.412507003500041800, 0.0000000000000000000 ) ) ;
#155 = AXIS2_PLACEMENT_3D ( 'NONE', #154, #153, #152 ) ;
#156 = CYLINDRICAL_SURFACE ( 'NONE', #155, 2.500000000000000900 ) ;
#157 = DIRECTION ( 'NONE',  ( 0.0000000000000000000, 0.0000000000000000000, 1.000000000000000000 ) ) ;
#158 = DIRECTION ( 'NONE',  ( 0.0000000000000000000, 0.0000000000000000000, 1.000000000000000000 ) ) ;
#159 = DIRECTION ( 'NONE',  ( 0.0000000000000000000, 1.000000000000000000, 0.0000000000000000000 ) ) ;
#160 = AXIS2_PLACEMENT_3D ( 'NONE', #163, #159, #157 ) ;
#161 = TOROIDAL_SURFACE ( 'NONE', #160, 13.25421788080231500, 2.000000000000000900 ) ;
#162 = FACE_OUTER_BOUND ( 'NONE', #73, .T. ) ;
#163 = CARTESIAN_POINT ( 'NONE',  ( -5.009326287108706300E-010, -1.999999996500434900, 0.0000000000000000000 ) ) ;
#164 = FACE_OUTER_BOUND ( 'NONE', #38, .T. ) ;
#165 = CARTESIAN_POINT ( 'NONE',  ( -5.009326287108706300E-010, -11.99999999650043500, 6.000000000000001800 ) ) ;
#166 = DIRECTION ( 'NONE',  ( 0.0000000000000000000, 0.0000000000000000000, 1.000000000000000000 ) ) ;
#167 = DIRECTION ( 'NONE',  ( 0.0000000000000000000, 1.000000000000000000, 0.0000000000000000000 ) ) ;
#168 = CARTESIAN_POINT ( 'NONE',  ( -5.009326287108706300E-010, -11.99999999650043500, 0.0000000000000000000 ) ) ;
#169 = AXIS2_PLACEMENT_3D ( 'NONE', #168, #167, #166 ) ;
#170 = CIRCLE ( 'NONE', #169, 6.000000000000001800 ) ;
#171 = CARTESIAN_POINT ( 'NONE',  ( -5.009308842532354700E-010, 3.499565220943523500E-009, -13.25421788080230300 ) ) ;
#172 = DIRECTION ( 'NONE',  ( 1.224606353612349900E-016, 0.0000000000000000000, -1.000000000000000000 ) ) ;
#173 = DIRECTION ( 'NONE',  ( 1.000000000000000000, 0.0000000000000000000, 1.224606353822377300E-016 ) ) ;
#174 = AXIS2_PLACEMENT_3D ( 'NONE', #180, #173, #172 ) ;
#175 = CIRCLE ( 'NONE', #174, 2.000000000000001800 ) ;
#176 = DIRECTION ( 'NONE',  ( 0.0000000000000000000, 0.0000000000000000000, 1.000000000000000000 ) ) ;
#177 = DIRECTION ( 'NONE',  ( 0.0000000000000000000, 1.000000000000000000, 0.0000000000000000000 ) ) ;
#178 = AXIS2_PLACEMENT_3D ( 'NONE', #185, #177, #176 ) ;
#179 = CIRCLE ( 'NONE', #178, 6.000000000000000000 ) ;
#180 = CARTESIAN_POINT ( 'NONE',  ( -5.009310055909274600E-010, -1.999999996500434900, -13.25421788080231500 ) ) ;
#181 = DIRECTION ( 'NONE',  ( 0.0000000000000000000, 0.0000000000000000000, 1.000000000000000000 ) ) ;
#182 = DIRECTION ( 'NONE',  ( 0.0000000000000000000, 1.000000000000000000, 0.0000000000000000000 ) ) ;
#183 = CARTESIAN_POINT ( 'NONE',  ( 2.499999999499068700, -21.99999999650043500, 0.0000000000000000000 ) ) ;
#184 = AXIS2_PLACEMENT_3D ( 'NONE', #183, #182, #181 ) ;
#185 = CARTESIAN_POINT ( 'NONE',  ( -5.009326287108706300E-010, 3.499565220943523500E-009, 0.0000000000000000000 ) ) ;
#186 = CARTESIAN_POINT ( 'NONE',  ( -5.009326287108706300E-010, -1.999999996500434900, 0.0000000000000000000 ) ) ;
#187 = DIRECTION ( 'NONE',  ( 0.0000000000000000000, 1.000000000000000000, 0.0000000000000000000 ) ) ;
#188 = FACE_OUTER_BOUND ( 'NONE', #30, .T. ) ;
#189 = CARTESIAN_POINT ( 'NONE',  ( -5.009318939470583400E-010, -11.99999999650043500, -6.000000000000002700 ) ) ;
#190 = CARTESIAN_POINT ( 'NONE',  ( -5.009326287108706300E-010, -11.99999999650043500, 2.500000000000000400 ) ) ;
#191 = DIRECTION ( 'NONE',  ( 0.0000000000000000000, 0.0000000000000000000, 1.000000000000000000 ) ) ;
#192 = DIRECTION ( 'NONE',  ( 0.0000000000000000000, 1.000000000000000000, 0.0000000000000000000 ) ) ;
#193 = AXIS2_PLACEMENT_3D ( 'NONE', #199, #192, #191 ) ;
#194 = CIRCLE ( 'NONE', #193, 2.500000000000000400 ) ;
#195 = DIRECTION ( 'NONE',  ( 0.0000000000000000000, 0.0000000000000000000, 1.000000000000000000 ) ) ;
#196 = DIRECTION ( 'NONE',  ( 0.0000000000000000000, 1.000000000000000000, 0.0000000000000000000 ) ) ;
#197 = CARTESIAN_POINT ( 'NONE',  ( -5.009326287108706300E-010, 2.412507003500041800, 0.0000000000000000000 ) ) ;
#198 = AXIS2_PLACEMENT_3D ( 'NONE', #197, #196, #195 ) ;
#199 = CARTESIAN_POINT ( 'NONE',  ( -5.009326287108706300E-010, -11.99999999650043500, 0.0000000000000000000 ) ) ;
#200 = CYLINDRICAL_SURFACE ( 'NONE', #198, 6.000000000000000900 ) ;
#201 = FACE_OUTER_BOUND ( 'NONE', #50, .T. ) ;
#202 = DIRECTION ( 'NONE',  ( 0.0000000000000000000, 1.000000000000000000, 0.0000000000000000000 ) ) ;
#203 = VECTOR ( 'NONE', #202, 1000.000000000000000 ) ;
#204 = CARTESIAN_POINT ( 'NONE',  ( -5.009318939470583400E-010, 2.412507003500041800, -6.000000000000000900 ) ) ;
#205 = LINE ( 'NONE', #204, #203 ) ;
#206 = CARTESIAN_POINT ( 'NONE',  ( -5.009326287108706300E-010, 3.499565220943523500E-009, 6.000000000000000000 ) ) ;
#207 = DIRECTION ( 'NONE',  ( 0.0000000000000000000, 1.000000000000000000, 0.0000000000000000000 ) ) ;
#208 = CARTESIAN_POINT ( 'NONE',  ( -5.009326287108706300E-010, -21.99999999650043500, 0.0000000000000000000 ) ) ;
#209 = AXIS2_PLACEMENT_3D ( 'NONE', #208, #304, #303 ) ;
#210 = DIRECTION ( 'NONE',  ( 0.0000000000000000000, 0.0000000000000000000, 1.000000000000000000 ) ) ;
#211 = DIRECTION ( 'NONE',  ( 0.0000000000000000000, 1.000000000000000000, 0.0000000000000000000 ) ) ;
#212 = DIRECTION ( 'NONE',  ( 0.0000000000000000000, 0.0000000000000000000, 1.000000000000000000 ) ) ;
#213 = DIRECTION ( 'NONE',  ( 0.0000000000000000000, 1.000000000000000000, 0.0000000000000000000 ) ) ;
#214 = CARTESIAN_POINT ( 'NONE',  ( -5.009326287108706300E-010, -21.99999999650043500, 0.0000000000000000000 ) ) ;
#215 = AXIS2_PLACEMENT_3D ( 'NONE', #214, #213, #212 ) ;
#216 = CIRCLE ( 'NONE', #215, 18.00000000000000000 ) ;
#217 = DIRECTION ( 'NONE',  ( 0.0000000000000000000, 0.0000000000000000000, -1.000000000000000000 ) ) ;
#218 = SECURITY_CLASSIFICATION ( '', '', #219 ) ;
#219 = SECURITY_CLASSIFICATION_LEVEL ( 'unclassified' ) ;
#220 = CC_DESIGN_PERSON_AND_ORGANIZATION_ASSIGNMENT ( #222, #221, ( #237 ) ) ;
#221 = PERSON_AND_ORGANIZATION_ROLE ( 'design_supplier' ) ;
#222 = PERSON_AND_ORGANIZATION ( #251, #250 ) ;
#223 = CC_DESIGN_PERSON_AND_ORGANIZATION_ASSIGNMENT ( #225, #224, ( #237 ) ) ;
#224 = PERSON_AND_ORGANIZATION_ROLE ( 'creator' ) ;
#225 = PERSON_AND_ORGANIZATION ( #251, #250 ) ;
#226 = CC_DESIGN_APPROVAL ( #234, ( #237 ) ) ;
#227 = APPROVAL_DATE_TIME ( #228, #234 ) ;
#228 = DATE_AND_TIME ( #229, #230 ) ;
#229 = CALENDAR_DATE ( 2009, 29, 6 ) ;
#230 = LOCAL_TIME ( 11, 19, 49.00000000000000000, #231 ) ;
#231 = COORDINATED_UNIVERSAL_TIME_OFFSET ( 9, 0, .AHEAD. ) ;
#232 = APPROVAL_PERSON_ORGANIZATION ( #236, #234, #233 ) ;
#233 = APPROVAL_ROLE ( '' ) ;
#234 = APPROVAL ( #235, 'UNSPECIFIED' ) ;
#235 = APPROVAL_STATUS ( 'not_yet_approved' ) ;
#236 = PERSON_AND_ORGANIZATION ( #251, #250 ) ;
#237 = PRODUCT_DEFINITION_FORMATION_WITH_SPECIFIED_SOURCE ( 'ANY', '', #252, .NOT_KNOWN. ) ;
#238 = CC_DESIGN_DATE_AND_TIME_ASSIGNMENT ( #240, #239, ( #337 ) ) ;
#239 = DATE_TIME_ROLE ( 'creation_date' ) ;
#240 = DATE_AND_TIME ( #241, #242 ) ;
#241 = CALENDAR_DATE ( 2009, 29, 6 ) ;
#242 = LOCAL_TIME ( 11, 19, 49.00000000000000000, #243 ) ;
#243 = COORDINATED_UNIVERSAL_TIME_OFFSET ( 9, 0, .AHEAD. ) ;
#244 = CC_DESIGN_PERSON_AND_ORGANIZATION_ASSIGNMENT ( #246, #245, ( #337 ) ) ;
#245 = PERSON_AND_ORGANIZATION_ROLE ( 'creator' ) ;
#246 = PERSON_AND_ORGANIZATION ( #251, #250 ) ;
#247 = CC_DESIGN_PERSON_AND_ORGANIZATION_ASSIGNMENT ( #249, #248, ( #252 ) ) ;
#248 = PERSON_AND_ORGANIZATION_ROLE ( 'design_owner' ) ;
#249 = PERSON_AND_ORGANIZATION ( #251, #250 ) ;
#250 = ORGANIZATION ( 'UNSPECIFIED', 'UNSPECIFIED', '' ) ;
#251 = PERSON ( 'UNSPECIFIED', 'UNSPECIFIED', 'UNSPECIFIED', ('UNSPECIFIED'), ('UNSPECIFIED'), ('UNSPECIFIED') ) ;
#252 = PRODUCT ( 'C-30-RK-36-gray', 'C-30-RK-36-gray', '', ( #253 ) ) ;
#253 = MECHANICAL_CONTEXT ( 'NONE', #255, 'mechanical' ) ;
#254 = APPLICATION_PROTOCOL_DEFINITION ( 'international standard', 'config_control_design', 1994, #255 ) ;
#255 = APPLICATION_CONTEXT ( 'configuration controlled 3d designs of mechanical parts and assemblies' ) ;
#256 = CARTESIAN_POINT ( 'NONE',  ( 5.999999999499069100, -11.99999999650043500, 0.0000000000000000000 ) ) ;
#257 = CIRCLE ( 'NONE', #362, 2.500000000000001300 ) ;
#258 = DIRECTION ( 'NONE',  ( 0.0000000000000000000, 0.0000000000000000000, 1.000000000000000000 ) ) ;
#259 = DIRECTION ( 'NONE',  ( 0.0000000000000000000, 1.000000000000000000, 0.0000000000000000000 ) ) ;
#260 = CARTESIAN_POINT ( 'NONE',  ( -5.009326287108706300E-010, 2.412507003500041800, 0.0000000000000000000 ) ) ;
#261 = CARTESIAN_POINT ( 'NONE',  ( -5.009326287108706300E-010, -21.99999999650043500, 0.0000000000000000000 ) ) ;
#262 = CONICAL_SURFACE ( 'NONE', #301, 18.00000000000000000, 0.1355277139855006200 ) ;
#263 = DIRECTION ( 'NONE',  ( 0.0000000000000000000, -1.000000000000000000, 0.0000000000000000000 ) ) ;
#264 = FACE_OUTER_BOUND ( 'NONE', #96, .T. ) ;
#265 = CARTESIAN_POINT ( 'NONE',  ( -5.009304244194337500E-010, -21.99999999650043500, 18.00000000000000000 ) ) ;
#266 = DIRECTION ( 'NONE',  ( 1.654604890017193000E-017, -0.9908301680442989100, 0.1351132047333134200 ) ) ;
#267 = VECTOR ( 'NONE', #266, 1000.000000000000100 ) ;
#268 = CARTESIAN_POINT ( 'NONE',  ( -5.009304244194337500E-010, -21.99999999650043500, 18.00000000000000000 ) ) ;
#269 = CARTESIAN_POINT ( 'NONE',  ( -5.009318939470583400E-010, 3.499565220943523500E-009, -6.000000000000000000 ) ) ;
#270 = FACE_OUTER_BOUND ( 'NONE', #64, .T. ) ;
#271 = DIRECTION ( 'NONE',  ( 0.0000000000000000000, 0.0000000000000000000, 1.000000000000000000 ) ) ;
#272 = DIRECTION ( 'NONE',  ( 0.0000000000000000000, 1.000000000000000000, 0.0000000000000000000 ) ) ;
#273 = CARTESIAN_POINT ( 'NONE',  ( -5.009326287108706300E-010, 3.499565220943523500E-009, 0.0000000000000000000 ) ) ;
#274 = AXIS2_PLACEMENT_3D ( 'NONE', #273, #272, #271 ) ;
#275 = CIRCLE ( 'NONE', #274, 13.25421788080230300 ) ;
#276 = DIRECTION ( 'NONE',  ( 0.0000000000000000000, 0.0000000000000000000, 1.000000000000000000 ) ) ;
#277 = DIRECTION ( 'NONE',  ( 0.0000000000000000000, 0.0000000000000000000, 1.000000000000000000 ) ) ;
#278 = DIRECTION ( 'NONE',  ( 0.0000000000000000000, 1.000000000000000000, 0.0000000000000000000 ) ) ;
#279 = CARTESIAN_POINT ( 'NONE',  ( -5.009326287108706300E-010, -21.99999999650043500, 0.0000000000000000000 ) ) ;
#280 = ADVANCED_BREP_SHAPE_REPRESENTATION ( 'C-30-RK-36-gray', ( #115, #321 ), #281 ) ;
#281 =( GEOMETRIC_REPRESENTATION_CONTEXT ( 3 ) GLOBAL_UNCERTAINTY_ASSIGNED_CONTEXT ( ( #282 ) ) GLOBAL_UNIT_ASSIGNED_CONTEXT ( ( #285, #284, #283 ) ) REPRESENTATION_CONTEXT ( 'NONE', 'WORKASPACE' ) );
#282 = UNCERTAINTY_MEASURE_WITH_UNIT (LENGTH_MEASURE( 1.000000000000000100E-005 ), #285, 'distance_accuracy_value', 'NONE');
#283 =( NAMED_UNIT ( * ) SI_UNIT ( $, .STERADIAN. ) SOLID_ANGLE_UNIT ( ) );
#284 =( NAMED_UNIT ( * ) PLANE_ANGLE_UNIT ( ) SI_UNIT ( $, .RADIAN. ) );
#285 =( LENGTH_UNIT ( ) NAMED_UNIT ( * ) SI_UNIT ( .MILLI., .METRE. ) );
#286 = DIRECTION ( 'NONE',  ( 0.0000000000000000000, 0.0000000000000000000, 1.000000000000000000 ) ) ;
#287 = DIRECTION ( 'NONE',  ( 0.0000000000000000000, 1.000000000000000000, 0.0000000000000000000 ) ) ;
#288 = AXIS2_PLACEMENT_3D ( 'NONE', #291, #287, #286 ) ;
#289 = CIRCLE ( 'NONE', #288, 2.500000000000000400 ) ;
#290 = PLANE ( 'NONE',  #381 ) ;
#291 = CARTESIAN_POINT ( 'NONE',  ( -5.009326287108706300E-010, -11.99999999650043500, 0.0000000000000000000 ) ) ;
#292 = FACE_BOUND ( 'NONE', #11, .T. ) ;
#293 = CYLINDRICAL_SURFACE ( 'NONE', #294, 2.500000000000000900 ) ;
#294 = AXIS2_PLACEMENT_3D ( 'NONE', #260, #259, #258 ) ;
#295 = FACE_OUTER_BOUND ( 'NONE', #88, .T. ) ;
#296 = VECTOR ( 'NONE', #341, 1000.000000000000100 ) ;
#297 = AXIS2_PLACEMENT_3D ( 'NONE', #325, #211, #210 ) ;
#298 = CIRCLE ( 'NONE', #297, 6.000000000000001800 ) ;
#299 = FACE_OUTER_BOUND ( 'NONE', #70, .T. ) ;
#300 = DIRECTION ( 'NONE',  ( 0.0000000000000000000, 0.0000000000000000000, -1.000000000000000000 ) ) ;
#301 = AXIS2_PLACEMENT_3D ( 'NONE', #261, #263, #300 ) ;
#302 = CARTESIAN_POINT ( 'NONE',  ( 0.0000000000000000000, 0.0000000000000000000, 0.0000000000000000000 ) ) ;
#303 = DIRECTION ( 'NONE',  ( 0.0000000000000000000, 0.0000000000000000000, -1.000000000000000000 ) ) ;
#304 = DIRECTION ( 'NONE',  ( 0.0000000000000000000, -1.000000000000000000, 0.0000000000000000000 ) ) ;
#305 = CARTESIAN_POINT ( 'NONE',  ( -5.009307629155435700E-010, -1.729773587033820400, -15.23587821689091500 ) ) ;
#306 = DIRECTION ( 'NONE',  ( 0.0000000000000000000, 0.0000000000000000000, 1.000000000000000000 ) ) ;
#307 = CONICAL_SURFACE ( 'NONE', #209, 18.00000000000000000, 0.1355277139855006200 ) ;
#308 = LINE ( 'NONE', #268, #267 ) ;
#309 = DIRECTION ( 'NONE',  ( 0.0000000000000000000, 0.0000000000000000000, 1.000000000000000000 ) ) ;
#310 = DIRECTION ( 'NONE',  ( 0.0000000000000000000, 1.000000000000000000, 0.0000000000000000000 ) ) ;
#311 = CARTESIAN_POINT ( 'NONE',  ( -5.009326287108706300E-010, -21.99999999650043500, 0.0000000000000000000 ) ) ;
#312 = AXIS2_PLACEMENT_3D ( 'NONE', #311, #310, #309 ) ;
#313 = CIRCLE ( 'NONE', #312, 2.500000000000001300 ) ;
#314 = CARTESIAN_POINT ( 'NONE',  ( -5.009326287108706300E-010, -21.99999999650043500, -18.00000000000000000 ) ) ;
#315 = CARTESIAN_POINT ( 'NONE',  ( -5.009326287108706300E-010, 3.499565220943523500E-009, 13.25421788080230300 ) ) ;
#316 = DIRECTION ( 'NONE',  ( 0.0000000000000000000, 1.000000000000000000, 0.0000000000000000000 ) ) ;
#317 = CARTESIAN_POINT ( 'NONE',  ( -5.009326287108706300E-010, -1.729773587033820400, 0.0000000000000000000 ) ) ;
#318 = AXIS2_PLACEMENT_3D ( 'NONE', #317, #316, #306 ) ;
#319 = CIRCLE ( 'NONE', #318, 15.23587821689091500 ) ;
#320 = CARTESIAN_POINT ( 'NONE',  ( -5.009326287108706300E-010, -1.729773587033820400, 15.23587821689091500 ) ) ;
#321 = AXIS2_PLACEMENT_3D ( 'NONE', #302, #364, #363 ) ;
#322 = SHAPE_DEFINITION_REPRESENTATION ( #365, #280 ) ;
#323 = AXIS2_PLACEMENT_3D ( 'NONE', #279, #278, #277 ) ;
#324 = CIRCLE ( 'NONE', #323, 18.00000000000000000 ) ;
#325 = CARTESIAN_POINT ( 'NONE',  ( -5.009326287108706300E-010, -11.99999999650043500, 0.0000000000000000000 ) ) ;
#326 = CC_DESIGN_APPROVAL ( #334, ( #337 ) ) ;
#327 = APPROVAL_DATE_TIME ( #328, #334 ) ;
#328 = DATE_AND_TIME ( #329, #330 ) ;
#329 = CALENDAR_DATE ( 2009, 29, 6 ) ;
#330 = LOCAL_TIME ( 11, 19, 49.00000000000000000, #331 ) ;
#331 = COORDINATED_UNIVERSAL_TIME_OFFSET ( 9, 0, .AHEAD. ) ;
#332 = APPROVAL_PERSON_ORGANIZATION ( #336, #334, #333 ) ;
#333 = APPROVAL_ROLE ( '' ) ;
#334 = APPROVAL ( #335, 'UNSPECIFIED' ) ;
#335 = APPROVAL_STATUS ( 'not_yet_approved' ) ;
#336 = PERSON_AND_ORGANIZATION ( #251, #250 ) ;
#337 = PRODUCT_DEFINITION ( 'UNKNOWN', '', #237, #338 ) ;
#338 = DESIGN_CONTEXT ( 'detailed design', #340, 'design' ) ;
#339 = APPLICATION_PROTOCOL_DEFINITION ( 'international standard', 'config_control_design', 1994, #340 ) ;
#340 = APPLICATION_CONTEXT ( 'configuration controlled 3d designs of mechanical parts and assemblies' ) ;
#341 = DIRECTION ( 'NONE',  ( 0.0000000000000000000, -0.9908301680442989100, -0.1351132047333134200 ) ) ;
#342 = CARTESIAN_POINT ( 'NONE',  ( -5.009326287108706300E-010, -21.99999999650043500, -18.00000000000000000 ) ) ;
#343 = LINE ( 'NONE', #342, #296 ) ;
#344 = CARTESIAN_POINT ( 'NONE',  ( -5.009323225592821800E-010, -11.99999999650043500, -2.500000000000000400 ) ) ;
#345 = APPROVAL ( #346, 'UNSPECIFIED' ) ;
#346 = APPROVAL_STATUS ( 'not_yet_approved' ) ;
#347 = PERSON_AND_ORGANIZATION ( #251, #250 ) ;
#348 = CC_DESIGN_DATE_AND_TIME_ASSIGNMENT ( #350, #349, ( #218 ) ) ;
#349 = DATE_TIME_ROLE ( 'classification_date' ) ;
#350 = DATE_AND_TIME ( #351, #352 ) ;
#351 = CALENDAR_DATE ( 2009, 29, 6 ) ;
#352 = LOCAL_TIME ( 11, 19, 49.00000000000000000, #353 ) ;
#353 = COORDINATED_UNIVERSAL_TIME_OFFSET ( 9, 0, .AHEAD. ) ;
#354 = CC_DESIGN_PERSON_AND_ORGANIZATION_ASSIGNMENT ( #356, #355, ( #218 ) ) ;
#355 = PERSON_AND_ORGANIZATION_ROLE ( 'classification_officer' ) ;
#356 = PERSON_AND_ORGANIZATION ( #251, #250 ) ;
#357 = CARTESIAN_POINT ( 'NONE',  ( -5.009326287108706300E-010, -21.99999999650043500, 2.500000000000001300 ) ) ;
#358 = CARTESIAN_POINT ( 'NONE',  ( -5.009323225592821800E-010, -21.99999999650043500, -2.500000000000001300 ) ) ;
#359 = DIRECTION ( 'NONE',  ( 0.0000000000000000000, 0.0000000000000000000, 1.000000000000000000 ) ) ;
#360 = DIRECTION ( 'NONE',  ( 0.0000000000000000000, 1.000000000000000000, 0.0000000000000000000 ) ) ;
#361 = CARTESIAN_POINT ( 'NONE',  ( -5.009326287108706300E-010, -21.99999999650043500, 0.0000000000000000000 ) ) ;
#362 = AXIS2_PLACEMENT_3D ( 'NONE', #361, #360, #359 ) ;
#363 = DIRECTION ( 'NONE',  ( 1.000000000000000000, 0.0000000000000000000, 0.0000000000000000000 ) ) ;
#364 = DIRECTION ( 'NONE',  ( 0.0000000000000000000, 0.0000000000000000000, 1.000000000000000000 ) ) ;
#365 = PRODUCT_DEFINITION_SHAPE ( 'NONE', 'NONE',  #337 ) ;
#366 = PRODUCT_RELATED_PRODUCT_CATEGORY ( 'detail', '', ( #252 ) ) ;
#367 = CC_DESIGN_SECURITY_CLASSIFICATION ( #218, ( #237 ) ) ;
#368 = CC_DESIGN_APPROVAL ( #345, ( #218 ) ) ;
#369 = APPROVAL_DATE_TIME ( #370, #345 ) ;
#370 = DATE_AND_TIME ( #371, #372 ) ;
#371 = CALENDAR_DATE ( 2009, 29, 6 ) ;
#372 = LOCAL_TIME ( 11, 19, 49.00000000000000000, #373 ) ;
#373 = COORDINATED_UNIVERSAL_TIME_OFFSET ( 9, 0, .AHEAD. ) ;
#374 = APPROVAL_PERSON_ORGANIZATION ( #347, #345, #375 ) ;
#375 = APPROVAL_ROLE ( '' ) ;
#376 = DIRECTION ( 'NONE',  ( 0.0000000000000000000, 1.000000000000000000, 0.0000000000000000000 ) ) ;
#377 = VECTOR ( 'NONE', #376, 1000.000000000000000 ) ;
#378 = CARTESIAN_POINT ( 'NONE',  ( -5.009323225592821800E-010, 2.412507003500041800, -2.500000000000000900 ) ) ;
#379 = LINE ( 'NONE', #378, #377 ) ;
#380 = DIRECTION ( 'NONE',  ( 0.0000000000000000000, -1.000000000000000000, 0.0000000000000000000 ) ) ;
#381 = AXIS2_PLACEMENT_3D ( 'NONE', #256, #380, #217 ) ;
ENDSEC;
END-ISO-10303-21;
