ISO-10303-21;
HEADER;
FILE_DESCRIPTION (( 'STEP AP203' ),
    '1' );
FILE_NAME ('C-30-RK-36.STEP',
    '2009-06-26T07:02:57',
    ( '11sw' ),
    ( '^LQ»¢®ïÐ' ),
    'SwSTEP 2.0',
    'SolidWorks 2007',
    '' );
FILE_SCHEMA (( 'CONFIG_CONTROL_DESIGN' ));
ENDSEC;

DATA;
#1 = ORIENTED_EDGE ( 'NONE', *, *, #78, .T. ) ;
#2 = EDGE_CURVE ( 'NONE', #92, #91, #293, .T. ) ;
#3 = EDGE_LOOP ( 'NONE', ( #4, #5, #1, #31 ) ) ;
#4 = ORIENTED_EDGE ( 'NONE', *, *, #119, .F. ) ;
#5 = ORIENTED_EDGE ( 'NONE', *, *, #2, .F. ) ;
#6 = ADVANCED_FACE ( 'NONE', ( #294 ), #295, .F. ) ;
#7 = ORIENTED_EDGE ( 'NONE', *, *, #82, .T. ) ;
#8 = ORIENTED_EDGE ( 'NONE', *, *, #10, .F. ) ;
#9 = ORIENTED_EDGE ( 'NONE', *, *, #74, .F. ) ;
#10 = EDGE_CURVE ( 'NONE', #76, #113, #287, .T. ) ;
#11 = ORIENTED_EDGE ( 'NONE', *, *, #65, .T. ) ;
#12 = EDGE_LOOP ( 'NONE', ( #11, #7 ) ) ;
#13 = PRODUCT_DEFINITION ( 'UNKNOWN', '', #375, #15 ) ;
#14 = APPLICATION_PROTOCOL_DEFINITION ( 'international standard', 'config_control_design', 1994, #17 ) ;
#15 = DESIGN_CONTEXT ( 'detailed design', #318, 'design' ) ;
#16 = MECHANICAL_CONTEXT ( 'NONE', #17, 'mechanical' ) ;
#17 = APPLICATION_CONTEXT ( 'configuration controlled 3d designs of mechanical parts and assemblies' ) ;
#18 = APPLICATION_PROTOCOL_DEFINITION ( 'international standard', 'config_control_design', 1994, #318 ) ;
#19 = APPROVAL ( #20, 'UNSPECIFIED' ) ;
#20 = APPROVAL_STATUS ( 'not_yet_approved' ) ;
#21 = PERSON_AND_ORGANIZATION ( #22, #321 ) ;
#22 = PERSON ( 'UNSPECIFIED', 'UNSPECIFIED', 'UNSPECIFIED', ('UNSPECIFIED'), ('UNSPECIFIED'), ('UNSPECIFIED') ) ;
#23 = PRODUCT ( 'C-30-RK-36', 'C-30-RK-36', '', ( #16 ) ) ;
#24 = APPROVAL_ROLE ( '' ) ;
#25 = COORDINATED_UNIVERSAL_TIME_OFFSET ( 9, 0, .AHEAD. ) ;
#26 = APPROVAL_PERSON_ORGANIZATION ( #21, #19, #24 ) ;
#27 = CALENDAR_DATE ( 2009, 26, 6 ) ;
#28 = LOCAL_TIME ( 16, 2, 57.00000000000000000, #25 ) ;
#29 = APPROVAL_DATE_TIME ( #30, #19 ) ;
#30 = DATE_AND_TIME ( #27, #28 ) ;
#31 = ORIENTED_EDGE ( 'NONE', *, *, #10, .T. ) ;
#32 = ADVANCED_FACE ( 'NONE', ( #288, #282 ), #314, .F. ) ;
#33 = EDGE_LOOP ( 'NONE', ( #34, #36 ) ) ;
#34 = ORIENTED_EDGE ( 'NONE', *, *, #35, .F. ) ;
#35 = EDGE_CURVE ( 'NONE', #88, #108, #309, .T. ) ;
#36 = ORIENTED_EDGE ( 'NONE', *, *, #98, .F. ) ;
#37 = EDGE_LOOP ( 'NONE', ( #38, #39 ) ) ;
#38 = ORIENTED_EDGE ( 'NONE', *, *, #2, .T. ) ;
#39 = ORIENTED_EDGE ( 'NONE', *, *, #90, .T. ) ;
#40 = ADVANCED_FACE ( 'NONE', ( #304 ), #303, .F. ) ;
#41 = EDGE_LOOP ( 'NONE', ( #42, #43, #45, #46 ) ) ;
#42 = ORIENTED_EDGE ( 'NONE', *, *, #107, .F. ) ;
#43 = ORIENTED_EDGE ( 'NONE', *, *, #44, .F. ) ;
#44 = EDGE_CURVE ( 'NONE', #105, #104, #221, .T. ) ;
#45 = ORIENTED_EDGE ( 'NONE', *, *, #95, .T. ) ;
#46 = ORIENTED_EDGE ( 'NONE', *, *, #35, .T. ) ;
#47 = ADVANCED_FACE ( 'NONE', ( #217, #216 ), #215, .F. ) ;
#48 = EDGE_LOOP ( 'NONE', ( #49, #51 ) ) ;
#49 = ORIENTED_EDGE ( 'NONE', *, *, #50, .F. ) ;
#50 = EDGE_CURVE ( 'NONE', #103, #115, #210, .T. ) ;
#51 = ORIENTED_EDGE ( 'NONE', *, *, #111, .F. ) ;
#52 = EDGE_LOOP ( 'NONE', ( #53, #54 ) ) ;
#53 = ORIENTED_EDGE ( 'NONE', *, *, #44, .T. ) ;
#54 = ORIENTED_EDGE ( 'NONE', *, *, #102, .T. ) ;
#55 = ADVANCED_FACE ( 'NONE', ( #205 ), #204, .T. ) ;
#56 = EDGE_LOOP ( 'NONE', ( #57, #58, #59, #60 ) ) ;
#57 = ORIENTED_EDGE ( 'NONE', *, *, #116, .F. ) ;
#58 = ORIENTED_EDGE ( 'NONE', *, *, #73, .F. ) ;
#59 = ORIENTED_EDGE ( 'NONE', *, *, #109, .T. ) ;
#60 = ORIENTED_EDGE ( 'NONE', *, *, #50, .T. ) ;
#61 = CLOSED_SHELL ( 'NONE', ( #123, #100, #96, #85, #69, #83, #6, #32, #40, #47, #55 ) ) ;
#62 = EDGE_CURVE ( 'NONE', #121, #63, #203, .T. ) ;
#63 = VERTEX_POINT ( 'NONE', #194 ) ;
#64 = ORIENTED_EDGE ( 'NONE', *, *, #65, .F. ) ;
#65 = EDGE_CURVE ( 'NONE', #66, #63, #193, .T. ) ;
#66 = VERTEX_POINT ( 'NONE', #188 ) ;
#67 = ORIENTED_EDGE ( 'NONE', *, *, #68, .F. ) ;
#68 = EDGE_CURVE ( 'NONE', #122, #66, #187, .T. ) ;
#69 = ADVANCED_FACE ( 'NONE', ( #182 ), #181, .T. ) ;
#70 = EDGE_LOOP ( 'NONE', ( #71, #72, #80, #81 ) ) ;
#71 = ORIENTED_EDGE ( 'NONE', *, *, #62, .F. ) ;
#72 = ORIENTED_EDGE ( 'NONE', *, *, #73, .T. ) ;
#73 = EDGE_CURVE ( 'NONE', #121, #122, #176, .T. ) ;
#74 = EDGE_CURVE ( 'NONE', #113, #76, #171, .T. ) ;
#75 = ORIENTED_EDGE ( 'NONE', *, *, #74, .T. ) ;
#76 = VERTEX_POINT ( 'NONE', #166 ) ;
#77 = ORIENTED_EDGE ( 'NONE', *, *, #78, .F. ) ;
#78 = EDGE_CURVE ( 'NONE', #92, #76, #165, .T. ) ;
#79 = EDGE_LOOP ( 'NONE', ( #86, #87, #64, #67 ) ) ;
#80 = ORIENTED_EDGE ( 'NONE', *, *, #68, .T. ) ;
#81 = ORIENTED_EDGE ( 'NONE', *, *, #82, .F. ) ;
#82 = EDGE_CURVE ( 'NONE', #63, #66, #161, .T. ) ;
#83 = ADVANCED_FACE ( 'NONE', ( #156, #155 ), #154, .F. ) ;
#84 = EDGE_LOOP ( 'NONE', ( #8, #9 ) ) ;
#85 = ADVANCED_FACE ( 'NONE', ( #149 ), #148, .T. ) ;
#86 = ORIENTED_EDGE ( 'NONE', *, *, #117, .T. ) ;
#87 = ORIENTED_EDGE ( 'NONE', *, *, #62, .T. ) ;
#88 = VERTEX_POINT ( 'NONE', #143 ) ;
#89 = ORIENTED_EDGE ( 'NONE', *, *, #90, .F. ) ;
#90 = EDGE_CURVE ( 'NONE', #91, #92, #142, .T. ) ;
#91 = VERTEX_POINT ( 'NONE', #137 ) ;
#92 = VERTEX_POINT ( 'NONE', #136 ) ;
#93 = ORIENTED_EDGE ( 'NONE', *, *, #119, .T. ) ;
#94 = ORIENTED_EDGE ( 'NONE', *, *, #95, .F. ) ;
#95 = EDGE_CURVE ( 'NONE', #105, #88, #135, .T. ) ;
#96 = ADVANCED_FACE ( 'NONE', ( #131 ), #130, .F. ) ;
#97 = EDGE_LOOP ( 'NONE', ( #89, #93, #75, #77 ) ) ;
#98 = EDGE_CURVE ( 'NONE', #108, #88, #252, .T. ) ;
#99 = ORIENTED_EDGE ( 'NONE', *, *, #109, .F. ) ;
#100 = ADVANCED_FACE ( 'NONE', ( #253 ), #245, .F. ) ;
#101 = ORIENTED_EDGE ( 'NONE', *, *, #102, .F. ) ;
#102 = EDGE_CURVE ( 'NONE', #104, #105, #241, .T. ) ;
#103 = VERTEX_POINT ( 'NONE', #237 ) ;
#104 = VERTEX_POINT ( 'NONE', #236 ) ;
#105 = VERTEX_POINT ( 'NONE', #235 ) ;
#106 = ORIENTED_EDGE ( 'NONE', *, *, #107, .T. ) ;
#107 = EDGE_CURVE ( 'NONE', #104, #108, #234, .T. ) ;
#108 = VERTEX_POINT ( 'NONE', #230 ) ;
#109 = EDGE_CURVE ( 'NONE', #121, #103, #229, .T. ) ;
#110 = EDGE_LOOP ( 'NONE', ( #101, #106, #120, #94 ) ) ;
#111 = EDGE_CURVE ( 'NONE', #115, #103, #225, .T. ) ;
#112 = ORIENTED_EDGE ( 'NONE', *, *, #111, .T. ) ;
#113 = VERTEX_POINT ( 'NONE', #280 ) ;
#114 = ORIENTED_EDGE ( 'NONE', *, *, #116, .T. ) ;
#115 = VERTEX_POINT ( 'NONE', #279 ) ;
#116 = EDGE_CURVE ( 'NONE', #122, #115, #278, .T. ) ;
#117 = EDGE_CURVE ( 'NONE', #122, #121, #274, .T. ) ;
#118 = ORIENTED_EDGE ( 'NONE', *, *, #117, .F. ) ;
#119 = EDGE_CURVE ( 'NONE', #91, #113, #269, .T. ) ;
#120 = ORIENTED_EDGE ( 'NONE', *, *, #98, .T. ) ;
#121 = VERTEX_POINT ( 'NONE', #265 ) ;
#122 = VERTEX_POINT ( 'NONE', #264 ) ;
#123 = ADVANCED_FACE ( 'NONE', ( #263 ), #260, .T. ) ;
#124 = MANIFOLD_SOLID_BREP ( 'NONE', #61 ) ;
#125 = EDGE_LOOP ( 'NONE', ( #118, #114, #112, #99 ) ) ;
#126 = DIRECTION ( 'NONE',  ( 0.0000000000000000000, 0.0000000000000000000, 1.000000000000000000 ) ) ;
#127 = DIRECTION ( 'NONE',  ( 0.0000000000000000000, 1.000000000000000000, 0.0000000000000000000 ) ) ;
#128 = CARTESIAN_POINT ( 'NONE',  ( -5.009326287108706300E-010, 2.412507003500041800, 0.0000000000000000000 ) ) ;
#129 = AXIS2_PLACEMENT_3D ( 'NONE', #128, #127, #126 ) ;
#130 = CYLINDRICAL_SURFACE ( 'NONE', #129, 6.000000000000000900 ) ;
#131 = FACE_OUTER_BOUND ( 'NONE', #97, .T. ) ;
#132 = DIRECTION ( 'NONE',  ( 0.0000000000000000000, 1.000000000000000000, 0.0000000000000000000 ) ) ;
#133 = VECTOR ( 'NONE', #132, 1000.000000000000000 ) ;
#134 = CARTESIAN_POINT ( 'NONE',  ( -5.009326287108706300E-010, 2.412507003500041800, 2.500000000000000900 ) ) ;
#135 = LINE ( 'NONE', #134, #133 ) ;
#136 = CARTESIAN_POINT ( 'NONE',  ( -5.009326287108706300E-010, -11.99999999650043500, 6.000000000000001800 ) ) ;
#137 = CARTESIAN_POINT ( 'NONE',  ( -5.009318939470583400E-010, -11.99999999650043500, -6.000000000000001800 ) ) ;
#138 = DIRECTION ( 'NONE',  ( 0.0000000000000000000, 0.0000000000000000000, 1.000000000000000000 ) ) ;
#139 = DIRECTION ( 'NONE',  ( 0.0000000000000000000, 1.000000000000000000, 0.0000000000000000000 ) ) ;
#140 = CARTESIAN_POINT ( 'NONE',  ( -5.009326287108706300E-010, -11.99999999650043500, 0.0000000000000000000 ) ) ;
#141 = AXIS2_PLACEMENT_3D ( 'NONE', #140, #139, #138 ) ;
#142 = CIRCLE ( 'NONE', #141, 6.000000000000001800 ) ;
#143 = CARTESIAN_POINT ( 'NONE',  ( -5.009326287108706300E-010, -11.99999999650043500, 2.500000000000000400 ) ) ;
#144 = DIRECTION ( 'NONE',  ( 0.0000000000000000000, 0.0000000000000000000, 1.000000000000000000 ) ) ;
#145 = DIRECTION ( 'NONE',  ( 0.0000000000000000000, 1.000000000000000000, 0.0000000000000000000 ) ) ;
#146 = CARTESIAN_POINT ( 'NONE',  ( -5.009326287108706300E-010, -1.999999996500434900, 0.0000000000000000000 ) ) ;
#147 = AXIS2_PLACEMENT_3D ( 'NONE', #146, #145, #144 ) ;
#148 = TOROIDAL_SURFACE ( 'NONE', #147, 13.25421788080231500, 2.000000000000000900 ) ;
#149 = FACE_OUTER_BOUND ( 'NONE', #79, .T. ) ;
#150 = DIRECTION ( 'NONE',  ( 0.0000000000000000000, 0.0000000000000000000, -1.000000000000000000 ) ) ;
#151 = DIRECTION ( 'NONE',  ( 0.0000000000000000000, -1.000000000000000000, 0.0000000000000000000 ) ) ;
#152 = CARTESIAN_POINT ( 'NONE',  ( 13.25421788030137000, 3.499565220943523500E-009, 0.0000000000000000000 ) ) ;
#153 = AXIS2_PLACEMENT_3D ( 'NONE', #152, #151, #150 ) ;
#154 = PLANE ( 'NONE',  #153 ) ;
#155 = FACE_OUTER_BOUND ( 'NONE', #12, .T. ) ;
#156 = FACE_BOUND ( 'NONE', #84, .T. ) ;
#157 = DIRECTION ( 'NONE',  ( 0.0000000000000000000, 0.0000000000000000000, 1.000000000000000000 ) ) ;
#158 = DIRECTION ( 'NONE',  ( 0.0000000000000000000, 1.000000000000000000, 0.0000000000000000000 ) ) ;
#159 = CARTESIAN_POINT ( 'NONE',  ( -5.009326287108706300E-010, 3.499565220943523500E-009, 0.0000000000000000000 ) ) ;
#160 = AXIS2_PLACEMENT_3D ( 'NONE', #159, #158, #157 ) ;
#161 = CIRCLE ( 'NONE', #160, 13.25421788080230300 ) ;
#162 = DIRECTION ( 'NONE',  ( 0.0000000000000000000, 1.000000000000000000, 0.0000000000000000000 ) ) ;
#163 = VECTOR ( 'NONE', #162, 1000.000000000000000 ) ;
#164 = CARTESIAN_POINT ( 'NONE',  ( -5.009326287108706300E-010, 2.412507003500041800, 6.000000000000000900 ) ) ;
#165 = LINE ( 'NONE', #164, #163 ) ;
#166 = CARTESIAN_POINT ( 'NONE',  ( -5.009326287108706300E-010, 3.499565220943523500E-009, 6.000000000000000000 ) ) ;
#167 = DIRECTION ( 'NONE',  ( 0.0000000000000000000, 0.0000000000000000000, 1.000000000000000000 ) ) ;
#168 = DIRECTION ( 'NONE',  ( 0.0000000000000000000, 1.000000000000000000, 0.0000000000000000000 ) ) ;
#169 = CARTESIAN_POINT ( 'NONE',  ( -5.009326287108706300E-010, 3.499565220943523500E-009, 0.0000000000000000000 ) ) ;
#170 = AXIS2_PLACEMENT_3D ( 'NONE', #169, #168, #167 ) ;
#171 = CIRCLE ( 'NONE', #170, 6.000000000000000000 ) ;
#172 = DIRECTION ( 'NONE',  ( 0.0000000000000000000, 0.0000000000000000000, 1.000000000000000000 ) ) ;
#173 = DIRECTION ( 'NONE',  ( 0.0000000000000000000, 1.000000000000000000, 0.0000000000000000000 ) ) ;
#174 = CARTESIAN_POINT ( 'NONE',  ( -5.009326287108706300E-010, -1.729773587033820400, 0.0000000000000000000 ) ) ;
#175 = AXIS2_PLACEMENT_3D ( 'NONE', #174, #173, #172 ) ;
#176 = CIRCLE ( 'NONE', #175, 15.23587821689091500 ) ;
#177 = DIRECTION ( 'NONE',  ( 0.0000000000000000000, 0.0000000000000000000, 1.000000000000000000 ) ) ;
#178 = DIRECTION ( 'NONE',  ( 0.0000000000000000000, 1.000000000000000000, 0.0000000000000000000 ) ) ;
#179 = CARTESIAN_POINT ( 'NONE',  ( -5.009326287108706300E-010, -1.999999996500434900, 0.0000000000000000000 ) ) ;
#180 = AXIS2_PLACEMENT_3D ( 'NONE', #179, #178, #177 ) ;
#181 = TOROIDAL_SURFACE ( 'NONE', #180, 13.25421788080231500, 2.000000000000000900 ) ;
#182 = FACE_OUTER_BOUND ( 'NONE', #70, .T. ) ;
#183 = DIRECTION ( 'NONE',  ( 0.0000000000000000000, 0.0000000000000000000, 1.000000000000000000 ) ) ;
#184 = DIRECTION ( 'NONE',  ( -1.000000000000000000, 0.0000000000000000000, 0.0000000000000000000 ) ) ;
#185 = CARTESIAN_POINT ( 'NONE',  ( -5.009326287108706300E-010, -1.999999996500434900, 13.25421788080231500 ) ) ;
#186 = AXIS2_PLACEMENT_3D ( 'NONE', #185, #184, #183 ) ;
#187 = CIRCLE ( 'NONE', #186, 2.000000000000001800 ) ;
#188 = CARTESIAN_POINT ( 'NONE',  ( -5.009326287108706300E-010, 3.499565220943523500E-009, 13.25421788080230300 ) ) ;
#189 = DIRECTION ( 'NONE',  ( 0.0000000000000000000, 0.0000000000000000000, 1.000000000000000000 ) ) ;
#190 = DIRECTION ( 'NONE',  ( 0.0000000000000000000, 1.000000000000000000, 0.0000000000000000000 ) ) ;
#191 = CARTESIAN_POINT ( 'NONE',  ( -5.009326287108706300E-010, 3.499565220943523500E-009, 0.0000000000000000000 ) ) ;
#192 = AXIS2_PLACEMENT_3D ( 'NONE', #191, #190, #189 ) ;
#193 = CIRCLE ( 'NONE', #192, 13.25421788080230300 ) ;
#194 = CARTESIAN_POINT ( 'NONE',  ( -5.009308842532354700E-010, 3.499565220943523500E-009, -13.25421788080230300 ) ) ;
#195 = DIRECTION ( 'NONE',  ( 1.224606353612349900E-016, 0.0000000000000000000, -1.000000000000000000 ) ) ;
#196 = DIRECTION ( 'NONE',  ( 1.000000000000000000, 0.0000000000000000000, 1.224606353822377300E-016 ) ) ;
#197 = CARTESIAN_POINT ( 'NONE',  ( -5.009310055909274600E-010, -1.999999996500434900, -13.25421788080231500 ) ) ;
#198 = AXIS2_PLACEMENT_3D ( 'NONE', #197, #196, #195 ) ;
#199 = DIRECTION ( 'NONE',  ( 0.0000000000000000000, 0.0000000000000000000, -1.000000000000000000 ) ) ;
#200 = DIRECTION ( 'NONE',  ( 0.0000000000000000000, -1.000000000000000000, 0.0000000000000000000 ) ) ;
#201 = CARTESIAN_POINT ( 'NONE',  ( -5.009326287108706300E-010, -21.99999999650043500, 0.0000000000000000000 ) ) ;
#202 = AXIS2_PLACEMENT_3D ( 'NONE', #201, #200, #199 ) ;
#203 = CIRCLE ( 'NONE', #198, 2.000000000000001800 ) ;
#204 = CONICAL_SURFACE ( 'NONE', #202, 18.00000000000000000, 0.1355277139855006200 ) ;
#205 = FACE_OUTER_BOUND ( 'NONE', #56, .T. ) ;
#206 = DIRECTION ( 'NONE',  ( 0.0000000000000000000, 0.0000000000000000000, 1.000000000000000000 ) ) ;
#207 = DIRECTION ( 'NONE',  ( 0.0000000000000000000, 1.000000000000000000, 0.0000000000000000000 ) ) ;
#208 = CARTESIAN_POINT ( 'NONE',  ( -5.009326287108706300E-010, -21.99999999650043500, 0.0000000000000000000 ) ) ;
#209 = AXIS2_PLACEMENT_3D ( 'NONE', #208, #207, #206 ) ;
#210 = CIRCLE ( 'NONE', #209, 18.00000000000000000 ) ;
#211 = DIRECTION ( 'NONE',  ( 0.0000000000000000000, 0.0000000000000000000, 1.000000000000000000 ) ) ;
#212 = DIRECTION ( 'NONE',  ( 0.0000000000000000000, 1.000000000000000000, 0.0000000000000000000 ) ) ;
#213 = CARTESIAN_POINT ( 'NONE',  ( 2.499999999499068700, -21.99999999650043500, 0.0000000000000000000 ) ) ;
#214 = AXIS2_PLACEMENT_3D ( 'NONE', #213, #212, #211 ) ;
#215 = PLANE ( 'NONE',  #214 ) ;
#216 = FACE_BOUND ( 'NONE', #52, .T. ) ;
#217 = FACE_OUTER_BOUND ( 'NONE', #48, .T. ) ;
#218 = DIRECTION ( 'NONE',  ( 0.0000000000000000000, 0.0000000000000000000, 1.000000000000000000 ) ) ;
#219 = DIRECTION ( 'NONE',  ( 0.0000000000000000000, 1.000000000000000000, 0.0000000000000000000 ) ) ;
#220 = AXIS2_PLACEMENT_3D ( 'NONE', #302, #219, #218 ) ;
#221 = CIRCLE ( 'NONE', #220, 2.500000000000001300 ) ;
#222 = DIRECTION ( 'NONE',  ( 0.0000000000000000000, 1.000000000000000000, 0.0000000000000000000 ) ) ;
#223 = CARTESIAN_POINT ( 'NONE',  ( -5.009326287108706300E-010, -21.99999999650043500, 0.0000000000000000000 ) ) ;
#224 = AXIS2_PLACEMENT_3D ( 'NONE', #223, #222, #281 ) ;
#225 = CIRCLE ( 'NONE', #224, 18.00000000000000000 ) ;
#226 = DIRECTION ( 'NONE',  ( 0.0000000000000000000, -0.9908301680442989100, -0.1351132047333134200 ) ) ;
#227 = VECTOR ( 'NONE', #226, 1000.000000000000100 ) ;
#228 = CARTESIAN_POINT ( 'NONE',  ( -5.009326287108706300E-010, -21.99999999650043500, -18.00000000000000000 ) ) ;
#229 = LINE ( 'NONE', #228, #227 ) ;
#230 = CARTESIAN_POINT ( 'NONE',  ( -5.009323225592821800E-010, -11.99999999650043500, -2.500000000000000400 ) ) ;
#231 = DIRECTION ( 'NONE',  ( 0.0000000000000000000, 1.000000000000000000, 0.0000000000000000000 ) ) ;
#232 = VECTOR ( 'NONE', #231, 1000.000000000000000 ) ;
#233 = CARTESIAN_POINT ( 'NONE',  ( -5.009323225592821800E-010, 2.412507003500041800, -2.500000000000000900 ) ) ;
#234 = LINE ( 'NONE', #233, #232 ) ;
#235 = CARTESIAN_POINT ( 'NONE',  ( -5.009326287108706300E-010, -21.99999999650043500, 2.500000000000001300 ) ) ;
#236 = CARTESIAN_POINT ( 'NONE',  ( -5.009323225592821800E-010, -21.99999999650043500, -2.500000000000001300 ) ) ;
#237 = CARTESIAN_POINT ( 'NONE',  ( -5.009326287108706300E-010, -21.99999999650043500, -18.00000000000000000 ) ) ;
#238 = DIRECTION ( 'NONE',  ( 0.0000000000000000000, 0.0000000000000000000, 1.000000000000000000 ) ) ;
#239 = DIRECTION ( 'NONE',  ( 0.0000000000000000000, 1.000000000000000000, 0.0000000000000000000 ) ) ;
#240 = AXIS2_PLACEMENT_3D ( 'NONE', #246, #239, #238 ) ;
#241 = CIRCLE ( 'NONE', #240, 2.500000000000001300 ) ;
#242 = DIRECTION ( 'NONE',  ( 0.0000000000000000000, 0.0000000000000000000, 1.000000000000000000 ) ) ;
#243 = DIRECTION ( 'NONE',  ( 0.0000000000000000000, 1.000000000000000000, 0.0000000000000000000 ) ) ;
#244 = AXIS2_PLACEMENT_3D ( 'NONE', #247, #243, #242 ) ;
#245 = CYLINDRICAL_SURFACE ( 'NONE', #244, 2.500000000000000900 ) ;
#246 = CARTESIAN_POINT ( 'NONE',  ( -5.009326287108706300E-010, -21.99999999650043500, 0.0000000000000000000 ) ) ;
#247 = CARTESIAN_POINT ( 'NONE',  ( -5.009326287108706300E-010, 2.412507003500041800, 0.0000000000000000000 ) ) ;
#248 = DIRECTION ( 'NONE',  ( 0.0000000000000000000, 0.0000000000000000000, 1.000000000000000000 ) ) ;
#249 = DIRECTION ( 'NONE',  ( 0.0000000000000000000, 1.000000000000000000, 0.0000000000000000000 ) ) ;
#250 = CARTESIAN_POINT ( 'NONE',  ( -5.009326287108706300E-010, -11.99999999650043500, 0.0000000000000000000 ) ) ;
#251 = AXIS2_PLACEMENT_3D ( 'NONE', #250, #249, #248 ) ;
#252 = CIRCLE ( 'NONE', #251, 2.500000000000000400 ) ;
#253 = FACE_OUTER_BOUND ( 'NONE', #110, .T. ) ;
#254 = UNCERTAINTY_MEASURE_WITH_UNIT (LENGTH_MEASURE( 1.000000000000000100E-005 ), #296, 'distance_accuracy_value', 'NONE');
#255 =( NAMED_UNIT ( * ) SI_UNIT ( $, .STERADIAN. ) SOLID_ANGLE_UNIT ( ) );
#256 =( NAMED_UNIT ( * ) PLANE_ANGLE_UNIT ( ) SI_UNIT ( $, .RADIAN. ) );
#257 = DIRECTION ( 'NONE',  ( 0.0000000000000000000, 0.0000000000000000000, -1.000000000000000000 ) ) ;
#258 = DIRECTION ( 'NONE',  ( 0.0000000000000000000, -1.000000000000000000, 0.0000000000000000000 ) ) ;
#259 = AXIS2_PLACEMENT_3D ( 'NONE', #262, #258, #257 ) ;
#260 = CONICAL_SURFACE ( 'NONE', #259, 18.00000000000000000, 0.1355277139855006200 ) ;
#261 = DIRECTION ( 'NONE',  ( 0.0000000000000000000, 0.0000000000000000000, 1.000000000000000000 ) ) ;
#262 = CARTESIAN_POINT ( 'NONE',  ( -5.009326287108706300E-010, -21.99999999650043500, 0.0000000000000000000 ) ) ;
#263 = FACE_OUTER_BOUND ( 'NONE', #125, .T. ) ;
#264 = CARTESIAN_POINT ( 'NONE',  ( -5.009326287108706300E-010, -1.729773587033820400, 15.23587821689091500 ) ) ;
#265 = CARTESIAN_POINT ( 'NONE',  ( -5.009307629155435700E-010, -1.729773587033820400, -15.23587821689091500 ) ) ;
#266 = DIRECTION ( 'NONE',  ( 0.0000000000000000000, 1.000000000000000000, 0.0000000000000000000 ) ) ;
#267 = VECTOR ( 'NONE', #266, 1000.000000000000000 ) ;
#268 = CARTESIAN_POINT ( 'NONE',  ( -5.009318939470583400E-010, 2.412507003500041800, -6.000000000000000900 ) ) ;
#269 = LINE ( 'NONE', #268, #267 ) ;
#270 = DIRECTION ( 'NONE',  ( 0.0000000000000000000, 0.0000000000000000000, 1.000000000000000000 ) ) ;
#271 = DIRECTION ( 'NONE',  ( 0.0000000000000000000, 1.000000000000000000, 0.0000000000000000000 ) ) ;
#272 = CARTESIAN_POINT ( 'NONE',  ( -5.009326287108706300E-010, -1.729773587033820400, 0.0000000000000000000 ) ) ;
#273 = AXIS2_PLACEMENT_3D ( 'NONE', #272, #271, #270 ) ;
#274 = CIRCLE ( 'NONE', #273, 15.23587821689091500 ) ;
#275 = DIRECTION ( 'NONE',  ( 1.654604890017193000E-017, -0.9908301680442989100, 0.1351132047333134200 ) ) ;
#276 = VECTOR ( 'NONE', #275, 1000.000000000000100 ) ;
#277 = CARTESIAN_POINT ( 'NONE',  ( -5.009304244194337500E-010, -21.99999999650043500, 18.00000000000000000 ) ) ;
#278 = LINE ( 'NONE', #277, #276 ) ;
#279 = CARTESIAN_POINT ( 'NONE',  ( -5.009304244194337500E-010, -21.99999999650043500, 18.00000000000000000 ) ) ;
#280 = CARTESIAN_POINT ( 'NONE',  ( -5.009318939470583400E-010, 3.499565220943523500E-009, -6.000000000000000000 ) ) ;
#281 = DIRECTION ( 'NONE',  ( 0.0000000000000000000, 0.0000000000000000000, 1.000000000000000000 ) ) ;
#282 = FACE_OUTER_BOUND ( 'NONE', #37, .T. ) ;
#283 = DIRECTION ( 'NONE',  ( 0.0000000000000000000, 0.0000000000000000000, 1.000000000000000000 ) ) ;
#284 = DIRECTION ( 'NONE',  ( 0.0000000000000000000, 1.000000000000000000, 0.0000000000000000000 ) ) ;
#285 = CARTESIAN_POINT ( 'NONE',  ( -5.009326287108706300E-010, 3.499565220943523500E-009, 0.0000000000000000000 ) ) ;
#286 = AXIS2_PLACEMENT_3D ( 'NONE', #285, #284, #283 ) ;
#287 = CIRCLE ( 'NONE', #286, 6.000000000000000000 ) ;
#288 = FACE_BOUND ( 'NONE', #33, .T. ) ;
#289 = DIRECTION ( 'NONE',  ( 0.0000000000000000000, 0.0000000000000000000, 1.000000000000000000 ) ) ;
#290 = DIRECTION ( 'NONE',  ( 0.0000000000000000000, 1.000000000000000000, 0.0000000000000000000 ) ) ;
#291 = CARTESIAN_POINT ( 'NONE',  ( -5.009326287108706300E-010, 2.412507003500041800, 0.0000000000000000000 ) ) ;
#292 = AXIS2_PLACEMENT_3D ( 'NONE', #291, #290, #289 ) ;
#293 = CIRCLE ( 'NONE', #297, 6.000000000000001800 ) ;
#294 = FACE_OUTER_BOUND ( 'NONE', #3, .T. ) ;
#295 = CYLINDRICAL_SURFACE ( 'NONE', #292, 6.000000000000000900 ) ;
#296 =( LENGTH_UNIT ( ) NAMED_UNIT ( * ) SI_UNIT ( .MILLI., .METRE. ) );
#297 = AXIS2_PLACEMENT_3D ( 'NONE', #317, #315, #316 ) ;
#298 = DIRECTION ( 'NONE',  ( 0.0000000000000000000, 0.0000000000000000000, 1.000000000000000000 ) ) ;
#299 = DIRECTION ( 'NONE',  ( 0.0000000000000000000, 1.000000000000000000, 0.0000000000000000000 ) ) ;
#300 = CARTESIAN_POINT ( 'NONE',  ( -5.009326287108706300E-010, 2.412507003500041800, 0.0000000000000000000 ) ) ;
#301 = AXIS2_PLACEMENT_3D ( 'NONE', #300, #299, #298 ) ;
#302 = CARTESIAN_POINT ( 'NONE',  ( -5.009326287108706300E-010, -21.99999999650043500, 0.0000000000000000000 ) ) ;
#303 = CYLINDRICAL_SURFACE ( 'NONE', #301, 2.500000000000000900 ) ;
#304 = FACE_OUTER_BOUND ( 'NONE', #41, .T. ) ;
#305 = DIRECTION ( 'NONE',  ( 0.0000000000000000000, 0.0000000000000000000, 1.000000000000000000 ) ) ;
#306 = DIRECTION ( 'NONE',  ( 0.0000000000000000000, 1.000000000000000000, 0.0000000000000000000 ) ) ;
#307 = CARTESIAN_POINT ( 'NONE',  ( -5.009326287108706300E-010, -11.99999999650043500, 0.0000000000000000000 ) ) ;
#308 = AXIS2_PLACEMENT_3D ( 'NONE', #307, #306, #305 ) ;
#309 = CIRCLE ( 'NONE', #308, 2.500000000000000400 ) ;
#310 = DIRECTION ( 'NONE',  ( 0.0000000000000000000, 0.0000000000000000000, -1.000000000000000000 ) ) ;
#311 = DIRECTION ( 'NONE',  ( 0.0000000000000000000, -1.000000000000000000, 0.0000000000000000000 ) ) ;
#312 = CARTESIAN_POINT ( 'NONE',  ( 5.999999999499069100, -11.99999999650043500, 0.0000000000000000000 ) ) ;
#313 = AXIS2_PLACEMENT_3D ( 'NONE', #312, #311, #310 ) ;
#314 = PLANE ( 'NONE',  #313 ) ;
#315 = DIRECTION ( 'NONE',  ( 0.0000000000000000000, 1.000000000000000000, 0.0000000000000000000 ) ) ;
#316 = DIRECTION ( 'NONE',  ( 0.0000000000000000000, 0.0000000000000000000, 1.000000000000000000 ) ) ;
#317 = CARTESIAN_POINT ( 'NONE',  ( -5.009326287108706300E-010, -11.99999999650043500, 0.0000000000000000000 ) ) ;
#318 = APPLICATION_CONTEXT ( 'configuration controlled 3d designs of mechanical parts and assemblies' ) ;
#319 = CC_DESIGN_PERSON_AND_ORGANIZATION_ASSIGNMENT ( #325, #320, ( #23 ) ) ;
#320 = PERSON_AND_ORGANIZATION_ROLE ( 'design_owner' ) ;
#321 = ORGANIZATION ( 'UNSPECIFIED', 'UNSPECIFIED', '' ) ;
#322 = DIRECTION ( 'NONE',  ( 1.000000000000000000, 0.0000000000000000000, 0.0000000000000000000 ) ) ;
#323 = CARTESIAN_POINT ( 'NONE',  ( 0.0000000000000000000, 0.0000000000000000000, 0.0000000000000000000 ) ) ;
#324 = AXIS2_PLACEMENT_3D ( 'NONE', #323, #261, #322 ) ;
#325 = PERSON_AND_ORGANIZATION ( #22, #321 ) ;
#326 = ADVANCED_BREP_SHAPE_REPRESENTATION ( 'C-30-RK-36', ( #124, #324 ), #327 ) ;
#327 =( GEOMETRIC_REPRESENTATION_CONTEXT ( 3 ) GLOBAL_UNCERTAINTY_ASSIGNED_CONTEXT ( ( #254 ) ) GLOBAL_UNIT_ASSIGNED_CONTEXT ( ( #296, #256, #255 ) ) REPRESENTATION_CONTEXT ( 'NONE', 'WORKASPACE' ) );
#328 = SHAPE_DEFINITION_REPRESENTATION ( #329, #326 ) ;
#329 = PRODUCT_DEFINITION_SHAPE ( 'NONE', 'NONE',  #13 ) ;
#330 = PRODUCT_RELATED_PRODUCT_CATEGORY ( 'detail', '', ( #23 ) ) ;
#331 = CC_DESIGN_SECURITY_CLASSIFICATION ( #358, ( #375 ) ) ;
#332 = CC_DESIGN_APPROVAL ( #340, ( #358 ) ) ;
#333 = APPROVAL_DATE_TIME ( #334, #340 ) ;
#334 = DATE_AND_TIME ( #335, #336 ) ;
#335 = CALENDAR_DATE ( 2009, 26, 6 ) ;
#336 = LOCAL_TIME ( 16, 2, 57.00000000000000000, #337 ) ;
#337 = COORDINATED_UNIVERSAL_TIME_OFFSET ( 9, 0, .AHEAD. ) ;
#338 = APPROVAL_PERSON_ORGANIZATION ( #342, #340, #339 ) ;
#339 = APPROVAL_ROLE ( '' ) ;
#340 = APPROVAL ( #341, 'UNSPECIFIED' ) ;
#341 = APPROVAL_STATUS ( 'not_yet_approved' ) ;
#342 = PERSON_AND_ORGANIZATION ( #22, #321 ) ;
#343 = CC_DESIGN_DATE_AND_TIME_ASSIGNMENT ( #351, #350, ( #358 ) ) ;
#344 = CC_DESIGN_DATE_AND_TIME_ASSIGNMENT ( #349, #345, ( #13 ) ) ;
#345 = DATE_TIME_ROLE ( 'creation_date' ) ;
#346 = CALENDAR_DATE ( 2009, 26, 6 ) ;
#347 = LOCAL_TIME ( 16, 2, 57.00000000000000000, #371 ) ;
#348 = CC_DESIGN_APPROVAL ( #19, ( #13 ) ) ;
#349 = DATE_AND_TIME ( #346, #347 ) ;
#350 = DATE_TIME_ROLE ( 'classification_date' ) ;
#351 = DATE_AND_TIME ( #352, #353 ) ;
#352 = CALENDAR_DATE ( 2009, 26, 6 ) ;
#353 = LOCAL_TIME ( 16, 2, 57.00000000000000000, #354 ) ;
#354 = COORDINATED_UNIVERSAL_TIME_OFFSET ( 9, 0, .AHEAD. ) ;
#355 = CC_DESIGN_PERSON_AND_ORGANIZATION_ASSIGNMENT ( #357, #356, ( #358 ) ) ;
#356 = PERSON_AND_ORGANIZATION_ROLE ( 'classification_officer' ) ;
#357 = PERSON_AND_ORGANIZATION ( #22, #321 ) ;
#358 = SECURITY_CLASSIFICATION ( '', '', #359 ) ;
#359 = SECURITY_CLASSIFICATION_LEVEL ( 'unclassified' ) ;
#360 = PERSON_AND_ORGANIZATION_ROLE ( 'creator' ) ;
#361 = PERSON_AND_ORGANIZATION ( #22, #321 ) ;
#362 = CALENDAR_DATE ( 2009, 26, 6 ) ;
#363 = LOCAL_TIME ( 16, 2, 57.00000000000000000, #364 ) ;
#364 = COORDINATED_UNIVERSAL_TIME_OFFSET ( 9, 0, .AHEAD. ) ;
#365 = APPROVAL_PERSON_ORGANIZATION ( #374, #367, #366 ) ;
#366 = APPROVAL_ROLE ( '' ) ;
#367 = APPROVAL ( #373, 'UNSPECIFIED' ) ;
#368 = CC_DESIGN_APPROVAL ( #367, ( #375 ) ) ;
#369 = APPROVAL_DATE_TIME ( #370, #367 ) ;
#370 = DATE_AND_TIME ( #362, #363 ) ;
#371 = COORDINATED_UNIVERSAL_TIME_OFFSET ( 9, 0, .AHEAD. ) ;
#372 = CC_DESIGN_PERSON_AND_ORGANIZATION_ASSIGNMENT ( #361, #360, ( #13 ) ) ;
#373 = APPROVAL_STATUS ( 'not_yet_approved' ) ;
#374 = PERSON_AND_ORGANIZATION ( #22, #321 ) ;
#375 = PRODUCT_DEFINITION_FORMATION_WITH_SPECIFIED_SOURCE ( 'ANY', '', #23, .NOT_KNOWN. ) ;
#376 = CC_DESIGN_PERSON_AND_ORGANIZATION_ASSIGNMENT ( #378, #377, ( #375 ) ) ;
#377 = PERSON_AND_ORGANIZATION_ROLE ( 'design_supplier' ) ;
#378 = PERSON_AND_ORGANIZATION ( #22, #321 ) ;
#379 = CC_DESIGN_PERSON_AND_ORGANIZATION_ASSIGNMENT ( #381, #380, ( #375 ) ) ;
#380 = PERSON_AND_ORGANIZATION_ROLE ( 'creator' ) ;
#381 = PERSON_AND_ORGANIZATION ( #22, #321 ) ;
ENDSEC;
END-ISO-10303-21;
