ISO-10303-21;
HEADER;
FILE_DESCRIPTION (( 'STEP AP203' ),
    '1' );
FILE_NAME ('C-30-RK-34-ÃÞÌ«ÙÄ.STEP',
    '2009-06-29T02:14:10',
    ( '11sw' ),
    ( '^LQ»¢®ïÐ' ),
    'SwSTEP 2.0',
    'SolidWorks 2007',
    '' );
FILE_SCHEMA (( 'CONFIG_CONTROL_DESIGN' ));
ENDSEC;

DATA;
#1 = ADVANCED_FACE ( 'NONE', ( #249 ), #232, .T. ) ;
#2 = ORIENTED_EDGE ( 'NONE', *, *, #75, .T. ) ;
#3 = EDGE_LOOP ( 'NONE', ( #22, #18, #16, #13 ) ) ;
#4 = ORIENTED_EDGE ( 'NONE', *, *, #5, .F. ) ;
#5 = EDGE_CURVE ( 'NONE', #76, #242, #228, .T. ) ;
#6 = VERTEX_POINT ( 'NONE', #224 ) ;
#7 = EDGE_CURVE ( 'NONE', #29, #6, #223, .T. ) ;
#8 = ORIENTED_EDGE ( 'NONE', *, *, #7, .T. ) ;
#9 = ORIENTED_EDGE ( 'NONE', *, *, #38, .T. ) ;
#10 = EDGE_LOOP ( 'NONE', ( #9, #8, #295, #298 ) ) ;
#11 = ADVANCED_FACE ( 'NONE', ( #218 ), #217, .T. ) ;
#12 = EDGE_CURVE ( 'NONE', #20, #14, #212, .T. ) ;
#13 = ORIENTED_EDGE ( 'NONE', *, *, #12, .F. ) ;
#14 = VERTEX_POINT ( 'NONE', #207 ) ;
#15 = VERTEX_POINT ( 'NONE', #208 ) ;
#16 = ORIENTED_EDGE ( 'NONE', *, *, #17, .T. ) ;
#17 = EDGE_CURVE ( 'NONE', #15, #14, #206, .T. ) ;
#18 = ORIENTED_EDGE ( 'NONE', *, *, #21, .T. ) ;
#19 = VERTEX_POINT ( 'NONE', #201 ) ;
#20 = VERTEX_POINT ( 'NONE', #200 ) ;
#21 = EDGE_CURVE ( 'NONE', #19, #15, #199, .T. ) ;
#22 = ORIENTED_EDGE ( 'NONE', *, *, #23, .F. ) ;
#23 = EDGE_CURVE ( 'NONE', #19, #20, #195, .T. ) ;
#24 = EDGE_LOOP ( 'NONE', ( #25, #243, #240, #4 ) ) ;
#25 = ORIENTED_EDGE ( 'NONE', *, *, #75, .F. ) ;
#26 = ORIENTED_EDGE ( 'NONE', *, *, #28, .T. ) ;
#27 = VERTEX_POINT ( 'NONE', #190 ) ;
#28 = EDGE_CURVE ( 'NONE', #71, #27, #189, .T. ) ;
#29 = VERTEX_POINT ( 'NONE', #184 ) ;
#30 = ORIENTED_EDGE ( 'NONE', *, *, #38, .F. ) ;
#31 = VERTEX_POINT ( 'NONE', #183 ) ;
#32 = ADVANCED_FACE ( 'NONE', ( #182 ), #179, .T. ) ;
#33 = EDGE_LOOP ( 'NONE', ( #30, #35, #26, #69 ) ) ;
#34 = MANIFOLD_SOLID_BREP ( 'NONE', #44 ) ;
#35 = ORIENTED_EDGE ( 'NONE', *, *, #70, .T. ) ;
#36 = UNCERTAINTY_MEASURE_WITH_UNIT (LENGTH_MEASURE( 1.000000000000000100E-005 ), #233, 'distance_accuracy_value', 'NONE');
#37 =( NAMED_UNIT ( * ) SI_UNIT ( $, .STERADIAN. ) SOLID_ANGLE_UNIT ( ) );
#38 = EDGE_CURVE ( 'NONE', #31, #29, #175, .T. ) ;
#39 = EDGE_LOOP ( 'NONE', ( #40, #41, #42, #43 ) ) ;
#40 = ORIENTED_EDGE ( 'NONE', *, *, #70, .F. ) ;
#41 = ORIENTED_EDGE ( 'NONE', *, *, #246, .F. ) ;
#42 = ORIENTED_EDGE ( 'NONE', *, *, #72, .T. ) ;
#43 = ORIENTED_EDGE ( 'NONE', *, *, #53, .T. ) ;
#44 = CLOSED_SHELL ( 'NONE', ( #32, #74, #260, #11, #235, #251, #258, #59, #67, #50, #1 ) ) ;
#45 = ORIENTED_EDGE ( 'NONE', *, *, #244, .F. ) ;
#46 = ORIENTED_EDGE ( 'NONE', *, *, #47, .F. ) ;
#47 = EDGE_CURVE ( 'NONE', #76, #73, #171, .T. ) ;
#48 = ORIENTED_EDGE ( 'NONE', *, *, #5, .T. ) ;
#49 = ORIENTED_EDGE ( 'NONE', *, *, #62, .T. ) ;
#50 = ADVANCED_FACE ( 'NONE', ( #166, #165 ), #164, .F. ) ;
#51 = EDGE_LOOP ( 'NONE', ( #52, #54 ) ) ;
#52 = ORIENTED_EDGE ( 'NONE', *, *, #53, .F. ) ;
#53 = EDGE_CURVE ( 'NONE', #27, #71, #159, .T. ) ;
#54 = ORIENTED_EDGE ( 'NONE', *, *, #28, .F. ) ;
#55 = EDGE_LOOP ( 'NONE', ( #56, #2 ) ) ;
#56 = ORIENTED_EDGE ( 'NONE', *, *, #47, .T. ) ;
#57 = ORIENTED_EDGE ( 'NONE', *, *, #12, .T. ) ;
#58 = ORIENTED_EDGE ( 'NONE', *, *, #253, .T. ) ;
#59 = ADVANCED_FACE ( 'NONE', ( #154, #153 ), #152, .F. ) ;
#60 = EDGE_LOOP ( 'NONE', ( #61, #63 ) ) ;
#61 = ORIENTED_EDGE ( 'NONE', *, *, #62, .F. ) ;
#62 = EDGE_CURVE ( 'NONE', #242, #259, #147, .T. ) ;
#63 = ORIENTED_EDGE ( 'NONE', *, *, #241, .F. ) ;
#64 = EDGE_LOOP ( 'NONE', ( #65, #66 ) ) ;
#65 = ORIENTED_EDGE ( 'NONE', *, *, #294, .T. ) ;
#66 = ORIENTED_EDGE ( 'NONE', *, *, #23, .T. ) ;
#67 = ADVANCED_FACE ( 'NONE', ( #142 ), #141, .F. ) ;
#68 = EDGE_LOOP ( 'NONE', ( #45, #46, #48, #49 ) ) ;
#69 = ORIENTED_EDGE ( 'NONE', *, *, #72, .F. ) ;
#70 = EDGE_CURVE ( 'NONE', #31, #71, #136, .T. ) ;
#71 = VERTEX_POINT ( 'NONE', #132 ) ;
#72 = EDGE_CURVE ( 'NONE', #29, #27, #131, .T. ) ;
#73 = VERTEX_POINT ( 'NONE', #127 ) ;
#74 = ADVANCED_FACE ( 'NONE', ( #126 ), #123, .F. ) ;
#75 = EDGE_CURVE ( 'NONE', #73, #76, #124, .T. ) ;
#76 = VERTEX_POINT ( 'NONE', #115 ) ;
#77 = DIRECTION ( 'NONE',  ( 0.0000000000000000000, 0.0000000000000000000, -1.000000000000000000 ) ) ;
#78 = DIRECTION ( 'NONE',  ( 0.0000000000000000000, -1.000000000000000000, 0.0000000000000000000 ) ) ;
#79 = CARTESIAN_POINT ( 'NONE',  ( 12.19782839313318800, 3.499566521986130500E-009, 0.0000000000000000000 ) ) ;
#80 = AXIS2_PLACEMENT_3D ( 'NONE', #79, #78, #77 ) ;
#81 = PLANE ( 'NONE',  #80 ) ;
#82 = FACE_OUTER_BOUND ( 'NONE', #255, .T. ) ;
#83 = FACE_BOUND ( 'NONE', #239, .T. ) ;
#84 = DIRECTION ( 'NONE',  ( 0.0000000000000000000, 0.0000000000000000000, 1.000000000000000000 ) ) ;
#85 = DIRECTION ( 'NONE',  ( 0.0000000000000000000, 1.000000000000000000, 0.0000000000000000000 ) ) ;
#86 = CARTESIAN_POINT ( 'NONE',  ( -5.009326287108706300E-010, 3.499566521986130500E-009, 0.0000000000000000000 ) ) ;
#87 = AXIS2_PLACEMENT_3D ( 'NONE', #86, #85, #84 ) ;
#88 = CIRCLE ( 'NONE', #87, 12.19782839363412000 ) ;
#89 = DIRECTION ( 'NONE',  ( 0.0000000000000000000, 0.0000000000000000000, 1.000000000000000000 ) ) ;
#90 = DIRECTION ( 'NONE',  ( 0.0000000000000000000, 1.000000000000000000, 0.0000000000000000000 ) ) ;
#91 = CARTESIAN_POINT ( 'NONE',  ( -5.009326287108706300E-010, -0.7830695386817770900, 0.0000000000000000000 ) ) ;
#92 = AXIS2_PLACEMENT_3D ( 'NONE', #91, #90, #89 ) ;
#93 = CIRCLE ( 'NONE', #92, 13.17401545381807400 ) ;
#94 = DIRECTION ( 'NONE',  ( 0.0000000000000000000, 1.000000000000000000, 0.0000000000000000000 ) ) ;
#95 = VECTOR ( 'NONE', #94, 1000.000000000000000 ) ;
#96 = CARTESIAN_POINT ( 'NONE',  ( -5.009323225592821800E-010, 2.412507003500041800, -2.500000000000000400 ) ) ;
#97 = LINE ( 'NONE', #96, #95 ) ;
#98 = CARTESIAN_POINT ( 'NONE',  ( -5.009326287108706300E-010, -9.999999996500433100, 2.500000000000000400 ) ) ;
#99 = DIRECTION ( 'NONE',  ( 0.0000000000000000000, 0.0000000000000000000, 1.000000000000000000 ) ) ;
#100 = DIRECTION ( 'NONE',  ( 0.0000000000000000000, 1.000000000000000000, 0.0000000000000000000 ) ) ;
#101 = CARTESIAN_POINT ( 'NONE',  ( -5.009326287108706300E-010, -9.999999996500433100, 0.0000000000000000000 ) ) ;
#102 = AXIS2_PLACEMENT_3D ( 'NONE', #101, #100, #99 ) ;
#103 = CIRCLE ( 'NONE', #102, 2.500000000000000400 ) ;
#104 = DIRECTION ( 'NONE',  ( 0.0000000000000000000, 0.0000000000000000000, 1.000000000000000000 ) ) ;
#105 = DIRECTION ( 'NONE',  ( 0.0000000000000000000, 1.000000000000000000, 0.0000000000000000000 ) ) ;
#106 = AXIS2_PLACEMENT_3D ( 'NONE', #108, #105, #104 ) ;
#107 = TOROIDAL_SURFACE ( 'NONE', #106, 12.19782839363412000, 1.000000000000000200 ) ;
#108 = CARTESIAN_POINT ( 'NONE',  ( -5.009326287108706300E-010, -0.9999999965004334700, 0.0000000000000000000 ) ) ;
#109 = DIRECTION ( 'NONE',  ( 0.0000000000000000000, 0.0000000000000000000, 1.000000000000000000 ) ) ;
#110 = DIRECTION ( 'NONE',  ( -1.000000000000000000, 0.0000000000000000000, 0.0000000000000000000 ) ) ;
#111 = CARTESIAN_POINT ( 'NONE',  ( -5.009326287108706300E-010, -0.9999999965004334700, 12.19782839363412000 ) ) ;
#112 = AXIS2_PLACEMENT_3D ( 'NONE', #111, #110, #109 ) ;
#113 = CIRCLE ( 'NONE', #112, 1.000000000000000900 ) ;
#114 = FACE_OUTER_BOUND ( 'NONE', #236, .T. ) ;
#115 = CARTESIAN_POINT ( 'NONE',  ( -5.009326287108706300E-010, -17.99999999650043500, 2.500000000000000900 ) ) ;
#116 = DIRECTION ( 'NONE',  ( 0.0000000000000000000, 0.0000000000000000000, 1.000000000000000000 ) ) ;
#117 = DIRECTION ( 'NONE',  ( 0.0000000000000000000, 1.000000000000000000, 0.0000000000000000000 ) ) ;
#118 = CARTESIAN_POINT ( 'NONE',  ( -5.009326287108706300E-010, -17.99999999650043500, 0.0000000000000000000 ) ) ;
#119 = AXIS2_PLACEMENT_3D ( 'NONE', #118, #117, #116 ) ;
#120 = DIRECTION ( 'NONE',  ( 0.0000000000000000000, 0.0000000000000000000, 1.000000000000000000 ) ) ;
#121 = DIRECTION ( 'NONE',  ( 0.0000000000000000000, 1.000000000000000000, 0.0000000000000000000 ) ) ;
#122 = AXIS2_PLACEMENT_3D ( 'NONE', #125, #121, #120 ) ;
#123 = CYLINDRICAL_SURFACE ( 'NONE', #122, 2.500000000000000400 ) ;
#124 = CIRCLE ( 'NONE', #119, 2.500000000000000900 ) ;
#125 = CARTESIAN_POINT ( 'NONE',  ( -5.009326287108706300E-010, 2.412507003500041800, 0.0000000000000000000 ) ) ;
#126 = FACE_OUTER_BOUND ( 'NONE', #24, .T. ) ;
#127 = CARTESIAN_POINT ( 'NONE',  ( -5.009323225592821800E-010, -17.99999999650043500, -2.500000000000000900 ) ) ;
#128 = DIRECTION ( 'NONE',  ( 0.0000000000000000000, -0.9761870601839527400, -0.2169304578186563600 ) ) ;
#129 = VECTOR ( 'NONE', #128, 1000.000000000000000 ) ;
#130 = CARTESIAN_POINT ( 'NONE',  ( -5.009326287108706300E-010, -17.99999999650043500, -17.00000000000000000 ) ) ;
#131 = LINE ( 'NONE', #130, #129 ) ;
#132 = CARTESIAN_POINT ( 'NONE',  ( -5.009305468800691300E-010, -17.99999999650043500, 17.00000000000000000 ) ) ;
#133 = DIRECTION ( 'NONE',  ( 2.656544169823237900E-017, -0.9761870601839527400, 0.2169304578186563600 ) ) ;
#134 = VECTOR ( 'NONE', #133, 1000.000000000000000 ) ;
#135 = CARTESIAN_POINT ( 'NONE',  ( -5.009305468800691300E-010, -17.99999999650043500, 17.00000000000000000 ) ) ;
#136 = LINE ( 'NONE', #135, #134 ) ;
#137 = DIRECTION ( 'NONE',  ( 0.0000000000000000000, 0.0000000000000000000, 1.000000000000000000 ) ) ;
#138 = DIRECTION ( 'NONE',  ( 0.0000000000000000000, 1.000000000000000000, 0.0000000000000000000 ) ) ;
#139 = CARTESIAN_POINT ( 'NONE',  ( -5.009326287108706300E-010, 2.412507003500041800, 0.0000000000000000000 ) ) ;
#140 = AXIS2_PLACEMENT_3D ( 'NONE', #139, #138, #137 ) ;
#141 = CYLINDRICAL_SURFACE ( 'NONE', #140, 2.500000000000000400 ) ;
#142 = FACE_OUTER_BOUND ( 'NONE', #68, .T. ) ;
#143 = DIRECTION ( 'NONE',  ( 0.0000000000000000000, 0.0000000000000000000, 1.000000000000000000 ) ) ;
#144 = DIRECTION ( 'NONE',  ( 0.0000000000000000000, 1.000000000000000000, 0.0000000000000000000 ) ) ;
#145 = CARTESIAN_POINT ( 'NONE',  ( -5.009326287108706300E-010, -9.999999996500433100, 0.0000000000000000000 ) ) ;
#146 = AXIS2_PLACEMENT_3D ( 'NONE', #145, #144, #143 ) ;
#147 = CIRCLE ( 'NONE', #146, 2.500000000000000400 ) ;
#148 = DIRECTION ( 'NONE',  ( 0.0000000000000000000, 0.0000000000000000000, -1.000000000000000000 ) ) ;
#149 = DIRECTION ( 'NONE',  ( 0.0000000000000000000, -1.000000000000000000, 0.0000000000000000000 ) ) ;
#150 = CARTESIAN_POINT ( 'NONE',  ( 8.499999999499067400, -9.999999996500433100, 0.0000000000000000000 ) ) ;
#151 = AXIS2_PLACEMENT_3D ( 'NONE', #150, #149, #148 ) ;
#152 = PLANE ( 'NONE',  #151 ) ;
#153 = FACE_OUTER_BOUND ( 'NONE', #64, .T. ) ;
#154 = FACE_BOUND ( 'NONE', #60, .T. ) ;
#155 = DIRECTION ( 'NONE',  ( 0.0000000000000000000, 0.0000000000000000000, 1.000000000000000000 ) ) ;
#156 = DIRECTION ( 'NONE',  ( 0.0000000000000000000, 1.000000000000000000, 0.0000000000000000000 ) ) ;
#157 = CARTESIAN_POINT ( 'NONE',  ( -5.009326287108706300E-010, -17.99999999650043500, 0.0000000000000000000 ) ) ;
#158 = AXIS2_PLACEMENT_3D ( 'NONE', #157, #156, #155 ) ;
#159 = CIRCLE ( 'NONE', #158, 17.00000000000000000 ) ;
#160 = DIRECTION ( 'NONE',  ( 0.0000000000000000000, 0.0000000000000000000, 1.000000000000000000 ) ) ;
#161 = DIRECTION ( 'NONE',  ( 0.0000000000000000000, 1.000000000000000000, 0.0000000000000000000 ) ) ;
#162 = CARTESIAN_POINT ( 'NONE',  ( 2.499999999499068300, -17.99999999650043500, 0.0000000000000000000 ) ) ;
#163 = AXIS2_PLACEMENT_3D ( 'NONE', #162, #161, #160 ) ;
#164 = PLANE ( 'NONE',  #163 ) ;
#165 = FACE_BOUND ( 'NONE', #55, .T. ) ;
#166 = FACE_OUTER_BOUND ( 'NONE', #51, .T. ) ;
#167 = DIRECTION ( 'NONE',  ( 0.0000000000000000000, 0.0000000000000000000, 1.000000000000000000 ) ) ;
#168 = DIRECTION ( 'NONE',  ( 0.0000000000000000000, 1.000000000000000000, 0.0000000000000000000 ) ) ;
#169 = CARTESIAN_POINT ( 'NONE',  ( -5.009326287108706300E-010, -17.99999999650043500, 0.0000000000000000000 ) ) ;
#170 = AXIS2_PLACEMENT_3D ( 'NONE', #169, #168, #167 ) ;
#171 = CIRCLE ( 'NONE', #170, 2.500000000000000900 ) ;
#172 = DIRECTION ( 'NONE',  ( 0.0000000000000000000, 0.0000000000000000000, 1.000000000000000000 ) ) ;
#173 = DIRECTION ( 'NONE',  ( 0.0000000000000000000, 1.000000000000000000, 0.0000000000000000000 ) ) ;
#174 = AXIS2_PLACEMENT_3D ( 'NONE', #180, #173, #172 ) ;
#175 = CIRCLE ( 'NONE', #174, 13.17401545381807400 ) ;
#176 = DIRECTION ( 'NONE',  ( 0.0000000000000000000, 0.0000000000000000000, -1.000000000000000000 ) ) ;
#177 = DIRECTION ( 'NONE',  ( 0.0000000000000000000, -1.000000000000000000, 0.0000000000000000000 ) ) ;
#178 = AXIS2_PLACEMENT_3D ( 'NONE', #181, #177, #176 ) ;
#179 = CONICAL_SURFACE ( 'NONE', #178, 17.00000000000000000, 0.2186689458739421400 ) ;
#180 = CARTESIAN_POINT ( 'NONE',  ( -5.009326287108706300E-010, -0.7830695386817770900, 0.0000000000000000000 ) ) ;
#181 = CARTESIAN_POINT ( 'NONE',  ( -5.009326287108706300E-010, -17.99999999650043500, 0.0000000000000000000 ) ) ;
#182 = FACE_OUTER_BOUND ( 'NONE', #33, .T. ) ;
#183 = CARTESIAN_POINT ( 'NONE',  ( -5.009326287108706300E-010, -0.7830695386817770900, 13.17401545381807400 ) ) ;
#184 = CARTESIAN_POINT ( 'NONE',  ( -5.009310154125676200E-010, -0.7830695386817770900, -13.17401545381807400 ) ) ;
#185 = DIRECTION ( 'NONE',  ( 0.0000000000000000000, 0.0000000000000000000, 1.000000000000000000 ) ) ;
#186 = DIRECTION ( 'NONE',  ( 0.0000000000000000000, 1.000000000000000000, 0.0000000000000000000 ) ) ;
#187 = CARTESIAN_POINT ( 'NONE',  ( -5.009326287108706300E-010, -17.99999999650043500, 0.0000000000000000000 ) ) ;
#188 = AXIS2_PLACEMENT_3D ( 'NONE', #187, #186, #185 ) ;
#189 = CIRCLE ( 'NONE', #188, 17.00000000000000000 ) ;
#190 = CARTESIAN_POINT ( 'NONE',  ( -5.009326287108706300E-010, -17.99999999650043500, -17.00000000000000000 ) ) ;
#191 = DIRECTION ( 'NONE',  ( 0.0000000000000000000, 0.0000000000000000000, 1.000000000000000000 ) ) ;
#192 = DIRECTION ( 'NONE',  ( 0.0000000000000000000, 1.000000000000000000, 0.0000000000000000000 ) ) ;
#193 = CARTESIAN_POINT ( 'NONE',  ( -5.009326287108706300E-010, -9.999999996500433100, 0.0000000000000000000 ) ) ;
#194 = AXIS2_PLACEMENT_3D ( 'NONE', #193, #192, #191 ) ;
#195 = CIRCLE ( 'NONE', #194, 8.500000000000000000 ) ;
#196 = DIRECTION ( 'NONE',  ( 0.0000000000000000000, 1.000000000000000000, 0.0000000000000000000 ) ) ;
#197 = VECTOR ( 'NONE', #196, 1000.000000000000000 ) ;
#198 = CARTESIAN_POINT ( 'NONE',  ( -5.009315877954698800E-010, 2.412507003500041800, -8.500000000000000000 ) ) ;
#199 = LINE ( 'NONE', #198, #197 ) ;
#200 = CARTESIAN_POINT ( 'NONE',  ( -5.009326287108706300E-010, -9.999999996500433100, 8.500000000000000000 ) ) ;
#201 = CARTESIAN_POINT ( 'NONE',  ( -5.009315877954698800E-010, -9.999999996500433100, -8.500000000000000000 ) ) ;
#202 = DIRECTION ( 'NONE',  ( 0.0000000000000000000, 0.0000000000000000000, 1.000000000000000000 ) ) ;
#203 = DIRECTION ( 'NONE',  ( 0.0000000000000000000, 1.000000000000000000, 0.0000000000000000000 ) ) ;
#204 = CARTESIAN_POINT ( 'NONE',  ( -5.009326287108706300E-010, 3.499566521986130500E-009, 0.0000000000000000000 ) ) ;
#205 = AXIS2_PLACEMENT_3D ( 'NONE', #204, #203, #202 ) ;
#206 = CIRCLE ( 'NONE', #205, 8.500000000000000000 ) ;
#207 = CARTESIAN_POINT ( 'NONE',  ( -5.009326287108706300E-010, 3.499566521986130500E-009, 8.500000000000000000 ) ) ;
#208 = CARTESIAN_POINT ( 'NONE',  ( -5.009315877954698800E-010, 3.499566521986130500E-009, -8.500000000000000000 ) ) ;
#209 = DIRECTION ( 'NONE',  ( 0.0000000000000000000, 1.000000000000000000, 0.0000000000000000000 ) ) ;
#210 = VECTOR ( 'NONE', #209, 1000.000000000000000 ) ;
#211 = CARTESIAN_POINT ( 'NONE',  ( -5.009326287108706300E-010, 2.412507003500041800, 8.500000000000000000 ) ) ;
#212 = LINE ( 'NONE', #211, #210 ) ;
#213 = DIRECTION ( 'NONE',  ( 0.0000000000000000000, 0.0000000000000000000, 1.000000000000000000 ) ) ;
#214 = DIRECTION ( 'NONE',  ( 0.0000000000000000000, 1.000000000000000000, 0.0000000000000000000 ) ) ;
#215 = CARTESIAN_POINT ( 'NONE',  ( -5.009326287108706300E-010, -0.9999999965004334700, 0.0000000000000000000 ) ) ;
#216 = AXIS2_PLACEMENT_3D ( 'NONE', #215, #214, #213 ) ;
#217 = TOROIDAL_SURFACE ( 'NONE', #216, 12.19782839363412000, 1.000000000000000200 ) ;
#218 = FACE_OUTER_BOUND ( 'NONE', #10, .T. ) ;
#219 = DIRECTION ( 'NONE',  ( 1.224606353612349900E-016, 0.0000000000000000000, -1.000000000000000000 ) ) ;
#220 = DIRECTION ( 'NONE',  ( 1.000000000000000000, 0.0000000000000000000, 1.224606353822377300E-016 ) ) ;
#221 = CARTESIAN_POINT ( 'NONE',  ( -5.009311349570553000E-010, -0.9999999965004334700, -12.19782839363412000 ) ) ;
#222 = AXIS2_PLACEMENT_3D ( 'NONE', #221, #220, #219 ) ;
#223 = CIRCLE ( 'NONE', #222, 1.000000000000000900 ) ;
#224 = CARTESIAN_POINT ( 'NONE',  ( -5.009310751848114600E-010, 3.499566521986130500E-009, -12.19782839363412000 ) ) ;
#225 = DIRECTION ( 'NONE',  ( 0.0000000000000000000, 1.000000000000000000, 0.0000000000000000000 ) ) ;
#226 = VECTOR ( 'NONE', #225, 1000.000000000000000 ) ;
#227 = CARTESIAN_POINT ( 'NONE',  ( -5.009326287108706300E-010, 2.412507003500041800, 2.500000000000000400 ) ) ;
#228 = LINE ( 'NONE', #227, #226 ) ;
#229 = DIRECTION ( 'NONE',  ( 0.0000000000000000000, 0.0000000000000000000, -1.000000000000000000 ) ) ;
#230 = DIRECTION ( 'NONE',  ( 0.0000000000000000000, -1.000000000000000000, 0.0000000000000000000 ) ) ;
#231 = AXIS2_PLACEMENT_3D ( 'NONE', #248, #230, #229 ) ;
#232 = CONICAL_SURFACE ( 'NONE', #231, 17.00000000000000000, 0.2186689458739421400 ) ;
#233 =( LENGTH_UNIT ( ) NAMED_UNIT ( * ) SI_UNIT ( .MILLI., .METRE. ) );
#234 = EDGE_CURVE ( 'NONE', #31, #297, #113, .T. ) ;
#235 = ADVANCED_FACE ( 'NONE', ( #114 ), #107, .T. ) ;
#236 = EDGE_LOOP ( 'NONE', ( #237, #245, #247, #238 ) ) ;
#237 = ORIENTED_EDGE ( 'NONE', *, *, #7, .F. ) ;
#238 = ORIENTED_EDGE ( 'NONE', *, *, #250, .F. ) ;
#239 = EDGE_LOOP ( 'NONE', ( #252, #254 ) ) ;
#240 = ORIENTED_EDGE ( 'NONE', *, *, #241, .T. ) ;
#241 = EDGE_CURVE ( 'NONE', #259, #242, #103, .T. ) ;
#242 = VERTEX_POINT ( 'NONE', #98 ) ;
#243 = ORIENTED_EDGE ( 'NONE', *, *, #244, .T. ) ;
#244 = EDGE_CURVE ( 'NONE', #73, #259, #97, .T. ) ;
#245 = ORIENTED_EDGE ( 'NONE', *, *, #246, .T. ) ;
#246 = EDGE_CURVE ( 'NONE', #29, #31, #93, .T. ) ;
#247 = ORIENTED_EDGE ( 'NONE', *, *, #234, .T. ) ;
#248 = CARTESIAN_POINT ( 'NONE',  ( -5.009326287108706300E-010, -17.99999999650043500, 0.0000000000000000000 ) ) ;
#249 = FACE_OUTER_BOUND ( 'NONE', #39, .T. ) ;
#250 = EDGE_CURVE ( 'NONE', #6, #297, #88, .T. ) ;
#251 = ADVANCED_FACE ( 'NONE', ( #83, #82 ), #81, .F. ) ;
#252 = ORIENTED_EDGE ( 'NONE', *, *, #253, .F. ) ;
#253 = EDGE_CURVE ( 'NONE', #14, #15, #290, .T. ) ;
#254 = ORIENTED_EDGE ( 'NONE', *, *, #17, .F. ) ;
#255 = EDGE_LOOP ( 'NONE', ( #256, #257 ) ) ;
#256 = ORIENTED_EDGE ( 'NONE', *, *, #296, .T. ) ;
#257 = ORIENTED_EDGE ( 'NONE', *, *, #250, .T. ) ;
#258 = ADVANCED_FACE ( 'NONE', ( #285 ), #283, .F. ) ;
#259 = VERTEX_POINT ( 'NONE', #279 ) ;
#260 = ADVANCED_FACE ( 'NONE', ( #278 ), #275, .F. ) ;
#261 =( NAMED_UNIT ( * ) PLANE_ANGLE_UNIT ( ) SI_UNIT ( $, .RADIAN. ) );
#262 = CARTESIAN_POINT ( 'NONE',  ( -5.009326287108706300E-010, 3.499566521986130500E-009, 12.19782839363412000 ) ) ;
#263 = DIRECTION ( 'NONE',  ( 0.0000000000000000000, 0.0000000000000000000, 1.000000000000000000 ) ) ;
#264 = DIRECTION ( 'NONE',  ( 0.0000000000000000000, 1.000000000000000000, 0.0000000000000000000 ) ) ;
#265 = CARTESIAN_POINT ( 'NONE',  ( -5.009326287108706300E-010, 3.499566521986130500E-009, 0.0000000000000000000 ) ) ;
#266 = AXIS2_PLACEMENT_3D ( 'NONE', #265, #264, #263 ) ;
#267 = CIRCLE ( 'NONE', #266, 12.19782839363412000 ) ;
#268 = DIRECTION ( 'NONE',  ( 0.0000000000000000000, 0.0000000000000000000, 1.000000000000000000 ) ) ;
#269 = DIRECTION ( 'NONE',  ( 0.0000000000000000000, 1.000000000000000000, 0.0000000000000000000 ) ) ;
#270 = CARTESIAN_POINT ( 'NONE',  ( -5.009326287108706300E-010, -9.999999996500433100, 0.0000000000000000000 ) ) ;
#271 = AXIS2_PLACEMENT_3D ( 'NONE', #270, #269, #268 ) ;
#272 = DIRECTION ( 'NONE',  ( 0.0000000000000000000, 0.0000000000000000000, 1.000000000000000000 ) ) ;
#273 = DIRECTION ( 'NONE',  ( 0.0000000000000000000, 1.000000000000000000, 0.0000000000000000000 ) ) ;
#274 = AXIS2_PLACEMENT_3D ( 'NONE', #277, #273, #272 ) ;
#275 = CYLINDRICAL_SURFACE ( 'NONE', #274, 8.500000000000000000 ) ;
#276 = CIRCLE ( 'NONE', #271, 8.500000000000000000 ) ;
#277 = CARTESIAN_POINT ( 'NONE',  ( -5.009326287108706300E-010, 2.412507003500041800, 0.0000000000000000000 ) ) ;
#278 = FACE_OUTER_BOUND ( 'NONE', #3, .T. ) ;
#279 = CARTESIAN_POINT ( 'NONE',  ( -5.009323225592821800E-010, -9.999999996500433100, -2.500000000000000400 ) ) ;
#280 = DIRECTION ( 'NONE',  ( 0.0000000000000000000, 0.0000000000000000000, 1.000000000000000000 ) ) ;
#281 = DIRECTION ( 'NONE',  ( 0.0000000000000000000, 1.000000000000000000, 0.0000000000000000000 ) ) ;
#282 = CARTESIAN_POINT ( 'NONE',  ( -5.009326287108706300E-010, 2.412507003500041800, 0.0000000000000000000 ) ) ;
#283 = CYLINDRICAL_SURFACE ( 'NONE', #284, 8.500000000000000000 ) ;
#284 = AXIS2_PLACEMENT_3D ( 'NONE', #282, #281, #280 ) ;
#285 = FACE_OUTER_BOUND ( 'NONE', #291, .T. ) ;
#286 = DIRECTION ( 'NONE',  ( 0.0000000000000000000, 0.0000000000000000000, 1.000000000000000000 ) ) ;
#287 = DIRECTION ( 'NONE',  ( 0.0000000000000000000, 1.000000000000000000, 0.0000000000000000000 ) ) ;
#288 = CARTESIAN_POINT ( 'NONE',  ( -5.009326287108706300E-010, 3.499566521986130500E-009, 0.0000000000000000000 ) ) ;
#289 = AXIS2_PLACEMENT_3D ( 'NONE', #288, #287, #286 ) ;
#290 = CIRCLE ( 'NONE', #289, 8.500000000000000000 ) ;
#291 = EDGE_LOOP ( 'NONE', ( #292, #293, #57, #58 ) ) ;
#292 = ORIENTED_EDGE ( 'NONE', *, *, #21, .F. ) ;
#293 = ORIENTED_EDGE ( 'NONE', *, *, #294, .F. ) ;
#294 = EDGE_CURVE ( 'NONE', #20, #19, #276, .T. ) ;
#295 = ORIENTED_EDGE ( 'NONE', *, *, #296, .F. ) ;
#296 = EDGE_CURVE ( 'NONE', #297, #6, #267, .T. ) ;
#297 = VERTEX_POINT ( 'NONE', #262 ) ;
#298 = ORIENTED_EDGE ( 'NONE', *, *, #234, .F. ) ;
#299 =( GEOMETRIC_REPRESENTATION_CONTEXT ( 3 ) GLOBAL_UNCERTAINTY_ASSIGNED_CONTEXT ( ( #36 ) ) GLOBAL_UNIT_ASSIGNED_CONTEXT ( ( #233, #261, #37 ) ) REPRESENTATION_CONTEXT ( 'NONE', 'WORKASPACE' ) );
#300 = ADVANCED_BREP_SHAPE_REPRESENTATION ( 'C-30-RK-34-ÃÞÌ«ÙÄ', ( #34, #304 ), #299 ) ;
#301 = DIRECTION ( 'NONE',  ( 1.000000000000000000, 0.0000000000000000000, 0.0000000000000000000 ) ) ;
#302 = DIRECTION ( 'NONE',  ( 0.0000000000000000000, 0.0000000000000000000, 1.000000000000000000 ) ) ;
#303 = CARTESIAN_POINT ( 'NONE',  ( 0.0000000000000000000, 0.0000000000000000000, 0.0000000000000000000 ) ) ;
#304 = AXIS2_PLACEMENT_3D ( 'NONE', #303, #302, #301 ) ;
#305 = PRODUCT ( 'C-30-RK-34-ÃÞÌ«ÙÄ', 'C-30-RK-34-ÃÞÌ«ÙÄ', '', ( #306 ) ) ;
#306 = MECHANICAL_CONTEXT ( 'NONE', #308, 'mechanical' ) ;
#307 = APPLICATION_PROTOCOL_DEFINITION ( 'international standard', 'config_control_design', 1994, #308 ) ;
#308 = APPLICATION_CONTEXT ( 'configuration controlled 3d designs of mechanical parts and assemblies' ) ;
#309 = APPLICATION_PROTOCOL_DEFINITION ( 'international standard', 'config_control_design', 1994, #310 ) ;
#310 = APPLICATION_CONTEXT ( 'configuration controlled 3d designs of mechanical parts and assemblies' ) ;
#311 = ORGANIZATION ( 'UNSPECIFIED', 'UNSPECIFIED', '' ) ;
#312 = CC_DESIGN_PERSON_AND_ORGANIZATION_ASSIGNMENT ( #318, #313, ( #305 ) ) ;
#313 = PERSON_AND_ORGANIZATION_ROLE ( 'design_owner' ) ;
#314 = PERSON_AND_ORGANIZATION ( #317, #311 ) ;
#315 = PRODUCT_DEFINITION ( 'UNKNOWN', '', #341, #316 ) ;
#316 = DESIGN_CONTEXT ( 'detailed design', #310, 'design' ) ;
#317 = PERSON ( 'UNSPECIFIED', 'UNSPECIFIED', 'UNSPECIFIED', ('UNSPECIFIED'), ('UNSPECIFIED'), ('UNSPECIFIED') ) ;
#318 = PERSON_AND_ORGANIZATION ( #317, #311 ) ;
#319 = CC_DESIGN_PERSON_AND_ORGANIZATION_ASSIGNMENT ( #367, #366, ( #341 ) ) ;
#320 = APPROVAL_ROLE ( '' ) ;
#321 = APPROVAL_PERSON_ORGANIZATION ( #314, #327, #320 ) ;
#322 = DATE_TIME_ROLE ( 'creation_date' ) ;
#323 = DATE_AND_TIME ( #374, #351 ) ;
#324 = APPROVAL_STATUS ( 'not_yet_approved' ) ;
#325 = LOCAL_TIME ( 11, 14, 10.00000000000000000, #376 ) ;
#326 = DATE_AND_TIME ( #352, #325 ) ;
#327 = APPROVAL ( #324, 'UNSPECIFIED' ) ;
#328 = SHAPE_DEFINITION_REPRESENTATION ( #372, #300 ) ;
#329 = PERSON_AND_ORGANIZATION_ROLE ( 'classification_officer' ) ;
#330 = PERSON_AND_ORGANIZATION ( #317, #311 ) ;
#331 = SECURITY_CLASSIFICATION ( '', '', #332 ) ;
#332 = SECURITY_CLASSIFICATION_LEVEL ( 'unclassified' ) ;
#333 = CC_DESIGN_SECURITY_CLASSIFICATION ( #331, ( #341 ) ) ;
#334 = CC_DESIGN_APPROVAL ( #355, ( #331 ) ) ;
#335 = APPROVAL_DATE_TIME ( #353, #355 ) ;
#336 = APPROVAL_PERSON_ORGANIZATION ( #340, #338, #337 ) ;
#337 = APPROVAL_ROLE ( '' ) ;
#338 = APPROVAL ( #339, 'UNSPECIFIED' ) ;
#339 = APPROVAL_STATUS ( 'not_yet_approved' ) ;
#340 = PERSON_AND_ORGANIZATION ( #317, #311 ) ;
#341 = PRODUCT_DEFINITION_FORMATION_WITH_SPECIFIED_SOURCE ( 'ANY', '', #305, .NOT_KNOWN. ) ;
#342 = DATE_AND_TIME ( #343, #344 ) ;
#343 = CALENDAR_DATE ( 2009, 29, 6 ) ;
#344 = LOCAL_TIME ( 11, 14, 10.00000000000000000, #345 ) ;
#345 = COORDINATED_UNIVERSAL_TIME_OFFSET ( 9, 0, .AHEAD. ) ;
#346 = PRODUCT_RELATED_PRODUCT_CATEGORY ( 'detail', '', ( #305 ) ) ;
#347 = CC_DESIGN_PERSON_AND_ORGANIZATION_ASSIGNMENT ( #381, #369, ( #315 ) ) ;
#348 = DATE_AND_TIME ( #363, #364 ) ;
#349 = CC_DESIGN_PERSON_AND_ORGANIZATION_ASSIGNMENT ( #330, #329, ( #331 ) ) ;
#350 = CC_DESIGN_APPROVAL ( #327, ( #315 ) ) ;
#351 = LOCAL_TIME ( 11, 14, 10.00000000000000000, #375 ) ;
#352 = CALENDAR_DATE ( 2009, 29, 6 ) ;
#353 = DATE_AND_TIME ( #358, #359 ) ;
#354 = APPROVAL_ROLE ( '' ) ;
#355 = APPROVAL ( #356, 'UNSPECIFIED' ) ;
#356 = APPROVAL_STATUS ( 'not_yet_approved' ) ;
#357 = PERSON_AND_ORGANIZATION ( #317, #311 ) ;
#358 = CALENDAR_DATE ( 2009, 29, 6 ) ;
#359 = LOCAL_TIME ( 11, 14, 10.00000000000000000, #360 ) ;
#360 = COORDINATED_UNIVERSAL_TIME_OFFSET ( 9, 0, .AHEAD. ) ;
#361 = APPROVAL_PERSON_ORGANIZATION ( #357, #355, #354 ) ;
#362 = DATE_TIME_ROLE ( 'classification_date' ) ;
#363 = CALENDAR_DATE ( 2009, 29, 6 ) ;
#364 = LOCAL_TIME ( 11, 14, 10.00000000000000000, #365 ) ;
#365 = COORDINATED_UNIVERSAL_TIME_OFFSET ( 9, 0, .AHEAD. ) ;
#366 = PERSON_AND_ORGANIZATION_ROLE ( 'design_supplier' ) ;
#367 = PERSON_AND_ORGANIZATION ( #317, #311 ) ;
#368 = CC_DESIGN_DATE_AND_TIME_ASSIGNMENT ( #348, #362, ( #331 ) ) ;
#369 = PERSON_AND_ORGANIZATION_ROLE ( 'creator' ) ;
#370 = APPROVAL_DATE_TIME ( #326, #327 ) ;
#371 = CC_DESIGN_DATE_AND_TIME_ASSIGNMENT ( #323, #322, ( #315 ) ) ;
#372 = PRODUCT_DEFINITION_SHAPE ( 'NONE', 'NONE',  #315 ) ;
#373 = CC_DESIGN_PERSON_AND_ORGANIZATION_ASSIGNMENT ( #378, #377, ( #341 ) ) ;
#374 = CALENDAR_DATE ( 2009, 29, 6 ) ;
#375 = COORDINATED_UNIVERSAL_TIME_OFFSET ( 9, 0, .AHEAD. ) ;
#376 = COORDINATED_UNIVERSAL_TIME_OFFSET ( 9, 0, .AHEAD. ) ;
#377 = PERSON_AND_ORGANIZATION_ROLE ( 'creator' ) ;
#378 = PERSON_AND_ORGANIZATION ( #317, #311 ) ;
#379 = CC_DESIGN_APPROVAL ( #338, ( #341 ) ) ;
#380 = APPROVAL_DATE_TIME ( #342, #338 ) ;
#381 = PERSON_AND_ORGANIZATION ( #317, #311 ) ;
ENDSEC;
END-ISO-10303-21;
