ISO-10303-21;
HEADER;
FILE_DESCRIPTION (( 'STEP AP203' ),
    '1' );
FILE_NAME ('C-30-RK-34-gray.STEP',
    '2009-06-29T02:12:20',
    ( '11sw' ),
    ( '^LQ»¢®ïÐ' ),
    'SwSTEP 2.0',
    'SolidWorks 2007',
    '' );
FILE_SCHEMA (( 'CONFIG_CONTROL_DESIGN' ));
ENDSEC;

DATA;
#1 = DIRECTION ( 'NONE',  ( 0.0000000000000000000, 0.0000000000000000000, 1.000000000000000000 ) ) ;
#2 = DIRECTION ( 'NONE',  ( 0.0000000000000000000, -0.9761870601839527400, -0.2169304578186563600 ) ) ;
#3 = VECTOR ( 'NONE', #2, 1000.000000000000000 ) ;
#4 = PLANE ( 'NONE',  #5 ) ;
#5 = AXIS2_PLACEMENT_3D ( 'NONE', #7, #8, #6 ) ;
#6 = DIRECTION ( 'NONE',  ( 0.0000000000000000000, 0.0000000000000000000, 1.000000000000000000 ) ) ;
#7 = CARTESIAN_POINT ( 'NONE',  ( 2.499999999499068300, -17.99999999650043500, 0.0000000000000000000 ) ) ;
#8 = DIRECTION ( 'NONE',  ( 0.0000000000000000000, 1.000000000000000000, 0.0000000000000000000 ) ) ;
#9 = ORIENTED_EDGE ( 'NONE', *, *, #70, .T. ) ;
#10 = ORIENTED_EDGE ( 'NONE', *, *, #109, .T. ) ;
#11 = ORIENTED_EDGE ( 'NONE', *, *, #77, .F. ) ;
#12 = EDGE_CURVE ( 'NONE', #124, #145, #74, .T. ) ;
#13 = DIRECTION ( 'NONE',  ( 0.0000000000000000000, 0.0000000000000000000, 1.000000000000000000 ) ) ;
#14 = DIRECTION ( 'NONE',  ( 0.0000000000000000000, 1.000000000000000000, 0.0000000000000000000 ) ) ;
#15 = CARTESIAN_POINT ( 'NONE',  ( -5.009326287108706300E-010, 2.412507003500041800, 0.0000000000000000000 ) ) ;
#16 = AXIS2_PLACEMENT_3D ( 'NONE', #15, #14, #13 ) ;
#17 = CARTESIAN_POINT ( 'NONE',  ( -5.009315877954698800E-010, -9.999999996500433100, -8.500000000000000000 ) ) ;
#18 = ADVANCED_FACE ( 'NONE', ( #75 ), #131, .T. ) ;
#19 = DIRECTION ( 'NONE',  ( 0.0000000000000000000, 0.0000000000000000000, 1.000000000000000000 ) ) ;
#20 = DIRECTION ( 'NONE',  ( 0.0000000000000000000, 1.000000000000000000, 0.0000000000000000000 ) ) ;
#21 = CARTESIAN_POINT ( 'NONE',  ( -5.009326287108706300E-010, -0.7830695386817770900, 0.0000000000000000000 ) ) ;
#22 = AXIS2_PLACEMENT_3D ( 'NONE', #21, #20, #19 ) ;
#23 = CIRCLE ( 'NONE', #22, 13.17401545381807400 ) ;
#24 = ORIENTED_EDGE ( 'NONE', *, *, #49, .F. ) ;
#25 = CIRCLE ( 'NONE', #90, 12.19782839363412000 ) ;
#26 = CARTESIAN_POINT ( 'NONE',  ( -5.009310751848114600E-010, 3.499566521986130500E-009, -12.19782839363412000 ) ) ;
#27 = ORIENTED_EDGE ( 'NONE', *, *, #76, .F. ) ;
#28 = ADVANCED_FACE ( 'NONE', ( #42 ), #38, .F. ) ;
#29 = EDGE_LOOP ( 'NONE', ( #97, #100, #51, #61 ) ) ;
#30 = VERTEX_POINT ( 'NONE', #17 ) ;
#31 = VERTEX_POINT ( 'NONE', #26 ) ;
#32 = ORIENTED_EDGE ( 'NONE', *, *, #33, .F. ) ;
#33 = EDGE_CURVE ( 'NONE', #34, #31, #25, .T. ) ;
#34 = VERTEX_POINT ( 'NONE', #86 ) ;
#35 = ORIENTED_EDGE ( 'NONE', *, *, #36, .T. ) ;
#36 = EDGE_CURVE ( 'NONE', #66, #65, #23, .T. ) ;
#37 = ORIENTED_EDGE ( 'NONE', *, *, #79, .T. ) ;
#38 = CYLINDRICAL_SURFACE ( 'NONE', #16, 8.500000000000000000 ) ;
#39 = DIRECTION ( 'NONE',  ( 0.0000000000000000000, 0.0000000000000000000, 1.000000000000000000 ) ) ;
#40 = DIRECTION ( 'NONE',  ( 0.0000000000000000000, 1.000000000000000000, 0.0000000000000000000 ) ) ;
#41 = AXIS2_PLACEMENT_3D ( 'NONE', #132, #40, #39 ) ;
#42 = FACE_OUTER_BOUND ( 'NONE', #29, .T. ) ;
#43 = EDGE_LOOP ( 'NONE', ( #24, #27, #125, #9 ) ) ;
#44 = EDGE_LOOP ( 'NONE', ( #135, #48 ) ) ;
#45 = EDGE_CURVE ( 'NONE', #93, #92, #142, .T. ) ;
#46 = ADVANCED_FACE ( 'NONE', ( #143, #137 ), #4, .F. ) ;
#47 = ORIENTED_EDGE ( 'NONE', *, *, #12, .F. ) ;
#48 = ORIENTED_EDGE ( 'NONE', *, *, #91, .T. ) ;
#49 = EDGE_CURVE ( 'NONE', #30, #50, #169, .T. ) ;
#50 = VERTEX_POINT ( 'NONE', #178 ) ;
#51 = ORIENTED_EDGE ( 'NONE', *, *, #59, .T. ) ;
#52 = ORIENTED_EDGE ( 'NONE', *, *, #59, .F. ) ;
#53 = EDGE_LOOP ( 'NONE', ( #54, #10 ) ) ;
#54 = ORIENTED_EDGE ( 'NONE', *, *, #33, .T. ) ;
#55 = EDGE_LOOP ( 'NONE', ( #56, #57, #32, #63 ) ) ;
#56 = ORIENTED_EDGE ( 'NONE', *, *, #150, .T. ) ;
#57 = ORIENTED_EDGE ( 'NONE', *, *, #58, .T. ) ;
#58 = EDGE_CURVE ( 'NONE', #66, #31, #165, .T. ) ;
#59 = EDGE_CURVE ( 'NONE', #50, #60, #156, .T. ) ;
#60 = VERTEX_POINT ( 'NONE', #157 ) ;
#61 = ORIENTED_EDGE ( 'NONE', *, *, #62, .F. ) ;
#62 = EDGE_CURVE ( 'NONE', #99, #60, #173, .T. ) ;
#63 = ORIENTED_EDGE ( 'NONE', *, *, #79, .F. ) ;
#64 = CLOSED_SHELL ( 'NONE', ( #152, #128, #28, #18, #111, #110, #116, #103, #85, #46, #101 ) ) ;
#65 = VERTEX_POINT ( 'NONE', #180 ) ;
#66 = VERTEX_POINT ( 'NONE', #179 ) ;
#67 = ORIENTED_EDGE ( 'NONE', *, *, #144, .T. ) ;
#68 = EDGE_LOOP ( 'NONE', ( #69, #52 ) ) ;
#69 = ORIENTED_EDGE ( 'NONE', *, *, #70, .F. ) ;
#70 = EDGE_CURVE ( 'NONE', #60, #50, #163, .T. ) ;
#71 = DIRECTION ( 'NONE',  ( 0.0000000000000000000, 1.000000000000000000, 0.0000000000000000000 ) ) ;
#72 = CARTESIAN_POINT ( 'NONE',  ( -5.009326287108706300E-010, -17.99999999650043500, 0.0000000000000000000 ) ) ;
#73 = AXIS2_PLACEMENT_3D ( 'NONE', #72, #71, #133 ) ;
#74 = CIRCLE ( 'NONE', #73, 17.00000000000000000 ) ;
#75 = FACE_OUTER_BOUND ( 'NONE', #55, .T. ) ;
#76 = EDGE_CURVE ( 'NONE', #99, #30, #177, .T. ) ;
#77 = EDGE_CURVE ( 'NONE', #81, #78, #192, .T. ) ;
#78 = VERTEX_POINT ( 'NONE', #185 ) ;
#79 = EDGE_CURVE ( 'NONE', #65, #34, #204, .T. ) ;
#80 = EDGE_CURVE ( 'NONE', #92, #81, #200, .T. ) ;
#81 = VERTEX_POINT ( 'NONE', #201 ) ;
#82 = ORIENTED_EDGE ( 'NONE', *, *, #77, .T. ) ;
#83 = ORIENTED_EDGE ( 'NONE', *, *, #45, .F. ) ;
#84 = ORIENTED_EDGE ( 'NONE', *, *, #98, .T. ) ;
#85 = ADVANCED_FACE ( 'NONE', ( #196 ), #190, .F. ) ;
#86 = CARTESIAN_POINT ( 'NONE',  ( -5.009326287108706300E-010, 3.499566521986130500E-009, 12.19782839363412000 ) ) ;
#87 = DIRECTION ( 'NONE',  ( 0.0000000000000000000, 0.0000000000000000000, 1.000000000000000000 ) ) ;
#88 = DIRECTION ( 'NONE',  ( 0.0000000000000000000, 1.000000000000000000, 0.0000000000000000000 ) ) ;
#89 = CARTESIAN_POINT ( 'NONE',  ( -5.009326287108706300E-010, 3.499566521986130500E-009, 0.0000000000000000000 ) ) ;
#90 = AXIS2_PLACEMENT_3D ( 'NONE', #89, #88, #87 ) ;
#91 = EDGE_CURVE ( 'NONE', #92, #93, #211, .T. ) ;
#92 = VERTEX_POINT ( 'NONE', #213 ) ;
#93 = VERTEX_POINT ( 'NONE', #212 ) ;
#94 = ORIENTED_EDGE ( 'NONE', *, *, #80, .T. ) ;
#95 = ORIENTED_EDGE ( 'NONE', *, *, #96, .F. ) ;
#96 = EDGE_CURVE ( 'NONE', #66, #124, #207, .T. ) ;
#97 = ORIENTED_EDGE ( 'NONE', *, *, #98, .F. ) ;
#98 = EDGE_CURVE ( 'NONE', #30, #99, #316, .T. ) ;
#99 = VERTEX_POINT ( 'NONE', #320 ) ;
#100 = ORIENTED_EDGE ( 'NONE', *, *, #49, .T. ) ;
#101 = ADVANCED_FACE ( 'NONE', ( #319 ), #317, .T. ) ;
#102 = EDGE_LOOP ( 'NONE', ( #117, #134, #121, #120 ) ) ;
#103 = ADVANCED_FACE ( 'NONE', ( #227, #226 ), #231, .F. ) ;
#104 = EDGE_LOOP ( 'NONE', ( #123, #83, #118, #119 ) ) ;
#105 = EDGE_LOOP ( 'NONE', ( #114, #11 ) ) ;
#106 = ORIENTED_EDGE ( 'NONE', *, *, #107, .F. ) ;
#107 = EDGE_CURVE ( 'NONE', #93, #78, #277, .T. ) ;
#108 = ORIENTED_EDGE ( 'NONE', *, *, #109, .F. ) ;
#109 = EDGE_CURVE ( 'NONE', #31, #34, #377, .T. ) ;
#110 = ADVANCED_FACE ( 'NONE', ( #372, #371 ), #370, .F. ) ;
#111 = ADVANCED_FACE ( 'NONE', ( #365 ), #364, .T. ) ;
#112 = EDGE_LOOP ( 'NONE', ( #113, #35, #37, #108 ) ) ;
#113 = ORIENTED_EDGE ( 'NONE', *, *, #58, .F. ) ;
#114 = ORIENTED_EDGE ( 'NONE', *, *, #115, .F. ) ;
#115 = EDGE_CURVE ( 'NONE', #78, #81, #359, .T. ) ;
#116 = ADVANCED_FACE ( 'NONE', ( #354 ), #353, .F. ) ;
#117 = ORIENTED_EDGE ( 'NONE', *, *, #144, .F. ) ;
#118 = ORIENTED_EDGE ( 'NONE', *, *, #107, .T. ) ;
#119 = ORIENTED_EDGE ( 'NONE', *, *, #115, .T. ) ;
#120 = ORIENTED_EDGE ( 'NONE', *, *, #12, .T. ) ;
#121 = ORIENTED_EDGE ( 'NONE', *, *, #96, .T. ) ;
#122 = ORIENTED_EDGE ( 'NONE', *, *, #76, .T. ) ;
#123 = ORIENTED_EDGE ( 'NONE', *, *, #80, .F. ) ;
#124 = VERTEX_POINT ( 'NONE', #348 ) ;
#125 = ORIENTED_EDGE ( 'NONE', *, *, #62, .T. ) ;
#126 = ORIENTED_EDGE ( 'NONE', *, *, #147, .F. ) ;
#127 = EDGE_LOOP ( 'NONE', ( #47, #126 ) ) ;
#128 = ADVANCED_FACE ( 'NONE', ( #347 ), #345, .F. ) ;
#129 = EDGE_LOOP ( 'NONE', ( #130, #94, #82, #106 ) ) ;
#130 = ORIENTED_EDGE ( 'NONE', *, *, #91, .F. ) ;
#131 = TOROIDAL_SURFACE ( 'NONE', #41, 12.19782839363412000, 1.000000000000000200 ) ;
#132 = CARTESIAN_POINT ( 'NONE',  ( -5.009326287108706300E-010, -0.9999999965004334700, 0.0000000000000000000 ) ) ;
#133 = DIRECTION ( 'NONE',  ( 0.0000000000000000000, 0.0000000000000000000, 1.000000000000000000 ) ) ;
#134 = ORIENTED_EDGE ( 'NONE', *, *, #36, .F. ) ;
#135 = ORIENTED_EDGE ( 'NONE', *, *, #45, .T. ) ;
#136 = EDGE_LOOP ( 'NONE', ( #122, #84 ) ) ;
#137 = FACE_BOUND ( 'NONE', #44, .T. ) ;
#138 = DIRECTION ( 'NONE',  ( 0.0000000000000000000, 0.0000000000000000000, 1.000000000000000000 ) ) ;
#139 = DIRECTION ( 'NONE',  ( 0.0000000000000000000, 1.000000000000000000, 0.0000000000000000000 ) ) ;
#140 = CARTESIAN_POINT ( 'NONE',  ( -5.009326287108706300E-010, -17.99999999650043500, 0.0000000000000000000 ) ) ;
#141 = AXIS2_PLACEMENT_3D ( 'NONE', #140, #139, #138 ) ;
#142 = CIRCLE ( 'NONE', #141, 2.500000000000000900 ) ;
#143 = FACE_OUTER_BOUND ( 'NONE', #127, .T. ) ;
#144 = EDGE_CURVE ( 'NONE', #65, #145, #312, .T. ) ;
#145 = VERTEX_POINT ( 'NONE', #308 ) ;
#146 = ORIENTED_EDGE ( 'NONE', *, *, #147, .T. ) ;
#147 = EDGE_CURVE ( 'NONE', #145, #124, #307, .T. ) ;
#148 = EDGE_LOOP ( 'NONE', ( #149, #67, #146, #95 ) ) ;
#149 = ORIENTED_EDGE ( 'NONE', *, *, #150, .F. ) ;
#150 = EDGE_CURVE ( 'NONE', #65, #66, #302, .T. ) ;
#151 = MANIFOLD_SOLID_BREP ( 'NONE', #64 ) ;
#152 = ADVANCED_FACE ( 'NONE', ( #297 ), #296, .T. ) ;
#153 = CARTESIAN_POINT ( 'NONE',  ( -5.009311349570553000E-010, -0.9999999965004334700, -12.19782839363412000 ) ) ;
#154 = DIRECTION ( 'NONE',  ( 0.0000000000000000000, 1.000000000000000000, 0.0000000000000000000 ) ) ;
#155 = CARTESIAN_POINT ( 'NONE',  ( -5.009326287108706300E-010, 3.499566521986130500E-009, 0.0000000000000000000 ) ) ;
#156 = CIRCLE ( 'NONE', #168, 8.500000000000000000 ) ;
#157 = CARTESIAN_POINT ( 'NONE',  ( -5.009326287108706300E-010, 3.499566521986130500E-009, 8.500000000000000000 ) ) ;
#158 = VECTOR ( 'NONE', #154, 1000.000000000000000 ) ;
#159 = DIRECTION ( 'NONE',  ( 0.0000000000000000000, 0.0000000000000000000, 1.000000000000000000 ) ) ;
#160 = DIRECTION ( 'NONE',  ( 0.0000000000000000000, 1.000000000000000000, 0.0000000000000000000 ) ) ;
#161 = CARTESIAN_POINT ( 'NONE',  ( -5.009326287108706300E-010, 3.499566521986130500E-009, 0.0000000000000000000 ) ) ;
#162 = AXIS2_PLACEMENT_3D ( 'NONE', #161, #160, #159 ) ;
#163 = CIRCLE ( 'NONE', #162, 8.500000000000000000 ) ;
#164 = CARTESIAN_POINT ( 'NONE',  ( -5.009326287108706300E-010, -9.999999996500433100, 0.0000000000000000000 ) ) ;
#165 = CIRCLE ( 'NONE', #183, 1.000000000000000900 ) ;
#166 = DIRECTION ( 'NONE',  ( 0.0000000000000000000, 0.0000000000000000000, 1.000000000000000000 ) ) ;
#167 = DIRECTION ( 'NONE',  ( 0.0000000000000000000, 1.000000000000000000, 0.0000000000000000000 ) ) ;
#168 = AXIS2_PLACEMENT_3D ( 'NONE', #155, #167, #166 ) ;
#169 = LINE ( 'NONE', #184, #158 ) ;
#170 = DIRECTION ( 'NONE',  ( 0.0000000000000000000, 1.000000000000000000, 0.0000000000000000000 ) ) ;
#171 = VECTOR ( 'NONE', #170, 1000.000000000000000 ) ;
#172 = CARTESIAN_POINT ( 'NONE',  ( -5.009326287108706300E-010, 2.412507003500041800, 8.500000000000000000 ) ) ;
#173 = LINE ( 'NONE', #172, #171 ) ;
#174 = DIRECTION ( 'NONE',  ( 0.0000000000000000000, 0.0000000000000000000, 1.000000000000000000 ) ) ;
#175 = DIRECTION ( 'NONE',  ( 0.0000000000000000000, 1.000000000000000000, 0.0000000000000000000 ) ) ;
#176 = AXIS2_PLACEMENT_3D ( 'NONE', #164, #175, #174 ) ;
#177 = CIRCLE ( 'NONE', #176, 8.500000000000000000 ) ;
#178 = CARTESIAN_POINT ( 'NONE',  ( -5.009315877954698800E-010, 3.499566521986130500E-009, -8.500000000000000000 ) ) ;
#179 = CARTESIAN_POINT ( 'NONE',  ( -5.009310154125676200E-010, -0.7830695386817770900, -13.17401545381807400 ) ) ;
#180 = CARTESIAN_POINT ( 'NONE',  ( -5.009326287108706300E-010, -0.7830695386817770900, 13.17401545381807400 ) ) ;
#181 = DIRECTION ( 'NONE',  ( 1.224606353612349900E-016, 0.0000000000000000000, -1.000000000000000000 ) ) ;
#182 = DIRECTION ( 'NONE',  ( 1.000000000000000000, 0.0000000000000000000, 1.224606353822377300E-016 ) ) ;
#183 = AXIS2_PLACEMENT_3D ( 'NONE', #153, #182, #181 ) ;
#184 = CARTESIAN_POINT ( 'NONE',  ( -5.009315877954698800E-010, 2.412507003500041800, -8.500000000000000000 ) ) ;
#185 = CARTESIAN_POINT ( 'NONE',  ( -5.009326287108706300E-010, -9.999999996500433100, 2.500000000000000400 ) ) ;
#186 = CARTESIAN_POINT ( 'NONE',  ( -5.009326287108706300E-010, -9.999999996500433100, 0.0000000000000000000 ) ) ;
#187 = DIRECTION ( 'NONE',  ( -1.000000000000000000, 0.0000000000000000000, 0.0000000000000000000 ) ) ;
#188 = CARTESIAN_POINT ( 'NONE',  ( -5.009326287108706300E-010, 2.412507003500041800, 0.0000000000000000000 ) ) ;
#189 = AXIS2_PLACEMENT_3D ( 'NONE', #188, #191, #1 ) ;
#190 = CYLINDRICAL_SURFACE ( 'NONE', #189, 2.500000000000000400 ) ;
#191 = DIRECTION ( 'NONE',  ( 0.0000000000000000000, 1.000000000000000000, 0.0000000000000000000 ) ) ;
#192 = CIRCLE ( 'NONE', #203, 2.500000000000000400 ) ;
#193 = DIRECTION ( 'NONE',  ( 0.0000000000000000000, 1.000000000000000000, 0.0000000000000000000 ) ) ;
#194 = DIRECTION ( 'NONE',  ( 0.0000000000000000000, 0.0000000000000000000, 1.000000000000000000 ) ) ;
#195 = AXIS2_PLACEMENT_3D ( 'NONE', #205, #187, #202 ) ;
#196 = FACE_OUTER_BOUND ( 'NONE', #104, .T. ) ;
#197 = DIRECTION ( 'NONE',  ( 0.0000000000000000000, 1.000000000000000000, 0.0000000000000000000 ) ) ;
#198 = VECTOR ( 'NONE', #197, 1000.000000000000000 ) ;
#199 = CARTESIAN_POINT ( 'NONE',  ( -5.009323225592821800E-010, 2.412507003500041800, -2.500000000000000400 ) ) ;
#200 = LINE ( 'NONE', #199, #198 ) ;
#201 = CARTESIAN_POINT ( 'NONE',  ( -5.009323225592821800E-010, -9.999999996500433100, -2.500000000000000400 ) ) ;
#202 = DIRECTION ( 'NONE',  ( 0.0000000000000000000, 0.0000000000000000000, 1.000000000000000000 ) ) ;
#203 = AXIS2_PLACEMENT_3D ( 'NONE', #186, #193, #194 ) ;
#204 = CIRCLE ( 'NONE', #195, 1.000000000000000900 ) ;
#205 = CARTESIAN_POINT ( 'NONE',  ( -5.009326287108706300E-010, -0.9999999965004334700, 12.19782839363412000 ) ) ;
#206 = CARTESIAN_POINT ( 'NONE',  ( -5.009326287108706300E-010, -17.99999999650043500, -17.00000000000000000 ) ) ;
#207 = LINE ( 'NONE', #206, #3 ) ;
#208 = DIRECTION ( 'NONE',  ( 0.0000000000000000000, 0.0000000000000000000, 1.000000000000000000 ) ) ;
#209 = DIRECTION ( 'NONE',  ( 0.0000000000000000000, 1.000000000000000000, 0.0000000000000000000 ) ) ;
#210 = AXIS2_PLACEMENT_3D ( 'NONE', #214, #209, #208 ) ;
#211 = CIRCLE ( 'NONE', #210, 2.500000000000000900 ) ;
#212 = CARTESIAN_POINT ( 'NONE',  ( -5.009326287108706300E-010, -17.99999999650043500, 2.500000000000000900 ) ) ;
#213 = CARTESIAN_POINT ( 'NONE',  ( -5.009323225592821800E-010, -17.99999999650043500, -2.500000000000000900 ) ) ;
#214 = CARTESIAN_POINT ( 'NONE',  ( -5.009326287108706300E-010, -17.99999999650043500, 0.0000000000000000000 ) ) ;
#215 = PERSON_AND_ORGANIZATION_ROLE ( 'design_owner' ) ;
#216 = PERSON_AND_ORGANIZATION ( #218, #217 ) ;
#217 = ORGANIZATION ( 'UNSPECIFIED', 'UNSPECIFIED', '' ) ;
#218 = PERSON ( 'UNSPECIFIED', 'UNSPECIFIED', 'UNSPECIFIED', ('UNSPECIFIED'), ('UNSPECIFIED'), ('UNSPECIFIED') ) ;
#219 = PRODUCT ( 'C-30-RK-34-gray', 'C-30-RK-34-gray', '', ( #220 ) ) ;
#220 = MECHANICAL_CONTEXT ( 'NONE', #283, 'mechanical' ) ;
#221 = SHAPE_DEFINITION_REPRESENTATION ( #379, #222 ) ;
#222 = ADVANCED_BREP_SHAPE_REPRESENTATION ( 'C-30-RK-34-gray', ( #151, #286 ), #223 ) ;
#223 =( GEOMETRIC_REPRESENTATION_CONTEXT ( 3 ) GLOBAL_UNCERTAINTY_ASSIGNED_CONTEXT ( ( #224 ) ) GLOBAL_UNIT_ASSIGNED_CONTEXT ( ( #290, #289, #225 ) ) REPRESENTATION_CONTEXT ( 'NONE', 'WORKASPACE' ) );
#224 = UNCERTAINTY_MEASURE_WITH_UNIT (LENGTH_MEASURE( 1.000000000000000100E-005 ), #290, 'distance_accuracy_value', 'NONE');
#225 =( NAMED_UNIT ( * ) SI_UNIT ( $, .STERADIAN. ) SOLID_ANGLE_UNIT ( ) );
#226 = FACE_OUTER_BOUND ( 'NONE', #136, .T. ) ;
#227 = FACE_BOUND ( 'NONE', #105, .T. ) ;
#228 = DIRECTION ( 'NONE',  ( 0.0000000000000000000, 0.0000000000000000000, -1.000000000000000000 ) ) ;
#229 = DIRECTION ( 'NONE',  ( 0.0000000000000000000, -1.000000000000000000, 0.0000000000000000000 ) ) ;
#230 = AXIS2_PLACEMENT_3D ( 'NONE', #318, #229, #228 ) ;
#231 = PLANE ( 'NONE',  #281 ) ;
#232 = CC_DESIGN_PERSON_AND_ORGANIZATION_ASSIGNMENT ( #234, #233, ( #249 ) ) ;
#233 = PERSON_AND_ORGANIZATION_ROLE ( 'design_supplier' ) ;
#234 = PERSON_AND_ORGANIZATION ( #218, #217 ) ;
#235 = CC_DESIGN_PERSON_AND_ORGANIZATION_ASSIGNMENT ( #237, #236, ( #249 ) ) ;
#236 = PERSON_AND_ORGANIZATION_ROLE ( 'creator' ) ;
#237 = PERSON_AND_ORGANIZATION ( #218, #217 ) ;
#238 = CC_DESIGN_APPROVAL ( #246, ( #249 ) ) ;
#239 = APPROVAL_DATE_TIME ( #240, #246 ) ;
#240 = DATE_AND_TIME ( #241, #242 ) ;
#241 = CALENDAR_DATE ( 2009, 29, 6 ) ;
#242 = LOCAL_TIME ( 11, 12, 20.00000000000000000, #243 ) ;
#243 = COORDINATED_UNIVERSAL_TIME_OFFSET ( 9, 0, .AHEAD. ) ;
#244 = APPROVAL_PERSON_ORGANIZATION ( #248, #246, #245 ) ;
#245 = APPROVAL_ROLE ( '' ) ;
#246 = APPROVAL ( #247, 'UNSPECIFIED' ) ;
#247 = APPROVAL_STATUS ( 'not_yet_approved' ) ;
#248 = PERSON_AND_ORGANIZATION ( #218, #217 ) ;
#249 = PRODUCT_DEFINITION_FORMATION_WITH_SPECIFIED_SOURCE ( 'ANY', '', #219, .NOT_KNOWN. ) ;
#250 = CC_DESIGN_DATE_AND_TIME_ASSIGNMENT ( #252, #251, ( #270 ) ) ;
#251 = DATE_TIME_ROLE ( 'creation_date' ) ;
#252 = DATE_AND_TIME ( #253, #254 ) ;
#253 = CALENDAR_DATE ( 2009, 29, 6 ) ;
#254 = LOCAL_TIME ( 11, 12, 20.00000000000000000, #255 ) ;
#255 = COORDINATED_UNIVERSAL_TIME_OFFSET ( 9, 0, .AHEAD. ) ;
#256 = CC_DESIGN_PERSON_AND_ORGANIZATION_ASSIGNMENT ( #258, #257, ( #270 ) ) ;
#257 = PERSON_AND_ORGANIZATION_ROLE ( 'creator' ) ;
#258 = PERSON_AND_ORGANIZATION ( #218, #217 ) ;
#259 = CC_DESIGN_APPROVAL ( #267, ( #270 ) ) ;
#260 = APPROVAL_DATE_TIME ( #261, #267 ) ;
#261 = DATE_AND_TIME ( #262, #263 ) ;
#262 = CALENDAR_DATE ( 2009, 29, 6 ) ;
#263 = LOCAL_TIME ( 11, 12, 20.00000000000000000, #264 ) ;
#264 = COORDINATED_UNIVERSAL_TIME_OFFSET ( 9, 0, .AHEAD. ) ;
#265 = APPROVAL_PERSON_ORGANIZATION ( #269, #267, #266 ) ;
#266 = APPROVAL_ROLE ( '' ) ;
#267 = APPROVAL ( #268, 'UNSPECIFIED' ) ;
#268 = APPROVAL_STATUS ( 'not_yet_approved' ) ;
#269 = PERSON_AND_ORGANIZATION ( #218, #217 ) ;
#270 = PRODUCT_DEFINITION ( 'UNKNOWN', '', #249, #271 ) ;
#271 = DESIGN_CONTEXT ( 'detailed design', #273, 'design' ) ;
#272 = APPLICATION_PROTOCOL_DEFINITION ( 'international standard', 'config_control_design', 1994, #273 ) ;
#273 = APPLICATION_CONTEXT ( 'configuration controlled 3d designs of mechanical parts and assemblies' ) ;
#274 = CC_DESIGN_PERSON_AND_ORGANIZATION_ASSIGNMENT ( #216, #215, ( #219 ) ) ;
#275 = DIRECTION ( 'NONE',  ( 0.0000000000000000000, 1.000000000000000000, 0.0000000000000000000 ) ) ;
#276 = CARTESIAN_POINT ( 'NONE',  ( -5.009326287108706300E-010, 2.412507003500041800, 2.500000000000000400 ) ) ;
#277 = LINE ( 'NONE', #276, #378 ) ;
#278 = DIRECTION ( 'NONE',  ( 0.0000000000000000000, 0.0000000000000000000, -1.000000000000000000 ) ) ;
#279 = DIRECTION ( 'NONE',  ( 0.0000000000000000000, -1.000000000000000000, 0.0000000000000000000 ) ) ;
#280 = CARTESIAN_POINT ( 'NONE',  ( 8.499999999499067400, -9.999999996500433100, 0.0000000000000000000 ) ) ;
#281 = AXIS2_PLACEMENT_3D ( 'NONE', #280, #279, #278 ) ;
#282 = APPLICATION_PROTOCOL_DEFINITION ( 'international standard', 'config_control_design', 1994, #283 ) ;
#283 = APPLICATION_CONTEXT ( 'configuration controlled 3d designs of mechanical parts and assemblies' ) ;
#284 = DIRECTION ( 'NONE',  ( 1.000000000000000000, 0.0000000000000000000, 0.0000000000000000000 ) ) ;
#285 = DIRECTION ( 'NONE',  ( 0.0000000000000000000, 0.0000000000000000000, 1.000000000000000000 ) ) ;
#286 = AXIS2_PLACEMENT_3D ( 'NONE', #295, #285, #284 ) ;
#287 = CARTESIAN_POINT ( 'NONE',  ( -5.009326287108706300E-010, -9.999999996500433100, 0.0000000000000000000 ) ) ;
#288 = AXIS2_PLACEMENT_3D ( 'NONE', #287, #322, #321 ) ;
#289 =( NAMED_UNIT ( * ) PLANE_ANGLE_UNIT ( ) SI_UNIT ( $, .RADIAN. ) );
#290 =( LENGTH_UNIT ( ) NAMED_UNIT ( * ) SI_UNIT ( .MILLI., .METRE. ) );
#291 = DIRECTION ( 'NONE',  ( 0.0000000000000000000, 0.0000000000000000000, -1.000000000000000000 ) ) ;
#292 = DIRECTION ( 'NONE',  ( 0.0000000000000000000, -1.000000000000000000, 0.0000000000000000000 ) ) ;
#293 = CARTESIAN_POINT ( 'NONE',  ( -5.009326287108706300E-010, -17.99999999650043500, 0.0000000000000000000 ) ) ;
#294 = AXIS2_PLACEMENT_3D ( 'NONE', #293, #292, #291 ) ;
#295 = CARTESIAN_POINT ( 'NONE',  ( 0.0000000000000000000, 0.0000000000000000000, 0.0000000000000000000 ) ) ;
#296 = CONICAL_SURFACE ( 'NONE', #294, 17.00000000000000000, 0.2186689458739421400 ) ;
#297 = FACE_OUTER_BOUND ( 'NONE', #148, .T. ) ;
#298 = DIRECTION ( 'NONE',  ( 0.0000000000000000000, 0.0000000000000000000, 1.000000000000000000 ) ) ;
#299 = DIRECTION ( 'NONE',  ( 0.0000000000000000000, 1.000000000000000000, 0.0000000000000000000 ) ) ;
#300 = CARTESIAN_POINT ( 'NONE',  ( -5.009326287108706300E-010, -0.7830695386817770900, 0.0000000000000000000 ) ) ;
#301 = AXIS2_PLACEMENT_3D ( 'NONE', #300, #299, #298 ) ;
#302 = CIRCLE ( 'NONE', #301, 13.17401545381807400 ) ;
#303 = DIRECTION ( 'NONE',  ( 0.0000000000000000000, 0.0000000000000000000, 1.000000000000000000 ) ) ;
#304 = DIRECTION ( 'NONE',  ( 0.0000000000000000000, 1.000000000000000000, 0.0000000000000000000 ) ) ;
#305 = CARTESIAN_POINT ( 'NONE',  ( -5.009326287108706300E-010, -17.99999999650043500, 0.0000000000000000000 ) ) ;
#306 = AXIS2_PLACEMENT_3D ( 'NONE', #305, #304, #303 ) ;
#307 = CIRCLE ( 'NONE', #306, 17.00000000000000000 ) ;
#308 = CARTESIAN_POINT ( 'NONE',  ( -5.009305468800691300E-010, -17.99999999650043500, 17.00000000000000000 ) ) ;
#309 = DIRECTION ( 'NONE',  ( 2.656544169823237900E-017, -0.9761870601839527400, 0.2169304578186563600 ) ) ;
#310 = VECTOR ( 'NONE', #309, 1000.000000000000000 ) ;
#311 = CARTESIAN_POINT ( 'NONE',  ( -5.009305468800691300E-010, -17.99999999650043500, 17.00000000000000000 ) ) ;
#312 = LINE ( 'NONE', #311, #310 ) ;
#313 = DIRECTION ( 'NONE',  ( 0.0000000000000000000, 0.0000000000000000000, 1.000000000000000000 ) ) ;
#314 = DIRECTION ( 'NONE',  ( 0.0000000000000000000, 1.000000000000000000, 0.0000000000000000000 ) ) ;
#315 = AXIS2_PLACEMENT_3D ( 'NONE', #346, #314, #313 ) ;
#316 = CIRCLE ( 'NONE', #288, 8.500000000000000000 ) ;
#317 = CONICAL_SURFACE ( 'NONE', #230, 17.00000000000000000, 0.2186689458739421400 ) ;
#318 = CARTESIAN_POINT ( 'NONE',  ( -5.009326287108706300E-010, -17.99999999650043500, 0.0000000000000000000 ) ) ;
#319 = FACE_OUTER_BOUND ( 'NONE', #102, .T. ) ;
#320 = CARTESIAN_POINT ( 'NONE',  ( -5.009326287108706300E-010, -9.999999996500433100, 8.500000000000000000 ) ) ;
#321 = DIRECTION ( 'NONE',  ( 0.0000000000000000000, 0.0000000000000000000, 1.000000000000000000 ) ) ;
#322 = DIRECTION ( 'NONE',  ( 0.0000000000000000000, 1.000000000000000000, 0.0000000000000000000 ) ) ;
#323 = CC_DESIGN_APPROVAL ( #331, ( #343 ) ) ;
#324 = APPROVAL_DATE_TIME ( #325, #331 ) ;
#325 = DATE_AND_TIME ( #326, #327 ) ;
#326 = CALENDAR_DATE ( 2009, 29, 6 ) ;
#327 = LOCAL_TIME ( 11, 12, 20.00000000000000000, #328 ) ;
#328 = COORDINATED_UNIVERSAL_TIME_OFFSET ( 9, 0, .AHEAD. ) ;
#329 = APPROVAL_PERSON_ORGANIZATION ( #333, #331, #330 ) ;
#330 = APPROVAL_ROLE ( '' ) ;
#331 = APPROVAL ( #332, 'UNSPECIFIED' ) ;
#332 = APPROVAL_STATUS ( 'not_yet_approved' ) ;
#333 = PERSON_AND_ORGANIZATION ( #218, #217 ) ;
#334 = CC_DESIGN_DATE_AND_TIME_ASSIGNMENT ( #336, #335, ( #343 ) ) ;
#335 = DATE_TIME_ROLE ( 'classification_date' ) ;
#336 = DATE_AND_TIME ( #337, #338 ) ;
#337 = CALENDAR_DATE ( 2009, 29, 6 ) ;
#338 = LOCAL_TIME ( 11, 12, 20.00000000000000000, #339 ) ;
#339 = COORDINATED_UNIVERSAL_TIME_OFFSET ( 9, 0, .AHEAD. ) ;
#340 = CC_DESIGN_PERSON_AND_ORGANIZATION_ASSIGNMENT ( #342, #341, ( #343 ) ) ;
#341 = PERSON_AND_ORGANIZATION_ROLE ( 'classification_officer' ) ;
#342 = PERSON_AND_ORGANIZATION ( #218, #217 ) ;
#343 = SECURITY_CLASSIFICATION ( '', '', #344 ) ;
#344 = SECURITY_CLASSIFICATION_LEVEL ( 'unclassified' ) ;
#345 = CYLINDRICAL_SURFACE ( 'NONE', #315, 2.500000000000000400 ) ;
#346 = CARTESIAN_POINT ( 'NONE',  ( -5.009326287108706300E-010, 2.412507003500041800, 0.0000000000000000000 ) ) ;
#347 = FACE_OUTER_BOUND ( 'NONE', #129, .T. ) ;
#348 = CARTESIAN_POINT ( 'NONE',  ( -5.009326287108706300E-010, -17.99999999650043500, -17.00000000000000000 ) ) ;
#349 = DIRECTION ( 'NONE',  ( 0.0000000000000000000, 0.0000000000000000000, 1.000000000000000000 ) ) ;
#350 = DIRECTION ( 'NONE',  ( 0.0000000000000000000, 1.000000000000000000, 0.0000000000000000000 ) ) ;
#351 = CARTESIAN_POINT ( 'NONE',  ( -5.009326287108706300E-010, 2.412507003500041800, 0.0000000000000000000 ) ) ;
#352 = AXIS2_PLACEMENT_3D ( 'NONE', #351, #350, #349 ) ;
#353 = CYLINDRICAL_SURFACE ( 'NONE', #352, 8.500000000000000000 ) ;
#354 = FACE_OUTER_BOUND ( 'NONE', #43, .T. ) ;
#355 = DIRECTION ( 'NONE',  ( 0.0000000000000000000, 0.0000000000000000000, 1.000000000000000000 ) ) ;
#356 = DIRECTION ( 'NONE',  ( 0.0000000000000000000, 1.000000000000000000, 0.0000000000000000000 ) ) ;
#357 = CARTESIAN_POINT ( 'NONE',  ( -5.009326287108706300E-010, -9.999999996500433100, 0.0000000000000000000 ) ) ;
#358 = AXIS2_PLACEMENT_3D ( 'NONE', #357, #356, #355 ) ;
#359 = CIRCLE ( 'NONE', #358, 2.500000000000000400 ) ;
#360 = DIRECTION ( 'NONE',  ( 0.0000000000000000000, 0.0000000000000000000, 1.000000000000000000 ) ) ;
#361 = DIRECTION ( 'NONE',  ( 0.0000000000000000000, 1.000000000000000000, 0.0000000000000000000 ) ) ;
#362 = CARTESIAN_POINT ( 'NONE',  ( -5.009326287108706300E-010, -0.9999999965004334700, 0.0000000000000000000 ) ) ;
#363 = AXIS2_PLACEMENT_3D ( 'NONE', #362, #361, #360 ) ;
#364 = TOROIDAL_SURFACE ( 'NONE', #363, 12.19782839363412000, 1.000000000000000200 ) ;
#365 = FACE_OUTER_BOUND ( 'NONE', #112, .T. ) ;
#366 = DIRECTION ( 'NONE',  ( 0.0000000000000000000, 0.0000000000000000000, -1.000000000000000000 ) ) ;
#367 = DIRECTION ( 'NONE',  ( 0.0000000000000000000, -1.000000000000000000, 0.0000000000000000000 ) ) ;
#368 = CARTESIAN_POINT ( 'NONE',  ( 12.19782839313318800, 3.499566521986130500E-009, 0.0000000000000000000 ) ) ;
#369 = AXIS2_PLACEMENT_3D ( 'NONE', #368, #367, #366 ) ;
#370 = PLANE ( 'NONE',  #369 ) ;
#371 = FACE_OUTER_BOUND ( 'NONE', #53, .T. ) ;
#372 = FACE_BOUND ( 'NONE', #68, .T. ) ;
#373 = DIRECTION ( 'NONE',  ( 0.0000000000000000000, 0.0000000000000000000, 1.000000000000000000 ) ) ;
#374 = DIRECTION ( 'NONE',  ( 0.0000000000000000000, 1.000000000000000000, 0.0000000000000000000 ) ) ;
#375 = CARTESIAN_POINT ( 'NONE',  ( -5.009326287108706300E-010, 3.499566521986130500E-009, 0.0000000000000000000 ) ) ;
#376 = AXIS2_PLACEMENT_3D ( 'NONE', #375, #374, #373 ) ;
#377 = CIRCLE ( 'NONE', #376, 12.19782839363412000 ) ;
#378 = VECTOR ( 'NONE', #275, 1000.000000000000000 ) ;
#379 = PRODUCT_DEFINITION_SHAPE ( 'NONE', 'NONE',  #270 ) ;
#380 = PRODUCT_RELATED_PRODUCT_CATEGORY ( 'detail', '', ( #219 ) ) ;
#381 = CC_DESIGN_SECURITY_CLASSIFICATION ( #343, ( #249 ) ) ;
ENDSEC;
END-ISO-10303-21;
