ISO-10303-21;
HEADER;
FILE_DESCRIPTION (( 'STEP AP203' ),
    '1' );
FILE_NAME ('C-30-RK-34.STEP',
    '2009-06-26T06:38:00',
    ( '11sw' ),
    ( '^LQ»¢®ïÐ' ),
    'SwSTEP 2.0',
    'SolidWorks 2007',
    '' );
FILE_SCHEMA (( 'CONFIG_CONTROL_DESIGN' ));
ENDSEC;

DATA;
#1 = APPROVAL_STATUS ( 'not_yet_approved' ) ;
#2 = APPROVAL_ROLE ( '' ) ;
#3 = APPROVAL ( #1, 'UNSPECIFIED' ) ;
#4 = APPROVAL_PERSON_ORGANIZATION ( #118, #3, #2 ) ;
#5 = COORDINATED_UNIVERSAL_TIME_OFFSET ( 9, 0, .AHEAD. ) ;
#6 = CC_DESIGN_APPROVAL ( #3, ( #119 ) ) ;
#7 = DATE_AND_TIME ( #10, #9 ) ;
#8 = APPROVAL_DATE_TIME ( #7, #3 ) ;
#9 = LOCAL_TIME ( 15, 38, 0.0000000000000000000, #5 ) ;
#10 = CALENDAR_DATE ( 2009, 26, 6 ) ;
#11 = ORIENTED_EDGE ( 'NONE', *, *, #77, .F. ) ;
#12 = ORIENTED_EDGE ( 'NONE', *, *, #13, .F. ) ;
#13 = EDGE_CURVE ( 'NONE', #83, #76, #123, .T. ) ;
#14 = ORIENTED_EDGE ( 'NONE', *, *, #46, .T. ) ;
#15 = ORIENTED_EDGE ( 'NONE', *, *, #58, .T. ) ;
#16 = ADVANCED_FACE ( 'NONE', ( #137, #136 ), #145, .F. ) ;
#17 = EDGE_LOOP ( 'NONE', ( #18, #20 ) ) ;
#18 = ORIENTED_EDGE ( 'NONE', *, *, #19, .F. ) ;
#19 = EDGE_CURVE ( 'NONE', #102, #101, #177, .T. ) ;
#20 = ORIENTED_EDGE ( 'NONE', *, *, #92, .F. ) ;
#21 = EDGE_LOOP ( 'NONE', ( #22, #24 ) ) ;
#22 = ORIENTED_EDGE ( 'NONE', *, *, #13, .T. ) ;
#23 = EDGE_LOOP ( 'NONE', ( #26, #27, #29, #30 ) ) ;
#24 = ORIENTED_EDGE ( 'NONE', *, *, #82, .T. ) ;
#25 = ADVANCED_FACE ( 'NONE', ( #172 ), #171, .F. ) ;
#26 = ORIENTED_EDGE ( 'NONE', *, *, #98, .F. ) ;
#27 = ORIENTED_EDGE ( 'NONE', *, *, #28, .F. ) ;
#28 = EDGE_CURVE ( 'NONE', #97, #103, #170, .T. ) ;
#29 = ORIENTED_EDGE ( 'NONE', *, *, #89, .T. ) ;
#30 = ORIENTED_EDGE ( 'NONE', *, *, #19, .T. ) ;
#31 = ADVANCED_FACE ( 'NONE', ( #161, #160 ), #159, .F. ) ;
#32 = EDGE_LOOP ( 'NONE', ( #33, #35 ) ) ;
#33 = ORIENTED_EDGE ( 'NONE', *, *, #34, .F. ) ;
#34 = EDGE_CURVE ( 'NONE', #105, #108, #154, .T. ) ;
#35 = ORIENTED_EDGE ( 'NONE', *, *, #104, .F. ) ;
#36 = EDGE_LOOP ( 'NONE', ( #37, #38 ) ) ;
#37 = ORIENTED_EDGE ( 'NONE', *, *, #28, .T. ) ;
#38 = ORIENTED_EDGE ( 'NONE', *, *, #100, .T. ) ;
#39 = ADVANCED_FACE ( 'NONE', ( #149 ), #147, .T. ) ;
#40 = EDGE_LOOP ( 'NONE', ( #41, #42, #43, #44 ) ) ;
#41 = ORIENTED_EDGE ( 'NONE', *, *, #117, .F. ) ;
#42 = ORIENTED_EDGE ( 'NONE', *, *, #50, .F. ) ;
#43 = ORIENTED_EDGE ( 'NONE', *, *, #93, .T. ) ;
#44 = ORIENTED_EDGE ( 'NONE', *, *, #34, .T. ) ;
#45 = CLOSED_SHELL ( 'NONE', ( #114, #90, #95, #65, #47, #55, #63, #16, #25, #31, #39 ) ) ;
#46 = EDGE_CURVE ( 'NONE', #83, #80, #132, .T. ) ;
#47 = ADVANCED_FACE ( 'NONE', ( #128 ), #126, .T. ) ;
#48 = ORIENTED_EDGE ( 'NONE', *, *, #70, .F. ) ;
#49 = ORIENTED_EDGE ( 'NONE', *, *, #50, .T. ) ;
#50 = EDGE_CURVE ( 'NONE', #110, #113, #325, .T. ) ;
#51 = VERTEX_POINT ( 'NONE', #321 ) ;
#52 = ORIENTED_EDGE ( 'NONE', *, *, #74, .T. ) ;
#53 = ORIENTED_EDGE ( 'NONE', *, *, #54, .F. ) ;
#54 = EDGE_CURVE ( 'NONE', #51, #68, #319, .T. ) ;
#55 = ADVANCED_FACE ( 'NONE', ( #320, #314 ), #313, .F. ) ;
#56 = EDGE_LOOP ( 'NONE', ( #57, #59 ) ) ;
#57 = ORIENTED_EDGE ( 'NONE', *, *, #58, .F. ) ;
#58 = EDGE_CURVE ( 'NONE', #80, #85, #308, .T. ) ;
#59 = ORIENTED_EDGE ( 'NONE', *, *, #79, .F. ) ;
#60 = EDGE_LOOP ( 'NONE', ( #61, #62 ) ) ;
#61 = ORIENTED_EDGE ( 'NONE', *, *, #72, .T. ) ;
#62 = ORIENTED_EDGE ( 'NONE', *, *, #54, .T. ) ;
#63 = ADVANCED_FACE ( 'NONE', ( #303 ), #302, .F. ) ;
#64 = EDGE_LOOP ( 'NONE', ( #11, #12, #14, #15 ) ) ;
#65 = ADVANCED_FACE ( 'NONE', ( #301 ), #296, .T. ) ;
#66 = EDGE_LOOP ( 'NONE', ( #69, #71, #67, #73 ) ) ;
#67 = ORIENTED_EDGE ( 'NONE', *, *, #72, .F. ) ;
#68 = VERTEX_POINT ( 'NONE', #291 ) ;
#69 = ORIENTED_EDGE ( 'NONE', *, *, #109, .T. ) ;
#70 = EDGE_CURVE ( 'NONE', #110, #51, #290, .T. ) ;
#71 = ORIENTED_EDGE ( 'NONE', *, *, #70, .T. ) ;
#72 = EDGE_CURVE ( 'NONE', #68, #51, #285, .T. ) ;
#73 = ORIENTED_EDGE ( 'NONE', *, *, #74, .F. ) ;
#74 = EDGE_CURVE ( 'NONE', #113, #68, #280, .T. ) ;
#75 = EDGE_LOOP ( 'NONE', ( #48, #49, #52, #53 ) ) ;
#76 = VERTEX_POINT ( 'NONE', #275 ) ;
#77 = EDGE_CURVE ( 'NONE', #76, #85, #274, .T. ) ;
#78 = ORIENTED_EDGE ( 'NONE', *, *, #79, .T. ) ;
#79 = EDGE_CURVE ( 'NONE', #85, #80, #270, .T. ) ;
#80 = VERTEX_POINT ( 'NONE', #265 ) ;
#81 = ORIENTED_EDGE ( 'NONE', *, *, #82, .F. ) ;
#82 = EDGE_CURVE ( 'NONE', #76, #83, #264, .T. ) ;
#83 = VERTEX_POINT ( 'NONE', #259 ) ;
#84 = ORIENTED_EDGE ( 'NONE', *, *, #77, .T. ) ;
#85 = VERTEX_POINT ( 'NONE', #258 ) ;
#86 = ORIENTED_EDGE ( 'NONE', *, *, #93, .F. ) ;
#87 = ORIENTED_EDGE ( 'NONE', *, *, #92, .T. ) ;
#88 = ORIENTED_EDGE ( 'NONE', *, *, #89, .F. ) ;
#89 = EDGE_CURVE ( 'NONE', #97, #102, #257, .T. ) ;
#90 = ADVANCED_FACE ( 'NONE', ( #253 ), #252, .F. ) ;
#91 = EDGE_LOOP ( 'NONE', ( #94, #99, #87, #88 ) ) ;
#92 = EDGE_CURVE ( 'NONE', #101, #102, #251, .T. ) ;
#93 = EDGE_CURVE ( 'NONE', #110, #105, #242, .T. ) ;
#94 = ORIENTED_EDGE ( 'NONE', *, *, #100, .F. ) ;
#95 = ADVANCED_FACE ( 'NONE', ( #238 ), #237, .F. ) ;
#96 = EDGE_LOOP ( 'NONE', ( #81, #84, #78, #116 ) ) ;
#97 = VERTEX_POINT ( 'NONE', #236 ) ;
#98 = EDGE_CURVE ( 'NONE', #103, #101, #231, .T. ) ;
#99 = ORIENTED_EDGE ( 'NONE', *, *, #98, .T. ) ;
#100 = EDGE_CURVE ( 'NONE', #103, #97, #227, .T. ) ;
#101 = VERTEX_POINT ( 'NONE', #222 ) ;
#102 = VERTEX_POINT ( 'NONE', #221 ) ;
#103 = VERTEX_POINT ( 'NONE', #220 ) ;
#104 = EDGE_CURVE ( 'NONE', #108, #105, #219, .T. ) ;
#105 = VERTEX_POINT ( 'NONE', #214 ) ;
#106 = ORIENTED_EDGE ( 'NONE', *, *, #104, .T. ) ;
#107 = ORIENTED_EDGE ( 'NONE', *, *, #117, .T. ) ;
#108 = VERTEX_POINT ( 'NONE', #213 ) ;
#109 = EDGE_CURVE ( 'NONE', #113, #110, #212, .T. ) ;
#110 = VERTEX_POINT ( 'NONE', #207 ) ;
#111 = EDGE_LOOP ( 'NONE', ( #112, #107, #106, #86 ) ) ;
#112 = ORIENTED_EDGE ( 'NONE', *, *, #109, .F. ) ;
#113 = VERTEX_POINT ( 'NONE', #206 ) ;
#114 = ADVANCED_FACE ( 'NONE', ( #205 ), #203, .T. ) ;
#115 = MANIFOLD_SOLID_BREP ( 'NONE', #45 ) ;
#116 = ORIENTED_EDGE ( 'NONE', *, *, #46, .F. ) ;
#117 = EDGE_CURVE ( 'NONE', #113, #108, #199, .T. ) ;
#118 = PERSON_AND_ORGANIZATION ( #182, #181 ) ;
#119 = PRODUCT_DEFINITION ( 'UNKNOWN', '', #351, #120 ) ;
#120 = DESIGN_CONTEXT ( 'detailed design', #122, 'design' ) ;
#121 = APPLICATION_PROTOCOL_DEFINITION ( 'international standard', 'config_control_design', 1994, #122 ) ;
#122 = APPLICATION_CONTEXT ( 'configuration controlled 3d designs of mechanical parts and assemblies' ) ;
#123 = CIRCLE ( 'NONE', #146, 8.500000000000000000 ) ;
#124 =( LENGTH_UNIT ( ) NAMED_UNIT ( * ) SI_UNIT ( .MILLI., .METRE. ) );
#125 = CARTESIAN_POINT ( 'NONE',  ( -5.009326287108706300E-010, -0.9999999965004334700, 0.0000000000000000000 ) ) ;
#126 = TOROIDAL_SURFACE ( 'NONE', #328, 12.19782839363412000, 1.000000000000000200 ) ;
#127 = CARTESIAN_POINT ( 'NONE',  ( -5.009326287108706300E-010, -0.7830695386817770900, 0.0000000000000000000 ) ) ;
#128 = FACE_OUTER_BOUND ( 'NONE', #75, .T. ) ;
#129 = DIRECTION ( 'NONE',  ( 0.0000000000000000000, 1.000000000000000000, 0.0000000000000000000 ) ) ;
#130 = VECTOR ( 'NONE', #129, 1000.000000000000000 ) ;
#131 = CARTESIAN_POINT ( 'NONE',  ( -5.009326287108706300E-010, 2.412507003500041800, 8.500000000000000000 ) ) ;
#132 = LINE ( 'NONE', #131, #130 ) ;
#133 = DIRECTION ( 'NONE',  ( 0.0000000000000000000, 0.0000000000000000000, -1.000000000000000000 ) ) ;
#134 = DIRECTION ( 'NONE',  ( 0.0000000000000000000, -1.000000000000000000, 0.0000000000000000000 ) ) ;
#135 = CARTESIAN_POINT ( 'NONE',  ( -5.009326287108706300E-010, -17.99999999650043500, 0.0000000000000000000 ) ) ;
#136 = FACE_OUTER_BOUND ( 'NONE', #21, .T. ) ;
#137 = FACE_BOUND ( 'NONE', #17, .T. ) ;
#138 = DIRECTION ( 'NONE',  ( 0.0000000000000000000, 0.0000000000000000000, 1.000000000000000000 ) ) ;
#139 = DIRECTION ( 'NONE',  ( 0.0000000000000000000, 1.000000000000000000, 0.0000000000000000000 ) ) ;
#140 = CARTESIAN_POINT ( 'NONE',  ( -5.009326287108706300E-010, -9.999999996500433100, 0.0000000000000000000 ) ) ;
#141 = DIRECTION ( 'NONE',  ( 0.0000000000000000000, 0.0000000000000000000, -1.000000000000000000 ) ) ;
#142 = DIRECTION ( 'NONE',  ( 0.0000000000000000000, -1.000000000000000000, 0.0000000000000000000 ) ) ;
#143 = CARTESIAN_POINT ( 'NONE',  ( 8.499999999499067400, -9.999999996500433100, 0.0000000000000000000 ) ) ;
#144 = AXIS2_PLACEMENT_3D ( 'NONE', #143, #142, #141 ) ;
#145 = PLANE ( 'NONE',  #144 ) ;
#146 = AXIS2_PLACEMENT_3D ( 'NONE', #140, #139, #138 ) ;
#147 = CONICAL_SURFACE ( 'NONE', #148, 17.00000000000000000, 0.2186689458739421400 ) ;
#148 = AXIS2_PLACEMENT_3D ( 'NONE', #135, #134, #133 ) ;
#149 = FACE_OUTER_BOUND ( 'NONE', #40, .T. ) ;
#150 = DIRECTION ( 'NONE',  ( 0.0000000000000000000, 0.0000000000000000000, 1.000000000000000000 ) ) ;
#151 = DIRECTION ( 'NONE',  ( 0.0000000000000000000, 1.000000000000000000, 0.0000000000000000000 ) ) ;
#152 = CARTESIAN_POINT ( 'NONE',  ( -5.009326287108706300E-010, -17.99999999650043500, 0.0000000000000000000 ) ) ;
#153 = AXIS2_PLACEMENT_3D ( 'NONE', #152, #151, #150 ) ;
#154 = CIRCLE ( 'NONE', #153, 17.00000000000000000 ) ;
#155 = DIRECTION ( 'NONE',  ( 0.0000000000000000000, 0.0000000000000000000, 1.000000000000000000 ) ) ;
#156 = DIRECTION ( 'NONE',  ( 0.0000000000000000000, 1.000000000000000000, 0.0000000000000000000 ) ) ;
#157 = CARTESIAN_POINT ( 'NONE',  ( 2.499999999499068300, -17.99999999650043500, 0.0000000000000000000 ) ) ;
#158 = AXIS2_PLACEMENT_3D ( 'NONE', #157, #156, #155 ) ;
#159 = PLANE ( 'NONE',  #158 ) ;
#160 = FACE_BOUND ( 'NONE', #36, .T. ) ;
#161 = FACE_OUTER_BOUND ( 'NONE', #32, .T. ) ;
#162 = DIRECTION ( 'NONE',  ( 0.0000000000000000000, 0.0000000000000000000, 1.000000000000000000 ) ) ;
#163 = DIRECTION ( 'NONE',  ( 0.0000000000000000000, 1.000000000000000000, 0.0000000000000000000 ) ) ;
#164 = CARTESIAN_POINT ( 'NONE',  ( -5.009326287108706300E-010, -17.99999999650043500, 0.0000000000000000000 ) ) ;
#165 = AXIS2_PLACEMENT_3D ( 'NONE', #164, #163, #162 ) ;
#166 = DIRECTION ( 'NONE',  ( 0.0000000000000000000, 0.0000000000000000000, 1.000000000000000000 ) ) ;
#167 = DIRECTION ( 'NONE',  ( 0.0000000000000000000, 1.000000000000000000, 0.0000000000000000000 ) ) ;
#168 = CARTESIAN_POINT ( 'NONE',  ( -5.009326287108706300E-010, 2.412507003500041800, 0.0000000000000000000 ) ) ;
#169 = AXIS2_PLACEMENT_3D ( 'NONE', #168, #167, #166 ) ;
#170 = CIRCLE ( 'NONE', #165, 2.500000000000000900 ) ;
#171 = CYLINDRICAL_SURFACE ( 'NONE', #169, 2.500000000000000400 ) ;
#172 = FACE_OUTER_BOUND ( 'NONE', #23, .T. ) ;
#173 = DIRECTION ( 'NONE',  ( 0.0000000000000000000, 0.0000000000000000000, 1.000000000000000000 ) ) ;
#174 = DIRECTION ( 'NONE',  ( 0.0000000000000000000, 1.000000000000000000, 0.0000000000000000000 ) ) ;
#175 = CARTESIAN_POINT ( 'NONE',  ( -5.009326287108706300E-010, -9.999999996500433100, 0.0000000000000000000 ) ) ;
#176 = AXIS2_PLACEMENT_3D ( 'NONE', #175, #174, #173 ) ;
#177 = CIRCLE ( 'NONE', #176, 2.500000000000000400 ) ;
#178 = CC_DESIGN_PERSON_AND_ORGANIZATION_ASSIGNMENT ( #180, #179, ( #183 ) ) ;
#179 = PERSON_AND_ORGANIZATION_ROLE ( 'design_owner' ) ;
#180 = PERSON_AND_ORGANIZATION ( #182, #181 ) ;
#181 = ORGANIZATION ( 'UNSPECIFIED', 'UNSPECIFIED', '' ) ;
#182 = PERSON ( 'UNSPECIFIED', 'UNSPECIFIED', 'UNSPECIFIED', ('UNSPECIFIED'), ('UNSPECIFIED'), ('UNSPECIFIED') ) ;
#183 = PRODUCT ( 'C-30-RK-34', 'C-30-RK-34', '', ( #184 ) ) ;
#184 = MECHANICAL_CONTEXT ( 'NONE', #186, 'mechanical' ) ;
#185 = APPLICATION_PROTOCOL_DEFINITION ( 'international standard', 'config_control_design', 1994, #186 ) ;
#186 = APPLICATION_CONTEXT ( 'configuration controlled 3d designs of mechanical parts and assemblies' ) ;
#187 = DIRECTION ( 'NONE',  ( 1.000000000000000000, 0.0000000000000000000, 0.0000000000000000000 ) ) ;
#188 = DIRECTION ( 'NONE',  ( 0.0000000000000000000, 0.0000000000000000000, 1.000000000000000000 ) ) ;
#189 = CARTESIAN_POINT ( 'NONE',  ( 0.0000000000000000000, 0.0000000000000000000, 0.0000000000000000000 ) ) ;
#190 = AXIS2_PLACEMENT_3D ( 'NONE', #189, #188, #187 ) ;
#191 = ADVANCED_BREP_SHAPE_REPRESENTATION ( 'C-30-RK-34', ( #115, #190 ), #192 ) ;
#192 =( GEOMETRIC_REPRESENTATION_CONTEXT ( 3 ) GLOBAL_UNCERTAINTY_ASSIGNED_CONTEXT ( ( #193 ) ) GLOBAL_UNIT_ASSIGNED_CONTEXT ( ( #124, #195, #194 ) ) REPRESENTATION_CONTEXT ( 'NONE', 'WORKASPACE' ) );
#193 = UNCERTAINTY_MEASURE_WITH_UNIT (LENGTH_MEASURE( 1.000000000000000100E-005 ), #124, 'distance_accuracy_value', 'NONE');
#194 =( NAMED_UNIT ( * ) SI_UNIT ( $, .STERADIAN. ) SOLID_ANGLE_UNIT ( ) );
#195 =( NAMED_UNIT ( * ) PLANE_ANGLE_UNIT ( ) SI_UNIT ( $, .RADIAN. ) );
#196 = DIRECTION ( 'NONE',  ( 2.656544169823237600E-017, -0.9761870601839526300, 0.2169304578186563300 ) ) ;
#197 = VECTOR ( 'NONE', #196, 1000.000000000000100 ) ;
#198 = CARTESIAN_POINT ( 'NONE',  ( -5.009305468800691300E-010, -17.99999999650043500, 17.00000000000000000 ) ) ;
#199 = LINE ( 'NONE', #198, #197 ) ;
#200 = DIRECTION ( 'NONE',  ( 0.0000000000000000000, 0.0000000000000000000, -1.000000000000000000 ) ) ;
#201 = DIRECTION ( 'NONE',  ( 0.0000000000000000000, -1.000000000000000000, 0.0000000000000000000 ) ) ;
#202 = AXIS2_PLACEMENT_3D ( 'NONE', #204, #201, #200 ) ;
#203 = CONICAL_SURFACE ( 'NONE', #202, 17.00000000000000000, 0.2186689458739421400 ) ;
#204 = CARTESIAN_POINT ( 'NONE',  ( -5.009326287108706300E-010, -17.99999999650043500, 0.0000000000000000000 ) ) ;
#205 = FACE_OUTER_BOUND ( 'NONE', #111, .T. ) ;
#206 = CARTESIAN_POINT ( 'NONE',  ( -5.009326287108706300E-010, -0.7830695386817770900, 13.17401545381807400 ) ) ;
#207 = CARTESIAN_POINT ( 'NONE',  ( -5.009310154125676200E-010, -0.7830695386817770900, -13.17401545381807400 ) ) ;
#208 = DIRECTION ( 'NONE',  ( 0.0000000000000000000, 0.0000000000000000000, 1.000000000000000000 ) ) ;
#209 = DIRECTION ( 'NONE',  ( 0.0000000000000000000, 1.000000000000000000, 0.0000000000000000000 ) ) ;
#210 = CARTESIAN_POINT ( 'NONE',  ( -5.009326287108706300E-010, -0.7830695386817770900, 0.0000000000000000000 ) ) ;
#211 = AXIS2_PLACEMENT_3D ( 'NONE', #210, #209, #208 ) ;
#212 = CIRCLE ( 'NONE', #211, 13.17401545381807400 ) ;
#213 = CARTESIAN_POINT ( 'NONE',  ( -5.009305468800691300E-010, -17.99999999650043500, 17.00000000000000000 ) ) ;
#214 = CARTESIAN_POINT ( 'NONE',  ( -5.009326287108706300E-010, -17.99999999650043500, -17.00000000000000000 ) ) ;
#215 = DIRECTION ( 'NONE',  ( 0.0000000000000000000, 0.0000000000000000000, 1.000000000000000000 ) ) ;
#216 = DIRECTION ( 'NONE',  ( 0.0000000000000000000, 1.000000000000000000, 0.0000000000000000000 ) ) ;
#217 = CARTESIAN_POINT ( 'NONE',  ( -5.009326287108706300E-010, -17.99999999650043500, 0.0000000000000000000 ) ) ;
#218 = AXIS2_PLACEMENT_3D ( 'NONE', #217, #216, #215 ) ;
#219 = CIRCLE ( 'NONE', #218, 17.00000000000000000 ) ;
#220 = CARTESIAN_POINT ( 'NONE',  ( -5.009323225592821800E-010, -17.99999999650043500, -2.500000000000000900 ) ) ;
#221 = CARTESIAN_POINT ( 'NONE',  ( -5.009326287108706300E-010, -9.999999996500433100, 2.500000000000000400 ) ) ;
#222 = CARTESIAN_POINT ( 'NONE',  ( -5.009323225592821800E-010, -9.999999996500433100, -2.500000000000000400 ) ) ;
#223 = DIRECTION ( 'NONE',  ( 0.0000000000000000000, 0.0000000000000000000, 1.000000000000000000 ) ) ;
#224 = DIRECTION ( 'NONE',  ( 0.0000000000000000000, 1.000000000000000000, 0.0000000000000000000 ) ) ;
#225 = CARTESIAN_POINT ( 'NONE',  ( -5.009326287108706300E-010, -17.99999999650043500, 0.0000000000000000000 ) ) ;
#226 = AXIS2_PLACEMENT_3D ( 'NONE', #225, #224, #223 ) ;
#227 = CIRCLE ( 'NONE', #226, 2.500000000000000900 ) ;
#228 = DIRECTION ( 'NONE',  ( 0.0000000000000000000, 1.000000000000000000, 0.0000000000000000000 ) ) ;
#229 = VECTOR ( 'NONE', #228, 1000.000000000000000 ) ;
#230 = CARTESIAN_POINT ( 'NONE',  ( -5.009323225592821800E-010, 2.412507003500041800, -2.500000000000000400 ) ) ;
#231 = LINE ( 'NONE', #230, #229 ) ;
#232 = DIRECTION ( 'NONE',  ( 0.0000000000000000000, 0.0000000000000000000, 1.000000000000000000 ) ) ;
#233 = DIRECTION ( 'NONE',  ( 0.0000000000000000000, 1.000000000000000000, 0.0000000000000000000 ) ) ;
#234 = CARTESIAN_POINT ( 'NONE',  ( -5.009326287108706300E-010, 2.412507003500041800, 0.0000000000000000000 ) ) ;
#235 = AXIS2_PLACEMENT_3D ( 'NONE', #234, #233, #232 ) ;
#236 = CARTESIAN_POINT ( 'NONE',  ( -5.009326287108706300E-010, -17.99999999650043500, 2.500000000000000900 ) ) ;
#237 = CYLINDRICAL_SURFACE ( 'NONE', #235, 8.500000000000000000 ) ;
#238 = FACE_OUTER_BOUND ( 'NONE', #96, .T. ) ;
#239 = DIRECTION ( 'NONE',  ( 0.0000000000000000000, -0.9761870601839526300, -0.2169304578186563300 ) ) ;
#240 = VECTOR ( 'NONE', #239, 1000.000000000000100 ) ;
#241 = CARTESIAN_POINT ( 'NONE',  ( -5.009326287108706300E-010, -17.99999999650043500, -17.00000000000000000 ) ) ;
#242 = LINE ( 'NONE', #241, #240 ) ;
#243 = DIRECTION ( 'NONE',  ( 0.0000000000000000000, 0.0000000000000000000, 1.000000000000000000 ) ) ;
#244 = DIRECTION ( 'NONE',  ( 0.0000000000000000000, 1.000000000000000000, 0.0000000000000000000 ) ) ;
#245 = CARTESIAN_POINT ( 'NONE',  ( -5.009326287108706300E-010, -9.999999996500433100, 0.0000000000000000000 ) ) ;
#246 = AXIS2_PLACEMENT_3D ( 'NONE', #245, #244, #243 ) ;
#247 = DIRECTION ( 'NONE',  ( 0.0000000000000000000, 0.0000000000000000000, 1.000000000000000000 ) ) ;
#248 = DIRECTION ( 'NONE',  ( 0.0000000000000000000, 1.000000000000000000, 0.0000000000000000000 ) ) ;
#249 = CARTESIAN_POINT ( 'NONE',  ( -5.009326287108706300E-010, 2.412507003500041800, 0.0000000000000000000 ) ) ;
#250 = AXIS2_PLACEMENT_3D ( 'NONE', #249, #248, #247 ) ;
#251 = CIRCLE ( 'NONE', #246, 2.500000000000000400 ) ;
#252 = CYLINDRICAL_SURFACE ( 'NONE', #250, 2.500000000000000400 ) ;
#253 = FACE_OUTER_BOUND ( 'NONE', #91, .T. ) ;
#254 = DIRECTION ( 'NONE',  ( 0.0000000000000000000, 1.000000000000000000, 0.0000000000000000000 ) ) ;
#255 = VECTOR ( 'NONE', #254, 1000.000000000000000 ) ;
#256 = CARTESIAN_POINT ( 'NONE',  ( -5.009326287108706300E-010, 2.412507003500041800, 2.500000000000000400 ) ) ;
#257 = LINE ( 'NONE', #256, #255 ) ;
#258 = CARTESIAN_POINT ( 'NONE',  ( -5.009315877954698800E-010, 3.499566521986130500E-009, -8.500000000000000000 ) ) ;
#259 = CARTESIAN_POINT ( 'NONE',  ( -5.009326287108706300E-010, -9.999999996500433100, 8.500000000000000000 ) ) ;
#260 = DIRECTION ( 'NONE',  ( 0.0000000000000000000, 0.0000000000000000000, 1.000000000000000000 ) ) ;
#261 = DIRECTION ( 'NONE',  ( 0.0000000000000000000, 1.000000000000000000, 0.0000000000000000000 ) ) ;
#262 = CARTESIAN_POINT ( 'NONE',  ( -5.009326287108706300E-010, -9.999999996500433100, 0.0000000000000000000 ) ) ;
#263 = AXIS2_PLACEMENT_3D ( 'NONE', #262, #261, #260 ) ;
#264 = CIRCLE ( 'NONE', #263, 8.500000000000000000 ) ;
#265 = CARTESIAN_POINT ( 'NONE',  ( -5.009326287108706300E-010, 3.499566521986130500E-009, 8.500000000000000000 ) ) ;
#266 = DIRECTION ( 'NONE',  ( 0.0000000000000000000, 0.0000000000000000000, 1.000000000000000000 ) ) ;
#267 = DIRECTION ( 'NONE',  ( 0.0000000000000000000, 1.000000000000000000, 0.0000000000000000000 ) ) ;
#268 = CARTESIAN_POINT ( 'NONE',  ( -5.009326287108706300E-010, 3.499566521986130500E-009, 0.0000000000000000000 ) ) ;
#269 = AXIS2_PLACEMENT_3D ( 'NONE', #268, #267, #266 ) ;
#270 = CIRCLE ( 'NONE', #269, 8.500000000000000000 ) ;
#271 = DIRECTION ( 'NONE',  ( 0.0000000000000000000, 1.000000000000000000, 0.0000000000000000000 ) ) ;
#272 = VECTOR ( 'NONE', #271, 1000.000000000000000 ) ;
#273 = CARTESIAN_POINT ( 'NONE',  ( -5.009315877954698800E-010, 2.412507003500041800, -8.500000000000000000 ) ) ;
#274 = LINE ( 'NONE', #273, #272 ) ;
#275 = CARTESIAN_POINT ( 'NONE',  ( -5.009315877954698800E-010, -9.999999996500433100, -8.500000000000000000 ) ) ;
#276 = DIRECTION ( 'NONE',  ( 0.0000000000000000000, 0.0000000000000000000, 1.000000000000000000 ) ) ;
#277 = DIRECTION ( 'NONE',  ( -1.000000000000000000, 0.0000000000000000000, 0.0000000000000000000 ) ) ;
#278 = CARTESIAN_POINT ( 'NONE',  ( -5.009326287108706300E-010, -0.9999999965004334700, 12.19782839363412000 ) ) ;
#279 = AXIS2_PLACEMENT_3D ( 'NONE', #278, #277, #276 ) ;
#280 = CIRCLE ( 'NONE', #279, 1.000000000000000900 ) ;
#281 = DIRECTION ( 'NONE',  ( 0.0000000000000000000, 0.0000000000000000000, 1.000000000000000000 ) ) ;
#282 = DIRECTION ( 'NONE',  ( 0.0000000000000000000, 1.000000000000000000, 0.0000000000000000000 ) ) ;
#283 = CARTESIAN_POINT ( 'NONE',  ( -5.009326287108706300E-010, 3.499566521986130500E-009, 0.0000000000000000000 ) ) ;
#284 = AXIS2_PLACEMENT_3D ( 'NONE', #283, #282, #281 ) ;
#285 = CIRCLE ( 'NONE', #284, 12.19782839363412000 ) ;
#286 = DIRECTION ( 'NONE',  ( 1.224606353612349900E-016, 0.0000000000000000000, -1.000000000000000000 ) ) ;
#287 = DIRECTION ( 'NONE',  ( 1.000000000000000000, 0.0000000000000000000, 1.224606353822377300E-016 ) ) ;
#288 = CARTESIAN_POINT ( 'NONE',  ( -5.009311349570553000E-010, -0.9999999965004334700, -12.19782839363412000 ) ) ;
#289 = AXIS2_PLACEMENT_3D ( 'NONE', #288, #287, #286 ) ;
#290 = CIRCLE ( 'NONE', #289, 1.000000000000000900 ) ;
#291 = CARTESIAN_POINT ( 'NONE',  ( -5.009326287108706300E-010, 3.499566521986130500E-009, 12.19782839363412000 ) ) ;
#292 = DIRECTION ( 'NONE',  ( 0.0000000000000000000, 0.0000000000000000000, 1.000000000000000000 ) ) ;
#293 = DIRECTION ( 'NONE',  ( 0.0000000000000000000, 1.000000000000000000, 0.0000000000000000000 ) ) ;
#294 = CARTESIAN_POINT ( 'NONE',  ( -5.009326287108706300E-010, -0.9999999965004334700, 0.0000000000000000000 ) ) ;
#295 = AXIS2_PLACEMENT_3D ( 'NONE', #294, #293, #292 ) ;
#296 = TOROIDAL_SURFACE ( 'NONE', #295, 12.19782839363412000, 1.000000000000000200 ) ;
#297 = DIRECTION ( 'NONE',  ( 0.0000000000000000000, 0.0000000000000000000, 1.000000000000000000 ) ) ;
#298 = DIRECTION ( 'NONE',  ( 0.0000000000000000000, 1.000000000000000000, 0.0000000000000000000 ) ) ;
#299 = CARTESIAN_POINT ( 'NONE',  ( -5.009326287108706300E-010, 2.412507003500041800, 0.0000000000000000000 ) ) ;
#300 = AXIS2_PLACEMENT_3D ( 'NONE', #299, #298, #297 ) ;
#301 = FACE_OUTER_BOUND ( 'NONE', #66, .T. ) ;
#302 = CYLINDRICAL_SURFACE ( 'NONE', #300, 8.500000000000000000 ) ;
#303 = FACE_OUTER_BOUND ( 'NONE', #64, .T. ) ;
#304 = DIRECTION ( 'NONE',  ( 0.0000000000000000000, 0.0000000000000000000, 1.000000000000000000 ) ) ;
#305 = DIRECTION ( 'NONE',  ( 0.0000000000000000000, 1.000000000000000000, 0.0000000000000000000 ) ) ;
#306 = CARTESIAN_POINT ( 'NONE',  ( -5.009326287108706300E-010, 3.499566521986130500E-009, 0.0000000000000000000 ) ) ;
#307 = AXIS2_PLACEMENT_3D ( 'NONE', #306, #305, #304 ) ;
#308 = CIRCLE ( 'NONE', #307, 8.500000000000000000 ) ;
#309 = DIRECTION ( 'NONE',  ( 0.0000000000000000000, 0.0000000000000000000, -1.000000000000000000 ) ) ;
#310 = DIRECTION ( 'NONE',  ( 0.0000000000000000000, -1.000000000000000000, 0.0000000000000000000 ) ) ;
#311 = CARTESIAN_POINT ( 'NONE',  ( 12.19782839313318800, 3.499566521986130500E-009, 0.0000000000000000000 ) ) ;
#312 = AXIS2_PLACEMENT_3D ( 'NONE', #311, #310, #309 ) ;
#313 = PLANE ( 'NONE',  #312 ) ;
#314 = FACE_OUTER_BOUND ( 'NONE', #60, .T. ) ;
#315 = DIRECTION ( 'NONE',  ( 0.0000000000000000000, 0.0000000000000000000, 1.000000000000000000 ) ) ;
#316 = DIRECTION ( 'NONE',  ( 0.0000000000000000000, 1.000000000000000000, 0.0000000000000000000 ) ) ;
#317 = CARTESIAN_POINT ( 'NONE',  ( -5.009326287108706300E-010, 3.499566521986130500E-009, 0.0000000000000000000 ) ) ;
#318 = AXIS2_PLACEMENT_3D ( 'NONE', #317, #316, #315 ) ;
#319 = CIRCLE ( 'NONE', #318, 12.19782839363412000 ) ;
#320 = FACE_BOUND ( 'NONE', #56, .T. ) ;
#321 = CARTESIAN_POINT ( 'NONE',  ( -5.009310751848114600E-010, 3.499566521986130500E-009, -12.19782839363412000 ) ) ;
#322 = DIRECTION ( 'NONE',  ( 0.0000000000000000000, 0.0000000000000000000, 1.000000000000000000 ) ) ;
#323 = DIRECTION ( 'NONE',  ( 0.0000000000000000000, 1.000000000000000000, 0.0000000000000000000 ) ) ;
#324 = AXIS2_PLACEMENT_3D ( 'NONE', #127, #323, #322 ) ;
#325 = CIRCLE ( 'NONE', #324, 13.17401545381807400 ) ;
#326 = DIRECTION ( 'NONE',  ( 0.0000000000000000000, 0.0000000000000000000, 1.000000000000000000 ) ) ;
#327 = DIRECTION ( 'NONE',  ( 0.0000000000000000000, 1.000000000000000000, 0.0000000000000000000 ) ) ;
#328 = AXIS2_PLACEMENT_3D ( 'NONE', #125, #327, #326 ) ;
#329 = CC_DESIGN_DATE_AND_TIME_ASSIGNMENT ( #331, #330, ( #348 ) ) ;
#330 = DATE_TIME_ROLE ( 'classification_date' ) ;
#331 = DATE_AND_TIME ( #332, #333 ) ;
#332 = CALENDAR_DATE ( 2009, 26, 6 ) ;
#333 = LOCAL_TIME ( 15, 38, 0.0000000000000000000, #345 ) ;
#334 = PERSON_AND_ORGANIZATION ( #182, #181 ) ;
#335 = APPROVAL_ROLE ( '' ) ;
#336 = CC_DESIGN_APPROVAL ( #361, ( #351 ) ) ;
#337 = APPROVAL_STATUS ( 'not_yet_approved' ) ;
#338 = CALENDAR_DATE ( 2009, 26, 6 ) ;
#339 = PERSON_AND_ORGANIZATION ( #182, #181 ) ;
#340 = SECURITY_CLASSIFICATION_LEVEL ( 'unclassified' ) ;
#341 = CC_DESIGN_PERSON_AND_ORGANIZATION_ASSIGNMENT ( #373, #372, ( #351 ) ) ;
#342 = APPROVAL_DATE_TIME ( #343, #361 ) ;
#343 = DATE_AND_TIME ( #344, #356 ) ;
#344 = CALENDAR_DATE ( 2009, 26, 6 ) ;
#345 = COORDINATED_UNIVERSAL_TIME_OFFSET ( 9, 0, .AHEAD. ) ;
#346 = CC_DESIGN_PERSON_AND_ORGANIZATION_ASSIGNMENT ( #339, #347, ( #348 ) ) ;
#347 = PERSON_AND_ORGANIZATION_ROLE ( 'classification_officer' ) ;
#348 = SECURITY_CLASSIFICATION ( '', '', #340 ) ;
#349 = LOCAL_TIME ( 15, 38, 0.0000000000000000000, #358 ) ;
#350 = CC_DESIGN_PERSON_AND_ORGANIZATION_ASSIGNMENT ( #334, #353, ( #119 ) ) ;
#351 = PRODUCT_DEFINITION_FORMATION_WITH_SPECIFIED_SOURCE ( 'ANY', '', #183, .NOT_KNOWN. ) ;
#352 = PERSON_AND_ORGANIZATION ( #182, #181 ) ;
#353 = PERSON_AND_ORGANIZATION_ROLE ( 'creator' ) ;
#354 = DATE_AND_TIME ( #338, #349 ) ;
#355 = DATE_TIME_ROLE ( 'creation_date' ) ;
#356 = LOCAL_TIME ( 15, 38, 0.0000000000000000000, #357 ) ;
#357 = COORDINATED_UNIVERSAL_TIME_OFFSET ( 9, 0, .AHEAD. ) ;
#358 = COORDINATED_UNIVERSAL_TIME_OFFSET ( 9, 0, .AHEAD. ) ;
#359 = CC_DESIGN_DATE_AND_TIME_ASSIGNMENT ( #354, #355, ( #119 ) ) ;
#360 = APPROVAL_PERSON_ORGANIZATION ( #352, #361, #335 ) ;
#361 = APPROVAL ( #337, 'UNSPECIFIED' ) ;
#362 = APPROVAL_DATE_TIME ( #363, #369 ) ;
#363 = DATE_AND_TIME ( #364, #365 ) ;
#364 = CALENDAR_DATE ( 2009, 26, 6 ) ;
#365 = LOCAL_TIME ( 15, 38, 0.0000000000000000000, #366 ) ;
#366 = COORDINATED_UNIVERSAL_TIME_OFFSET ( 9, 0, .AHEAD. ) ;
#367 = APPROVAL_PERSON_ORGANIZATION ( #371, #369, #368 ) ;
#368 = APPROVAL_ROLE ( '' ) ;
#369 = APPROVAL ( #370, 'UNSPECIFIED' ) ;
#370 = APPROVAL_STATUS ( 'not_yet_approved' ) ;
#371 = PERSON_AND_ORGANIZATION ( #182, #181 ) ;
#372 = PERSON_AND_ORGANIZATION_ROLE ( 'design_supplier' ) ;
#373 = PERSON_AND_ORGANIZATION ( #182, #181 ) ;
#374 = CC_DESIGN_PERSON_AND_ORGANIZATION_ASSIGNMENT ( #376, #375, ( #351 ) ) ;
#375 = PERSON_AND_ORGANIZATION_ROLE ( 'creator' ) ;
#376 = PERSON_AND_ORGANIZATION ( #182, #181 ) ;
#377 = SHAPE_DEFINITION_REPRESENTATION ( #378, #191 ) ;
#378 = PRODUCT_DEFINITION_SHAPE ( 'NONE', 'NONE',  #119 ) ;
#379 = PRODUCT_RELATED_PRODUCT_CATEGORY ( 'detail', '', ( #183 ) ) ;
#380 = CC_DESIGN_SECURITY_CLASSIFICATION ( #348, ( #351 ) ) ;
#381 = CC_DESIGN_APPROVAL ( #369, ( #348 ) ) ;
ENDSEC;
END-ISO-10303-21;
