ISO-10303-21;
HEADER;
FILE_DESCRIPTION (( 'STEP AP203' ),
    '1' );
FILE_NAME ('C-30-RK-3225.STEP',
    '2009-06-29T05:11:38',
    ( '11sw' ),
    ( '^LQ»¢®ïÐ' ),
    'SwSTEP 2.0',
    'SolidWorks 2007',
    '' );
FILE_SCHEMA (( 'CONFIG_CONTROL_DESIGN' ));
ENDSEC;

DATA;
#1 = ORIENTED_EDGE ( 'NONE', *, *, #114, .F. ) ;
#2 = ADVANCED_FACE ( 'NONE', ( #336 ), #333, .T. ) ;
#3 = ORIENTED_EDGE ( 'NONE', *, *, #73, .T. ) ;
#4 = ORIENTED_EDGE ( 'NONE', *, *, #63, .T. ) ;
#5 = ORIENTED_EDGE ( 'NONE', *, *, #9, .F. ) ;
#6 = ORIENTED_EDGE ( 'NONE', *, *, #94, .T. ) ;
#7 = ADVANCED_FACE ( 'NONE', ( #329, #328 ), #334, .F. ) ;
#8 = EDGE_LOOP ( 'NONE', ( #104, #111 ) ) ;
#9 = EDGE_CURVE ( 'NONE', #42, #41, #323, .T. ) ;
#10 = ADVANCED_FACE ( 'NONE', ( #318 ), #317, .F. ) ;
#11 = ORIENTED_EDGE ( 'NONE', *, *, #44, .F. ) ;
#12 = EDGE_LOOP ( 'NONE', ( #17, #18 ) ) ;
#13 = EDGE_LOOP ( 'NONE', ( #11, #5, #14, #6 ) ) ;
#14 = ORIENTED_EDGE ( 'NONE', *, *, #90, .T. ) ;
#15 = EDGE_LOOP ( 'NONE', ( #107, #108, #109, #110 ) ) ;
#16 = ADVANCED_FACE ( 'NONE', ( #311, #310 ), #316, .F. ) ;
#17 = ORIENTED_EDGE ( 'NONE', *, *, #35, .T. ) ;
#18 = ORIENTED_EDGE ( 'NONE', *, *, #45, .T. ) ;
#19 = EDGE_LOOP ( 'NONE', ( #46, #58, #60, #92 ) ) ;
#20 = CC_DESIGN_APPROVAL ( #125, ( #128 ) ) ;
#21 = APPROVAL_DATE_TIME ( #22, #125 ) ;
#22 = DATE_AND_TIME ( #23, #121 ) ;
#23 = CALENDAR_DATE ( 2009, 29, 6 ) ;
#24 = EDGE_CURVE ( 'NONE', #29, #40, #305, .T. ) ;
#25 = ORIENTED_EDGE ( 'NONE', *, *, #26, .F. ) ;
#26 = EDGE_CURVE ( 'NONE', #53, #82, #300, .T. ) ;
#27 = ORIENTED_EDGE ( 'NONE', *, *, #74, .F. ) ;
#28 = ORIENTED_EDGE ( 'NONE', *, *, #34, .T. ) ;
#29 = VERTEX_POINT ( 'NONE', #295 ) ;
#30 = EDGE_CURVE ( 'NONE', #29, #81, #294, .T. ) ;
#31 = ORIENTED_EDGE ( 'NONE', *, *, #30, .T. ) ;
#32 = VERTEX_POINT ( 'NONE', #289 ) ;
#33 = ORIENTED_EDGE ( 'NONE', *, *, #34, .F. ) ;
#34 = EDGE_CURVE ( 'NONE', #32, #81, #287, .T. ) ;
#35 = EDGE_CURVE ( 'NONE', #83, #84, #282, .T. ) ;
#36 = ORIENTED_EDGE ( 'NONE', *, *, #76, .T. ) ;
#37 = ORIENTED_EDGE ( 'NONE', *, *, #26, .T. ) ;
#38 = ADVANCED_FACE ( 'NONE', ( #278, #277 ), #276, .F. ) ;
#39 = ORIENTED_EDGE ( 'NONE', *, *, #94, .F. ) ;
#40 = VERTEX_POINT ( 'NONE', #271 ) ;
#41 = VERTEX_POINT ( 'NONE', #270 ) ;
#42 = VERTEX_POINT ( 'NONE', #269 ) ;
#43 = ORIENTED_EDGE ( 'NONE', *, *, #44, .T. ) ;
#44 = EDGE_CURVE ( 'NONE', #41, #91, #268, .T. ) ;
#45 = EDGE_CURVE ( 'NONE', #84, #83, #264, .T. ) ;
#46 = ORIENTED_EDGE ( 'NONE', *, *, #65, .F. ) ;
#47 = EDGE_CURVE ( 'NONE', #49, #57, #259, .T. ) ;
#48 = EDGE_LOOP ( 'NONE', ( #62, #43, #54, #86 ) ) ;
#49 = VERTEX_POINT ( 'NONE', #254 ) ;
#50 = EDGE_LOOP ( 'NONE', ( #80, #97, #3, #1 ) ) ;
#51 = ORIENTED_EDGE ( 'NONE', *, *, #71, .T. ) ;
#52 = ORIENTED_EDGE ( 'NONE', *, *, #74, .T. ) ;
#53 = VERTEX_POINT ( 'NONE', #253 ) ;
#54 = ORIENTED_EDGE ( 'NONE', *, *, #55, .T. ) ;
#55 = EDGE_CURVE ( 'NONE', #91, #87, #252, .T. ) ;
#56 = EDGE_LOOP ( 'NONE', ( #89, #51, #52, #75 ) ) ;
#57 = VERTEX_POINT ( 'NONE', #247 ) ;
#58 = ORIENTED_EDGE ( 'NONE', *, *, #59, .T. ) ;
#59 = EDGE_CURVE ( 'NONE', #40, #49, #246, .T. ) ;
#60 = ORIENTED_EDGE ( 'NONE', *, *, #47, .T. ) ;
#61 = ADVANCED_FACE ( 'NONE', ( #242 ), #240, .F. ) ;
#62 = ORIENTED_EDGE ( 'NONE', *, *, #63, .F. ) ;
#63 = EDGE_CURVE ( 'NONE', #41, #42, #235, .T. ) ;
#64 = ADVANCED_FACE ( 'NONE', ( #231 ), #230, .T. ) ;
#65 = EDGE_CURVE ( 'NONE', #40, #29, #229, .T. ) ;
#66 = MANIFOLD_SOLID_BREP ( 'NONE', #105 ) ;
#67 = EDGE_LOOP ( 'NONE', ( #25, #27 ) ) ;
#68 = EDGE_LOOP ( 'NONE', ( #98, #99, #36, #37 ) ) ;
#69 = ORIENTED_EDGE ( 'NONE', *, *, #114, .T. ) ;
#70 = ADVANCED_FACE ( 'NONE', ( #220 ), #219, .F. ) ;
#71 = EDGE_CURVE ( 'NONE', #84, #82, #214, .T. ) ;
#72 = ORIENTED_EDGE ( 'NONE', *, *, #73, .F. ) ;
#73 = EDGE_CURVE ( 'NONE', #40, #32, #210, .T. ) ;
#74 = EDGE_CURVE ( 'NONE', #82, #53, #205, .T. ) ;
#75 = ORIENTED_EDGE ( 'NONE', *, *, #76, .F. ) ;
#76 = EDGE_CURVE ( 'NONE', #83, #53, #200, .T. ) ;
#77 = ADVANCED_FACE ( 'NONE', ( #196 ), #194, .T. ) ;
#78 = ORIENTED_EDGE ( 'NONE', *, *, #65, .T. ) ;
#79 = ADVANCED_FACE ( 'NONE', ( #190 ), #189, .T. ) ;
#80 = ORIENTED_EDGE ( 'NONE', *, *, #30, .F. ) ;
#81 = VERTEX_POINT ( 'NONE', #184 ) ;
#82 = VERTEX_POINT ( 'NONE', #183 ) ;
#83 = VERTEX_POINT ( 'NONE', #182 ) ;
#84 = VERTEX_POINT ( 'NONE', #181 ) ;
#85 = EDGE_LOOP ( 'NONE', ( #78, #31, #33, #72 ) ) ;
#86 = ORIENTED_EDGE ( 'NONE', *, *, #90, .F. ) ;
#87 = VERTEX_POINT ( 'NONE', #180 ) ;
#88 = ADVANCED_FACE ( 'NONE', ( #179 ), #177, .F. ) ;
#89 = ORIENTED_EDGE ( 'NONE', *, *, #45, .F. ) ;
#90 = EDGE_CURVE ( 'NONE', #42, #87, #173, .T. ) ;
#91 = VERTEX_POINT ( 'NONE', #169 ) ;
#92 = ORIENTED_EDGE ( 'NONE', *, *, #93, .F. ) ;
#93 = EDGE_CURVE ( 'NONE', #29, #57, #168, .T. ) ;
#94 = EDGE_CURVE ( 'NONE', #87, #91, #164, .T. ) ;
#95 = ORIENTED_EDGE ( 'NONE', *, *, #55, .F. ) ;
#96 = EDGE_LOOP ( 'NONE', ( #39, #95 ) ) ;
#97 = ORIENTED_EDGE ( 'NONE', *, *, #24, .T. ) ;
#98 = ORIENTED_EDGE ( 'NONE', *, *, #71, .F. ) ;
#99 = ORIENTED_EDGE ( 'NONE', *, *, #35, .F. ) ;
#100 = COORDINATED_UNIVERSAL_TIME_OFFSET ( 9, 0, .AHEAD. ) ;
#101 = CC_DESIGN_PERSON_AND_ORGANIZATION_ASSIGNMENT ( #106, #102, ( #128 ) ) ;
#102 = PERSON_AND_ORGANIZATION_ROLE ( 'creator' ) ;
#103 = EDGE_LOOP ( 'NONE', ( #118, #4 ) ) ;
#104 = ORIENTED_EDGE ( 'NONE', *, *, #112, .F. ) ;
#105 = CLOSED_SHELL ( 'NONE', ( #64, #61, #88, #77, #79, #16, #70, #38, #10, #7, #2 ) ) ;
#106 = PERSON_AND_ORGANIZATION ( #136, #135 ) ;
#107 = ORIENTED_EDGE ( 'NONE', *, *, #59, .F. ) ;
#108 = ORIENTED_EDGE ( 'NONE', *, *, #24, .F. ) ;
#109 = ORIENTED_EDGE ( 'NONE', *, *, #93, .T. ) ;
#110 = ORIENTED_EDGE ( 'NONE', *, *, #112, .T. ) ;
#111 = ORIENTED_EDGE ( 'NONE', *, *, #47, .F. ) ;
#112 = EDGE_CURVE ( 'NONE', #57, #49, #159, .T. ) ;
#113 = EDGE_LOOP ( 'NONE', ( #28, #69 ) ) ;
#114 = EDGE_CURVE ( 'NONE', #81, #32, #154, .T. ) ;
#115 = CC_DESIGN_DATE_AND_TIME_ASSIGNMENT ( #117, #116, ( #128 ) ) ;
#116 = DATE_TIME_ROLE ( 'creation_date' ) ;
#117 = DATE_AND_TIME ( #119, #120 ) ;
#118 = ORIENTED_EDGE ( 'NONE', *, *, #9, .T. ) ;
#119 = CALENDAR_DATE ( 2009, 29, 6 ) ;
#120 = LOCAL_TIME ( 14, 11, 38.00000000000000000, #100 ) ;
#121 = LOCAL_TIME ( 14, 11, 38.00000000000000000, #122 ) ;
#122 = COORDINATED_UNIVERSAL_TIME_OFFSET ( 9, 0, .AHEAD. ) ;
#123 = APPROVAL_PERSON_ORGANIZATION ( #127, #125, #124 ) ;
#124 = APPROVAL_ROLE ( '' ) ;
#125 = APPROVAL ( #126, 'UNSPECIFIED' ) ;
#126 = APPROVAL_STATUS ( 'not_yet_approved' ) ;
#127 = PERSON_AND_ORGANIZATION ( #136, #135 ) ;
#128 = PRODUCT_DEFINITION ( 'UNKNOWN', '', #371, #129 ) ;
#129 = DESIGN_CONTEXT ( 'detailed design', #131, 'design' ) ;
#130 = APPLICATION_PROTOCOL_DEFINITION ( 'international standard', 'config_control_design', 1994, #131 ) ;
#131 = APPLICATION_CONTEXT ( 'configuration controlled 3d designs of mechanical parts and assemblies' ) ;
#132 = CC_DESIGN_PERSON_AND_ORGANIZATION_ASSIGNMENT ( #134, #133, ( #137 ) ) ;
#133 = PERSON_AND_ORGANIZATION_ROLE ( 'design_owner' ) ;
#134 = PERSON_AND_ORGANIZATION ( #136, #135 ) ;
#135 = ORGANIZATION ( 'UNSPECIFIED', 'UNSPECIFIED', '' ) ;
#136 = PERSON ( 'UNSPECIFIED', 'UNSPECIFIED', 'UNSPECIFIED', ('UNSPECIFIED'), ('UNSPECIFIED'), ('UNSPECIFIED') ) ;
#137 = PRODUCT ( 'C-30-RK-3225', 'C-30-RK-3225', '', ( #138 ) ) ;
#138 = MECHANICAL_CONTEXT ( 'NONE', #140, 'mechanical' ) ;
#139 = APPLICATION_PROTOCOL_DEFINITION ( 'international standard', 'config_control_design', 1994, #140 ) ;
#140 = APPLICATION_CONTEXT ( 'configuration controlled 3d designs of mechanical parts and assemblies' ) ;
#141 = DIRECTION ( 'NONE',  ( 1.000000000000000000, 0.0000000000000000000, 0.0000000000000000000 ) ) ;
#142 = DIRECTION ( 'NONE',  ( 0.0000000000000000000, 0.0000000000000000000, 1.000000000000000000 ) ) ;
#143 = AXIS2_PLACEMENT_3D ( 'NONE', #149, #142, #141 ) ;
#144 = ADVANCED_BREP_SHAPE_REPRESENTATION ( 'C-30-RK-3225', ( #66, #143 ), #145 ) ;
#145 =( GEOMETRIC_REPRESENTATION_CONTEXT ( 3 ) GLOBAL_UNCERTAINTY_ASSIGNED_CONTEXT ( ( #146 ) ) GLOBAL_UNIT_ASSIGNED_CONTEXT ( ( #337, #148, #147 ) ) REPRESENTATION_CONTEXT ( 'NONE', 'WORKASPACE' ) );
#146 = UNCERTAINTY_MEASURE_WITH_UNIT (LENGTH_MEASURE( 1.000000000000000100E-005 ), #337, 'distance_accuracy_value', 'NONE');
#147 =( NAMED_UNIT ( * ) SI_UNIT ( $, .STERADIAN. ) SOLID_ANGLE_UNIT ( ) );
#148 =( NAMED_UNIT ( * ) PLANE_ANGLE_UNIT ( ) SI_UNIT ( $, .RADIAN. ) );
#149 = CARTESIAN_POINT ( 'NONE',  ( 0.0000000000000000000, 0.0000000000000000000, 0.0000000000000000000 ) ) ;
#150 = DIRECTION ( 'NONE',  ( 0.0000000000000000000, 0.0000000000000000000, 1.000000000000000000 ) ) ;
#151 = DIRECTION ( 'NONE',  ( 0.0000000000000000000, 1.000000000000000000, 0.0000000000000000000 ) ) ;
#152 = CARTESIAN_POINT ( 'NONE',  ( -5.009326287108706300E-010, 3.499565220943523500E-009, 0.0000000000000000000 ) ) ;
#153 = AXIS2_PLACEMENT_3D ( 'NONE', #152, #151, #150 ) ;
#154 = CIRCLE ( 'NONE', #153, 12.61520765552186600 ) ;
#155 = DIRECTION ( 'NONE',  ( 0.0000000000000000000, 0.0000000000000000000, 1.000000000000000000 ) ) ;
#156 = DIRECTION ( 'NONE',  ( 0.0000000000000000000, 1.000000000000000000, 0.0000000000000000000 ) ) ;
#157 = CARTESIAN_POINT ( 'NONE',  ( -5.009326287108706300E-010, -24.99999999650043500, 0.0000000000000000000 ) ) ;
#158 = AXIS2_PLACEMENT_3D ( 'NONE', #157, #156, #155 ) ;
#159 = CIRCLE ( 'NONE', #158, 16.00000000000000000 ) ;
#160 = DIRECTION ( 'NONE',  ( 0.0000000000000000000, 0.0000000000000000000, 1.000000000000000000 ) ) ;
#161 = DIRECTION ( 'NONE',  ( 0.0000000000000000000, 1.000000000000000000, 0.0000000000000000000 ) ) ;
#162 = CARTESIAN_POINT ( 'NONE',  ( -5.009326287108706300E-010, -8.999999996500434900, 0.0000000000000000000 ) ) ;
#163 = AXIS2_PLACEMENT_3D ( 'NONE', #162, #161, #160 ) ;
#164 = CIRCLE ( 'NONE', #163, 2.499999999999999600 ) ;
#165 = DIRECTION ( 'NONE',  ( 0.0000000000000000000, -0.9968152785361249500, -0.07974522228289000800 ) ) ;
#166 = VECTOR ( 'NONE', #165, 1000.000000000000200 ) ;
#167 = CARTESIAN_POINT ( 'NONE',  ( -5.009326287108706300E-010, -24.99999999650043500, -16.00000000000000000 ) ) ;
#168 = LINE ( 'NONE', #167, #166 ) ;
#169 = CARTESIAN_POINT ( 'NONE',  ( -5.009323225592821800E-010, -8.999999996500434900, -2.499999999999999600 ) ) ;
#170 = DIRECTION ( 'NONE',  ( 0.0000000000000000000, 1.000000000000000000, 0.0000000000000000000 ) ) ;
#171 = VECTOR ( 'NONE', #170, 1000.000000000000000 ) ;
#172 = CARTESIAN_POINT ( 'NONE',  ( -5.009326287108706300E-010, 2.412507003500041800, 2.500000000000000400 ) ) ;
#173 = LINE ( 'NONE', #172, #171 ) ;
#174 = DIRECTION ( 'NONE',  ( 0.0000000000000000000, 0.0000000000000000000, 1.000000000000000000 ) ) ;
#175 = DIRECTION ( 'NONE',  ( 0.0000000000000000000, 1.000000000000000000, 0.0000000000000000000 ) ) ;
#176 = AXIS2_PLACEMENT_3D ( 'NONE', #178, #175, #174 ) ;
#177 = CYLINDRICAL_SURFACE ( 'NONE', #176, 7.000000000000000000 ) ;
#178 = CARTESIAN_POINT ( 'NONE',  ( -5.009326287108706300E-010, 2.412507003500041800, 0.0000000000000000000 ) ) ;
#179 = FACE_OUTER_BOUND ( 'NONE', #56, .T. ) ;
#180 = CARTESIAN_POINT ( 'NONE',  ( -5.009326287108706300E-010, -8.999999996500434900, 2.499999999999999600 ) ) ;
#181 = CARTESIAN_POINT ( 'NONE',  ( -5.009317714864229600E-010, -8.999999996500434900, -7.000000000000000000 ) ) ;
#182 = CARTESIAN_POINT ( 'NONE',  ( -5.009326287108706300E-010, -8.999999996500434900, 7.000000000000000000 ) ) ;
#183 = CARTESIAN_POINT ( 'NONE',  ( -5.009317714864229600E-010, 3.499565220943523500E-009, -7.000000000000000000 ) ) ;
#184 = CARTESIAN_POINT ( 'NONE',  ( -5.009309922915514900E-010, 3.499565220943523500E-009, -12.61520765552186600 ) ) ;
#185 = DIRECTION ( 'NONE',  ( 0.0000000000000000000, 0.0000000000000000000, 1.000000000000000000 ) ) ;
#186 = DIRECTION ( 'NONE',  ( 0.0000000000000000000, 1.000000000000000000, 0.0000000000000000000 ) ) ;
#187 = CARTESIAN_POINT ( 'NONE',  ( -5.009326287108706300E-010, -1.499999996500434900, 0.0000000000000000000 ) ) ;
#188 = AXIS2_PLACEMENT_3D ( 'NONE', #187, #186, #185 ) ;
#189 = TOROIDAL_SURFACE ( 'NONE', #188, 12.61520765552186600, 1.500000000000000000 ) ;
#190 = FACE_OUTER_BOUND ( 'NONE', #50, .T. ) ;
#191 = DIRECTION ( 'NONE',  ( 0.0000000000000000000, 0.0000000000000000000, 1.000000000000000000 ) ) ;
#192 = DIRECTION ( 'NONE',  ( 0.0000000000000000000, 1.000000000000000000, 0.0000000000000000000 ) ) ;
#193 = AXIS2_PLACEMENT_3D ( 'NONE', #195, #192, #191 ) ;
#194 = TOROIDAL_SURFACE ( 'NONE', #193, 12.61520765552186600, 1.500000000000000000 ) ;
#195 = CARTESIAN_POINT ( 'NONE',  ( -5.009326287108706300E-010, -1.499999996500434900, 0.0000000000000000000 ) ) ;
#196 = FACE_OUTER_BOUND ( 'NONE', #85, .T. ) ;
#197 = DIRECTION ( 'NONE',  ( 0.0000000000000000000, 1.000000000000000000, 0.0000000000000000000 ) ) ;
#198 = VECTOR ( 'NONE', #197, 1000.000000000000000 ) ;
#199 = CARTESIAN_POINT ( 'NONE',  ( -5.009326287108706300E-010, 2.412507003500041800, 7.000000000000000000 ) ) ;
#200 = LINE ( 'NONE', #199, #198 ) ;
#201 = DIRECTION ( 'NONE',  ( 0.0000000000000000000, 0.0000000000000000000, 1.000000000000000000 ) ) ;
#202 = DIRECTION ( 'NONE',  ( 0.0000000000000000000, 1.000000000000000000, 0.0000000000000000000 ) ) ;
#203 = CARTESIAN_POINT ( 'NONE',  ( -5.009326287108706300E-010, 3.499565220943523500E-009, 0.0000000000000000000 ) ) ;
#204 = AXIS2_PLACEMENT_3D ( 'NONE', #203, #202, #201 ) ;
#205 = CIRCLE ( 'NONE', #204, 7.000000000000000000 ) ;
#206 = DIRECTION ( 'NONE',  ( 0.0000000000000000000, 0.0000000000000000000, 1.000000000000000000 ) ) ;
#207 = DIRECTION ( 'NONE',  ( -1.000000000000000000, 0.0000000000000000000, 0.0000000000000000000 ) ) ;
#208 = CARTESIAN_POINT ( 'NONE',  ( -5.009326287108706300E-010, -1.499999996500434900, 12.61520765552186600 ) ) ;
#209 = AXIS2_PLACEMENT_3D ( 'NONE', #208, #207, #206 ) ;
#210 = CIRCLE ( 'NONE', #209, 1.499999999999999600 ) ;
#211 = DIRECTION ( 'NONE',  ( 0.0000000000000000000, 1.000000000000000000, 0.0000000000000000000 ) ) ;
#212 = VECTOR ( 'NONE', #211, 1000.000000000000000 ) ;
#213 = CARTESIAN_POINT ( 'NONE',  ( -5.009317714864229600E-010, 2.412507003500041800, -7.000000000000000000 ) ) ;
#214 = LINE ( 'NONE', #213, #212 ) ;
#215 = DIRECTION ( 'NONE',  ( 0.0000000000000000000, 0.0000000000000000000, 1.000000000000000000 ) ) ;
#216 = DIRECTION ( 'NONE',  ( 0.0000000000000000000, 1.000000000000000000, 0.0000000000000000000 ) ) ;
#217 = CARTESIAN_POINT ( 'NONE',  ( -5.009326287108706300E-010, 2.412507003500041800, 0.0000000000000000000 ) ) ;
#218 = AXIS2_PLACEMENT_3D ( 'NONE', #217, #216, #215 ) ;
#219 = CYLINDRICAL_SURFACE ( 'NONE', #218, 7.000000000000000000 ) ;
#220 = FACE_OUTER_BOUND ( 'NONE', #68, .T. ) ;
#221 = DIRECTION ( 'NONE',  ( 0.0000000000000000000, 0.0000000000000000000, 1.000000000000000000 ) ) ;
#222 = DIRECTION ( 'NONE',  ( 0.0000000000000000000, 1.000000000000000000, 0.0000000000000000000 ) ) ;
#223 = CARTESIAN_POINT ( 'NONE',  ( -5.009326287108706300E-010, -1.380382163076099700, 0.0000000000000000000 ) ) ;
#224 = AXIS2_PLACEMENT_3D ( 'NONE', #223, #222, #221 ) ;
#225 = DIRECTION ( 'NONE',  ( 0.0000000000000000000, 0.0000000000000000000, -1.000000000000000000 ) ) ;
#226 = DIRECTION ( 'NONE',  ( 0.0000000000000000000, -1.000000000000000000, 0.0000000000000000000 ) ) ;
#227 = CARTESIAN_POINT ( 'NONE',  ( -5.009326287108706300E-010, -24.99999999650043500, 0.0000000000000000000 ) ) ;
#228 = AXIS2_PLACEMENT_3D ( 'NONE', #227, #226, #225 ) ;
#229 = CIRCLE ( 'NONE', #224, 14.11043057332605400 ) ;
#230 = CONICAL_SURFACE ( 'NONE', #228, 16.00000000000000000, 0.07982998571223734500 ) ;
#231 = FACE_OUTER_BOUND ( 'NONE', #19, .T. ) ;
#232 = DIRECTION ( 'NONE',  ( 0.0000000000000000000, 0.0000000000000000000, 1.000000000000000000 ) ) ;
#233 = DIRECTION ( 'NONE',  ( 0.0000000000000000000, 1.000000000000000000, 0.0000000000000000000 ) ) ;
#234 = AXIS2_PLACEMENT_3D ( 'NONE', #241, #233, #232 ) ;
#235 = CIRCLE ( 'NONE', #234, 2.500000000000001300 ) ;
#236 = DIRECTION ( 'NONE',  ( 0.0000000000000000000, 0.0000000000000000000, 1.000000000000000000 ) ) ;
#237 = DIRECTION ( 'NONE',  ( 0.0000000000000000000, 1.000000000000000000, 0.0000000000000000000 ) ) ;
#238 = CARTESIAN_POINT ( 'NONE',  ( -5.009326287108706300E-010, 2.412507003500041800, 0.0000000000000000000 ) ) ;
#239 = AXIS2_PLACEMENT_3D ( 'NONE', #238, #237, #236 ) ;
#240 = CYLINDRICAL_SURFACE ( 'NONE', #239, 2.500000000000000400 ) ;
#241 = CARTESIAN_POINT ( 'NONE',  ( -5.009326287108706300E-010, -24.99999999650043500, 0.0000000000000000000 ) ) ;
#242 = FACE_OUTER_BOUND ( 'NONE', #48, .T. ) ;
#243 = DIRECTION ( 'NONE',  ( 9.765650589460492700E-018, -0.9968152785361249500, 0.07974522228289000800 ) ) ;
#244 = VECTOR ( 'NONE', #243, 1000.000000000000200 ) ;
#245 = CARTESIAN_POINT ( 'NONE',  ( -5.009306693407045200E-010, -24.99999999650043500, 16.00000000000000000 ) ) ;
#246 = LINE ( 'NONE', #245, #244 ) ;
#247 = CARTESIAN_POINT ( 'NONE',  ( -5.009326287108706300E-010, -24.99999999650043500, -16.00000000000000000 ) ) ;
#248 = DIRECTION ( 'NONE',  ( 0.0000000000000000000, 0.0000000000000000000, 1.000000000000000000 ) ) ;
#249 = DIRECTION ( 'NONE',  ( 0.0000000000000000000, 1.000000000000000000, 0.0000000000000000000 ) ) ;
#250 = CARTESIAN_POINT ( 'NONE',  ( -5.009326287108706300E-010, -8.999999996500434900, 0.0000000000000000000 ) ) ;
#251 = AXIS2_PLACEMENT_3D ( 'NONE', #250, #249, #248 ) ;
#252 = CIRCLE ( 'NONE', #251, 2.499999999999999600 ) ;
#253 = CARTESIAN_POINT ( 'NONE',  ( -5.009326287108706300E-010, 3.499565220943523500E-009, 7.000000000000000000 ) ) ;
#254 = CARTESIAN_POINT ( 'NONE',  ( -5.009306693407045200E-010, -24.99999999650043500, 16.00000000000000000 ) ) ;
#255 = DIRECTION ( 'NONE',  ( 0.0000000000000000000, 0.0000000000000000000, 1.000000000000000000 ) ) ;
#256 = DIRECTION ( 'NONE',  ( 0.0000000000000000000, 1.000000000000000000, 0.0000000000000000000 ) ) ;
#257 = CARTESIAN_POINT ( 'NONE',  ( -5.009326287108706300E-010, -24.99999999650043500, 0.0000000000000000000 ) ) ;
#258 = AXIS2_PLACEMENT_3D ( 'NONE', #257, #256, #255 ) ;
#259 = CIRCLE ( 'NONE', #258, 16.00000000000000000 ) ;
#260 = DIRECTION ( 'NONE',  ( 0.0000000000000000000, 0.0000000000000000000, 1.000000000000000000 ) ) ;
#261 = DIRECTION ( 'NONE',  ( 0.0000000000000000000, 1.000000000000000000, 0.0000000000000000000 ) ) ;
#262 = CARTESIAN_POINT ( 'NONE',  ( -5.009326287108706300E-010, -8.999999996500434900, 0.0000000000000000000 ) ) ;
#263 = AXIS2_PLACEMENT_3D ( 'NONE', #262, #261, #260 ) ;
#264 = CIRCLE ( 'NONE', #263, 7.000000000000000000 ) ;
#265 = DIRECTION ( 'NONE',  ( 0.0000000000000000000, 1.000000000000000000, 0.0000000000000000000 ) ) ;
#266 = VECTOR ( 'NONE', #265, 1000.000000000000000 ) ;
#267 = CARTESIAN_POINT ( 'NONE',  ( -5.009323225592821800E-010, 2.412507003500041800, -2.500000000000000400 ) ) ;
#268 = LINE ( 'NONE', #267, #266 ) ;
#269 = CARTESIAN_POINT ( 'NONE',  ( -5.009326287108706300E-010, -24.99999999650043500, 2.500000000000001300 ) ) ;
#270 = CARTESIAN_POINT ( 'NONE',  ( -5.009323225592821800E-010, -24.99999999650043500, -2.500000000000001800 ) ) ;
#271 = CARTESIAN_POINT ( 'NONE',  ( -5.009326287108706300E-010, -1.380382163076099700, 14.11043057332605400 ) ) ;
#272 = DIRECTION ( 'NONE',  ( 0.0000000000000000000, 0.0000000000000000000, -1.000000000000000000 ) ) ;
#273 = DIRECTION ( 'NONE',  ( 0.0000000000000000000, -1.000000000000000000, 0.0000000000000000000 ) ) ;
#274 = CARTESIAN_POINT ( 'NONE',  ( 6.999999999499067400, -8.999999996500434900, 0.0000000000000000000 ) ) ;
#275 = AXIS2_PLACEMENT_3D ( 'NONE', #274, #273, #272 ) ;
#276 = PLANE ( 'NONE',  #275 ) ;
#277 = FACE_OUTER_BOUND ( 'NONE', #12, .T. ) ;
#278 = FACE_BOUND ( 'NONE', #96, .T. ) ;
#279 = DIRECTION ( 'NONE',  ( 0.0000000000000000000, 0.0000000000000000000, 1.000000000000000000 ) ) ;
#280 = DIRECTION ( 'NONE',  ( 0.0000000000000000000, 1.000000000000000000, 0.0000000000000000000 ) ) ;
#281 = AXIS2_PLACEMENT_3D ( 'NONE', #288, #280, #279 ) ;
#282 = CIRCLE ( 'NONE', #281, 7.000000000000000000 ) ;
#283 = DIRECTION ( 'NONE',  ( 0.0000000000000000000, 0.0000000000000000000, 1.000000000000000000 ) ) ;
#284 = DIRECTION ( 'NONE',  ( 0.0000000000000000000, 1.000000000000000000, 0.0000000000000000000 ) ) ;
#285 = CARTESIAN_POINT ( 'NONE',  ( -5.009326287108706300E-010, 3.499565220943523500E-009, 0.0000000000000000000 ) ) ;
#286 = AXIS2_PLACEMENT_3D ( 'NONE', #285, #284, #283 ) ;
#287 = CIRCLE ( 'NONE', #286, 12.61520765552186600 ) ;
#288 = CARTESIAN_POINT ( 'NONE',  ( -5.009326287108706300E-010, -8.999999996500434900, 0.0000000000000000000 ) ) ;
#289 = CARTESIAN_POINT ( 'NONE',  ( -5.009326287108706300E-010, 3.499565220943523500E-009, 12.61520765552186600 ) ) ;
#290 = DIRECTION ( 'NONE',  ( 1.224606353612351200E-016, 0.0000000000000000000, -1.000000000000000000 ) ) ;
#291 = DIRECTION ( 'NONE',  ( 1.000000000000000000, 0.0000000000000000000, 1.224606353822377300E-016 ) ) ;
#292 = CARTESIAN_POINT ( 'NONE',  ( -5.009310838445256900E-010, -1.499999996500434900, -12.61520765552186600 ) ) ;
#293 = AXIS2_PLACEMENT_3D ( 'NONE', #292, #291, #290 ) ;
#294 = CIRCLE ( 'NONE', #293, 1.499999999999999600 ) ;
#295 = CARTESIAN_POINT ( 'NONE',  ( -5.009309007385771900E-010, -1.380382163076099700, -14.11043057332605400 ) ) ;
#296 = DIRECTION ( 'NONE',  ( 0.0000000000000000000, 0.0000000000000000000, 1.000000000000000000 ) ) ;
#297 = DIRECTION ( 'NONE',  ( 0.0000000000000000000, 1.000000000000000000, 0.0000000000000000000 ) ) ;
#298 = CARTESIAN_POINT ( 'NONE',  ( -5.009326287108706300E-010, 3.499565220943523500E-009, 0.0000000000000000000 ) ) ;
#299 = AXIS2_PLACEMENT_3D ( 'NONE', #298, #297, #296 ) ;
#300 = CIRCLE ( 'NONE', #299, 7.000000000000000000 ) ;
#301 = DIRECTION ( 'NONE',  ( 0.0000000000000000000, 0.0000000000000000000, 1.000000000000000000 ) ) ;
#302 = DIRECTION ( 'NONE',  ( 0.0000000000000000000, 1.000000000000000000, 0.0000000000000000000 ) ) ;
#303 = CARTESIAN_POINT ( 'NONE',  ( -5.009326287108706300E-010, -1.380382163076099700, 0.0000000000000000000 ) ) ;
#304 = AXIS2_PLACEMENT_3D ( 'NONE', #303, #302, #301 ) ;
#305 = CIRCLE ( 'NONE', #304, 14.11043057332605400 ) ;
#306 = DIRECTION ( 'NONE',  ( 0.0000000000000000000, 0.0000000000000000000, -1.000000000000000000 ) ) ;
#307 = DIRECTION ( 'NONE',  ( 0.0000000000000000000, -1.000000000000000000, 0.0000000000000000000 ) ) ;
#308 = CARTESIAN_POINT ( 'NONE',  ( 12.61520765502093300, 3.499565220943523500E-009, 0.0000000000000000000 ) ) ;
#309 = AXIS2_PLACEMENT_3D ( 'NONE', #308, #307, #306 ) ;
#310 = FACE_OUTER_BOUND ( 'NONE', #113, .T. ) ;
#311 = FACE_BOUND ( 'NONE', #67, .T. ) ;
#312 = DIRECTION ( 'NONE',  ( 0.0000000000000000000, 0.0000000000000000000, 1.000000000000000000 ) ) ;
#313 = DIRECTION ( 'NONE',  ( 0.0000000000000000000, 1.000000000000000000, 0.0000000000000000000 ) ) ;
#314 = CARTESIAN_POINT ( 'NONE',  ( -5.009326287108706300E-010, 2.412507003500041800, 0.0000000000000000000 ) ) ;
#315 = AXIS2_PLACEMENT_3D ( 'NONE', #314, #313, #312 ) ;
#316 = PLANE ( 'NONE',  #309 ) ;
#317 = CYLINDRICAL_SURFACE ( 'NONE', #315, 2.500000000000000400 ) ;
#318 = FACE_OUTER_BOUND ( 'NONE', #13, .T. ) ;
#319 = DIRECTION ( 'NONE',  ( 0.0000000000000000000, 0.0000000000000000000, 1.000000000000000000 ) ) ;
#320 = DIRECTION ( 'NONE',  ( 0.0000000000000000000, 1.000000000000000000, 0.0000000000000000000 ) ) ;
#321 = CARTESIAN_POINT ( 'NONE',  ( -5.009326287108706300E-010, -24.99999999650043500, 0.0000000000000000000 ) ) ;
#322 = AXIS2_PLACEMENT_3D ( 'NONE', #321, #320, #319 ) ;
#323 = CIRCLE ( 'NONE', #322, 2.500000000000001300 ) ;
#324 = DIRECTION ( 'NONE',  ( 0.0000000000000000000, 0.0000000000000000000, 1.000000000000000000 ) ) ;
#325 = DIRECTION ( 'NONE',  ( 0.0000000000000000000, 1.000000000000000000, 0.0000000000000000000 ) ) ;
#326 = CARTESIAN_POINT ( 'NONE',  ( 2.499999999499068700, -24.99999999650043500, 0.0000000000000000000 ) ) ;
#327 = AXIS2_PLACEMENT_3D ( 'NONE', #326, #325, #324 ) ;
#328 = FACE_BOUND ( 'NONE', #103, .T. ) ;
#329 = FACE_OUTER_BOUND ( 'NONE', #8, .T. ) ;
#330 = DIRECTION ( 'NONE',  ( 0.0000000000000000000, 0.0000000000000000000, -1.000000000000000000 ) ) ;
#331 = DIRECTION ( 'NONE',  ( 0.0000000000000000000, -1.000000000000000000, 0.0000000000000000000 ) ) ;
#332 = AXIS2_PLACEMENT_3D ( 'NONE', #335, #331, #330 ) ;
#333 = CONICAL_SURFACE ( 'NONE', #332, 16.00000000000000000, 0.07982998571223734500 ) ;
#334 = PLANE ( 'NONE',  #327 ) ;
#335 = CARTESIAN_POINT ( 'NONE',  ( -5.009326287108706300E-010, -24.99999999650043500, 0.0000000000000000000 ) ) ;
#336 = FACE_OUTER_BOUND ( 'NONE', #15, .T. ) ;
#337 =( LENGTH_UNIT ( ) NAMED_UNIT ( * ) SI_UNIT ( .MILLI., .METRE. ) );
#338 = CC_DESIGN_SECURITY_CLASSIFICATION ( #359, ( #371 ) ) ;
#339 = CC_DESIGN_APPROVAL ( #347, ( #359 ) ) ;
#340 = APPROVAL_DATE_TIME ( #341, #347 ) ;
#341 = DATE_AND_TIME ( #342, #343 ) ;
#342 = CALENDAR_DATE ( 2009, 29, 6 ) ;
#343 = LOCAL_TIME ( 14, 11, 38.00000000000000000, #344 ) ;
#344 = COORDINATED_UNIVERSAL_TIME_OFFSET ( 9, 0, .AHEAD. ) ;
#345 = APPROVAL_PERSON_ORGANIZATION ( #349, #347, #346 ) ;
#346 = APPROVAL_ROLE ( '' ) ;
#347 = APPROVAL ( #348, 'UNSPECIFIED' ) ;
#348 = APPROVAL_STATUS ( 'not_yet_approved' ) ;
#349 = PERSON_AND_ORGANIZATION ( #136, #135 ) ;
#350 = CC_DESIGN_DATE_AND_TIME_ASSIGNMENT ( #352, #351, ( #359 ) ) ;
#351 = DATE_TIME_ROLE ( 'classification_date' ) ;
#352 = DATE_AND_TIME ( #353, #354 ) ;
#353 = CALENDAR_DATE ( 2009, 29, 6 ) ;
#354 = LOCAL_TIME ( 14, 11, 38.00000000000000000, #355 ) ;
#355 = COORDINATED_UNIVERSAL_TIME_OFFSET ( 9, 0, .AHEAD. ) ;
#356 = CC_DESIGN_PERSON_AND_ORGANIZATION_ASSIGNMENT ( #358, #357, ( #359 ) ) ;
#357 = PERSON_AND_ORGANIZATION_ROLE ( 'classification_officer' ) ;
#358 = PERSON_AND_ORGANIZATION ( #136, #135 ) ;
#359 = SECURITY_CLASSIFICATION ( '', '', #360 ) ;
#360 = SECURITY_CLASSIFICATION_LEVEL ( 'unclassified' ) ;
#361 = CC_DESIGN_PERSON_AND_ORGANIZATION_ASSIGNMENT ( #363, #362, ( #371 ) ) ;
#362 = PERSON_AND_ORGANIZATION_ROLE ( 'design_supplier' ) ;
#363 = PERSON_AND_ORGANIZATION ( #136, #135 ) ;
#364 = CC_DESIGN_PERSON_AND_ORGANIZATION_ASSIGNMENT ( #366, #365, ( #371 ) ) ;
#365 = PERSON_AND_ORGANIZATION_ROLE ( 'creator' ) ;
#366 = PERSON_AND_ORGANIZATION ( #136, #135 ) ;
#367 = CC_DESIGN_APPROVAL ( #377, ( #371 ) ) ;
#368 = APPROVAL_DATE_TIME ( #373, #377 ) ;
#369 = CALENDAR_DATE ( 2009, 29, 6 ) ;
#370 = LOCAL_TIME ( 14, 11, 38.00000000000000000, #374 ) ;
#371 = PRODUCT_DEFINITION_FORMATION_WITH_SPECIFIED_SOURCE ( 'ANY', '', #137, .NOT_KNOWN. ) ;
#372 = SHAPE_DEFINITION_REPRESENTATION ( #380, #144 ) ;
#373 = DATE_AND_TIME ( #369, #370 ) ;
#374 = COORDINATED_UNIVERSAL_TIME_OFFSET ( 9, 0, .AHEAD. ) ;
#375 = APPROVAL_PERSON_ORGANIZATION ( #379, #377, #376 ) ;
#376 = APPROVAL_ROLE ( '' ) ;
#377 = APPROVAL ( #378, 'UNSPECIFIED' ) ;
#378 = APPROVAL_STATUS ( 'not_yet_approved' ) ;
#379 = PERSON_AND_ORGANIZATION ( #136, #135 ) ;
#380 = PRODUCT_DEFINITION_SHAPE ( 'NONE', 'NONE',  #128 ) ;
#381 = PRODUCT_RELATED_PRODUCT_CATEGORY ( 'detail', '', ( #137 ) ) ;
ENDSEC;
END-ISO-10303-21;
