ISO-10303-21;
HEADER;
FILE_DESCRIPTION (( 'STEP AP203' ),
    '1' );
FILE_NAME ('C-30-RK-3225-gray.STEP',
    '2009-06-29T05:02:14',
    ( '11sw' ),
    ( '^LQ»¢®ïÐ' ),
    'SwSTEP 2.0',
    'SolidWorks 2007',
    '' );
FILE_SCHEMA (( 'CONFIG_CONTROL_DESIGN' ));
ENDSEC;

DATA;
#1 = MANIFOLD_SOLID_BREP ( 'NONE', #51 ) ;
#2 = ORIENTED_EDGE ( 'NONE', *, *, #106, .F. ) ;
#3 = ADVANCED_FACE ( 'NONE', ( #126 ), #127, .T. ) ;
#4 = VERTEX_POINT ( 'NONE', #110 ) ;
#5 = VERTEX_POINT ( 'NONE', #122 ) ;
#6 = EDGE_CURVE ( 'NONE', #4, #5, #119, .T. ) ;
#7 = ORIENTED_EDGE ( 'NONE', *, *, #6, .F. ) ;
#8 = ORIENTED_EDGE ( 'NONE', *, *, #30, .T. ) ;
#9 = EDGE_LOOP ( 'NONE', ( #8, #11, #7, #2 ) ) ;
#10 = EDGE_CURVE ( 'NONE', #32, #5, #100, .T. ) ;
#11 = ORIENTED_EDGE ( 'NONE', *, *, #10, .T. ) ;
#12 = ADVANCED_FACE ( 'NONE', ( #101 ), #138, .T. ) ;
#13 = ORIENTED_EDGE ( 'NONE', *, *, #14, .F. ) ;
#14 = EDGE_CURVE ( 'NONE', #72, #16, #128, .T. ) ;
#15 = EDGE_LOOP ( 'NONE', ( #17, #41 ) ) ;
#16 = VERTEX_POINT ( 'NONE', #134 ) ;
#17 = ORIENTED_EDGE ( 'NONE', *, *, #40, .F. ) ;
#18 = EDGE_CURVE ( 'NONE', #38, #16, #130, .T. ) ;
#19 = EDGE_LOOP ( 'NONE', ( #20, #112, #114, #94 ) ) ;
#20 = ORIENTED_EDGE ( 'NONE', *, *, #37, .F. ) ;
#21 = EDGE_CURVE ( 'NONE', #31, #34, #146, .T. ) ;
#22 = ORIENTED_EDGE ( 'NONE', *, *, #24, .T. ) ;
#23 = VERTEX_POINT ( 'NONE', #147 ) ;
#24 = EDGE_CURVE ( 'NONE', #34, #23, #153, .T. ) ;
#25 = ORIENTED_EDGE ( 'NONE', *, *, #47, .F. ) ;
#26 = ORIENTED_EDGE ( 'NONE', *, *, #81, .T. ) ;
#27 = ORIENTED_EDGE ( 'NONE', *, *, #91, .T. ) ;
#28 = EDGE_LOOP ( 'NONE', ( #29, #33, #22, #74 ) ) ;
#29 = ORIENTED_EDGE ( 'NONE', *, *, #30, .F. ) ;
#30 = EDGE_CURVE ( 'NONE', #31, #32, #161, .T. ) ;
#31 = VERTEX_POINT ( 'NONE', #162 ) ;
#32 = VERTEX_POINT ( 'NONE', #164 ) ;
#33 = ORIENTED_EDGE ( 'NONE', *, *, #21, .T. ) ;
#34 = VERTEX_POINT ( 'NONE', #163 ) ;
#35 = EDGE_LOOP ( 'NONE', ( #67, #64 ) ) ;
#36 = ADVANCED_FACE ( 'NONE', ( #155 ), #169, .T. ) ;
#37 = EDGE_CURVE ( 'NONE', #71, #38, #160, .T. ) ;
#38 = VERTEX_POINT ( 'NONE', #156 ) ;
#39 = ORIENTED_EDGE ( 'NONE', *, *, #18, .T. ) ;
#40 = EDGE_CURVE ( 'NONE', #16, #38, #152, .T. ) ;
#41 = ORIENTED_EDGE ( 'NONE', *, *, #18, .F. ) ;
#42 = EDGE_LOOP ( 'NONE', ( #43, #44 ) ) ;
#43 = ORIENTED_EDGE ( 'NONE', *, *, #6, .T. ) ;
#44 = ORIENTED_EDGE ( 'NONE', *, *, #88, .T. ) ;
#45 = ADVANCED_FACE ( 'NONE', ( #306 ), #305, .F. ) ;
#46 = ADVANCED_FACE ( 'NONE', ( #208, #203 ), #202, .F. ) ;
#47 = EDGE_CURVE ( 'NONE', #57, #63, #197, .T. ) ;
#48 = EDGE_LOOP ( 'NONE', ( #65, #66, #52, #53 ) ) ;
#49 = ORIENTED_EDGE ( 'NONE', *, *, #55, .F. ) ;
#50 = EDGE_LOOP ( 'NONE', ( #49, #54 ) ) ;
#51 = CLOSED_SHELL ( 'NONE', ( #3, #76, #82, #12, #123, #121, #45, #95, #93, #46, #36 ) ) ;
#52 = ORIENTED_EDGE ( 'NONE', *, *, #75, .T. ) ;
#53 = ORIENTED_EDGE ( 'NONE', *, *, #55, .T. ) ;
#54 = ORIENTED_EDGE ( 'NONE', *, *, #24, .F. ) ;
#55 = EDGE_CURVE ( 'NONE', #23, #34, #192, .T. ) ;
#56 = EDGE_CURVE ( 'NONE', #63, #57, #187, .T. ) ;
#57 = VERTEX_POINT ( 'NONE', #182 ) ;
#58 = ORIENTED_EDGE ( 'NONE', *, *, #59, .T. ) ;
#59 = EDGE_CURVE ( 'NONE', #63, #60, #181, .T. ) ;
#60 = VERTEX_POINT ( 'NONE', #177 ) ;
#61 = ORIENTED_EDGE ( 'NONE', *, *, #78, .T. ) ;
#62 = ORIENTED_EDGE ( 'NONE', *, *, #56, .F. ) ;
#63 = VERTEX_POINT ( 'NONE', #176 ) ;
#64 = ORIENTED_EDGE ( 'NONE', *, *, #56, .T. ) ;
#65 = ORIENTED_EDGE ( 'NONE', *, *, #21, .F. ) ;
#66 = ORIENTED_EDGE ( 'NONE', *, *, #85, .F. ) ;
#67 = ORIENTED_EDGE ( 'NONE', *, *, #47, .T. ) ;
#68 = EDGE_LOOP ( 'NONE', ( #69, #73, #39, #13 ) ) ;
#69 = ORIENTED_EDGE ( 'NONE', *, *, #70, .F. ) ;
#70 = EDGE_CURVE ( 'NONE', #71, #72, #251, .T. ) ;
#71 = VERTEX_POINT ( 'NONE', #246 ) ;
#72 = VERTEX_POINT ( 'NONE', #245 ) ;
#73 = ORIENTED_EDGE ( 'NONE', *, *, #37, .T. ) ;
#74 = ORIENTED_EDGE ( 'NONE', *, *, #75, .F. ) ;
#75 = EDGE_CURVE ( 'NONE', #32, #23, #244, .T. ) ;
#76 = ADVANCED_FACE ( 'NONE', ( #240 ), #239, .F. ) ;
#77 = EDGE_LOOP ( 'NONE', ( #62, #58, #61, #80 ) ) ;
#78 = EDGE_CURVE ( 'NONE', #60, #79, #233, .T. ) ;
#79 = VERTEX_POINT ( 'NONE', #229 ) ;
#80 = ORIENTED_EDGE ( 'NONE', *, *, #81, .F. ) ;
#81 = EDGE_CURVE ( 'NONE', #57, #79, #331, .T. ) ;
#82 = ADVANCED_FACE ( 'NONE', ( #327 ), #326, .F. ) ;
#83 = ORIENTED_EDGE ( 'NONE', *, *, #59, .F. ) ;
#84 = ORIENTED_EDGE ( 'NONE', *, *, #85, .T. ) ;
#85 = EDGE_CURVE ( 'NONE', #32, #31, #321, .T. ) ;
#86 = ORIENTED_EDGE ( 'NONE', *, *, #106, .T. ) ;
#87 = ORIENTED_EDGE ( 'NONE', *, *, #88, .F. ) ;
#88 = EDGE_CURVE ( 'NONE', #5, #4, #316, .T. ) ;
#89 = EDGE_LOOP ( 'NONE', ( #90, #102 ) ) ;
#90 = ORIENTED_EDGE ( 'NONE', *, *, #91, .F. ) ;
#91 = EDGE_CURVE ( 'NONE', #79, #60, #311, .T. ) ;
#92 = ORIENTED_EDGE ( 'NONE', *, *, #70, .T. ) ;
#93 = ADVANCED_FACE ( 'NONE', ( #228 ), #227, .F. ) ;
#94 = ORIENTED_EDGE ( 'NONE', *, *, #40, .T. ) ;
#95 = ADVANCED_FACE ( 'NONE', ( #226, #225 ), #220, .F. ) ;
#96 = DIRECTION ( 'NONE',  ( 0.0000000000000000000, 0.0000000000000000000, 1.000000000000000000 ) ) ;
#97 = DIRECTION ( 'NONE',  ( 1.224606353612351200E-016, 0.0000000000000000000, -1.000000000000000000 ) ) ;
#98 = DIRECTION ( 'NONE',  ( 1.000000000000000000, 0.0000000000000000000, 1.224606353822377300E-016 ) ) ;
#99 = AXIS2_PLACEMENT_3D ( 'NONE', #120, #98, #97 ) ;
#100 = CIRCLE ( 'NONE', #99, 1.499999999999999600 ) ;
#101 = FACE_OUTER_BOUND ( 'NONE', #9, .T. ) ;
#102 = ORIENTED_EDGE ( 'NONE', *, *, #78, .F. ) ;
#103 = EDGE_LOOP ( 'NONE', ( #104, #92 ) ) ;
#104 = ORIENTED_EDGE ( 'NONE', *, *, #113, .T. ) ;
#105 = EDGE_LOOP ( 'NONE', ( #83, #25, #26, #27 ) ) ;
#106 = EDGE_CURVE ( 'NONE', #31, #4, #300, .T. ) ;
#107 = DIRECTION ( 'NONE',  ( 0.0000000000000000000, 0.0000000000000000000, -1.000000000000000000 ) ) ;
#108 = DIRECTION ( 'NONE',  ( 0.0000000000000000000, -1.000000000000000000, 0.0000000000000000000 ) ) ;
#109 = AXIS2_PLACEMENT_3D ( 'NONE', #111, #108, #107 ) ;
#110 = CARTESIAN_POINT ( 'NONE',  ( -5.009326287108706300E-010, 3.499565220943523500E-009, 12.61520765552186600 ) ) ;
#111 = CARTESIAN_POINT ( 'NONE',  ( -5.009326287108706300E-010, -24.99999999650043500, 0.0000000000000000000 ) ) ;
#112 = ORIENTED_EDGE ( 'NONE', *, *, #113, .F. ) ;
#113 = EDGE_CURVE ( 'NONE', #72, #71, #295, .T. ) ;
#114 = ORIENTED_EDGE ( 'NONE', *, *, #14, .T. ) ;
#115 = DIRECTION ( 'NONE',  ( 0.0000000000000000000, 0.0000000000000000000, 1.000000000000000000 ) ) ;
#116 = DIRECTION ( 'NONE',  ( 0.0000000000000000000, 1.000000000000000000, 0.0000000000000000000 ) ) ;
#117 = CARTESIAN_POINT ( 'NONE',  ( -5.009326287108706300E-010, 3.499565220943523500E-009, 0.0000000000000000000 ) ) ;
#118 = AXIS2_PLACEMENT_3D ( 'NONE', #117, #116, #115 ) ;
#119 = CIRCLE ( 'NONE', #118, 12.61520765552186600 ) ;
#120 = CARTESIAN_POINT ( 'NONE',  ( -5.009310838445256900E-010, -1.499999996500434900, -12.61520765552186600 ) ) ;
#121 = ADVANCED_FACE ( 'NONE', ( #290, #289 ), #288, .F. ) ;
#122 = CARTESIAN_POINT ( 'NONE',  ( -5.009309922915514900E-010, 3.499565220943523500E-009, -12.61520765552186600 ) ) ;
#123 = ADVANCED_FACE ( 'NONE', ( #283 ), #282, .T. ) ;
#124 = EDGE_LOOP ( 'NONE', ( #125, #84, #86, #87 ) ) ;
#125 = ORIENTED_EDGE ( 'NONE', *, *, #10, .F. ) ;
#126 = FACE_OUTER_BOUND ( 'NONE', #28, .T. ) ;
#127 = CONICAL_SURFACE ( 'NONE', #109, 16.00000000000000000, 0.07982998571223734500 ) ;
#128 = LINE ( 'NONE', #133, #132 ) ;
#129 = CARTESIAN_POINT ( 'NONE',  ( -5.009326287108706300E-010, -1.499999996500434900, 0.0000000000000000000 ) ) ;
#130 = CIRCLE ( 'NONE', #145, 7.000000000000000000 ) ;
#131 = DIRECTION ( 'NONE',  ( 0.0000000000000000000, 1.000000000000000000, 0.0000000000000000000 ) ) ;
#132 = VECTOR ( 'NONE', #131, 1000.000000000000000 ) ;
#133 = CARTESIAN_POINT ( 'NONE',  ( -5.009326287108706300E-010, 2.412507003500041800, 7.000000000000000000 ) ) ;
#134 = CARTESIAN_POINT ( 'NONE',  ( -5.009326287108706300E-010, 3.499565220943523500E-009, 7.000000000000000000 ) ) ;
#135 = DIRECTION ( 'NONE',  ( 9.765650589460492700E-018, -0.9968152785361249500, 0.07974522228289000800 ) ) ;
#136 = VECTOR ( 'NONE', #135, 1000.000000000000200 ) ;
#137 = CARTESIAN_POINT ( 'NONE',  ( -5.009306693407045200E-010, -24.99999999650043500, 16.00000000000000000 ) ) ;
#138 = TOROIDAL_SURFACE ( 'NONE', #140, 12.61520765552186600, 1.500000000000000000 ) ;
#139 = DIRECTION ( 'NONE',  ( 0.0000000000000000000, 0.0000000000000000000, 1.000000000000000000 ) ) ;
#140 = AXIS2_PLACEMENT_3D ( 'NONE', #129, #144, #139 ) ;
#141 = DIRECTION ( 'NONE',  ( 0.0000000000000000000, 0.0000000000000000000, 1.000000000000000000 ) ) ;
#142 = DIRECTION ( 'NONE',  ( 0.0000000000000000000, 1.000000000000000000, 0.0000000000000000000 ) ) ;
#143 = CARTESIAN_POINT ( 'NONE',  ( -5.009326287108706300E-010, 3.499565220943523500E-009, 0.0000000000000000000 ) ) ;
#144 = DIRECTION ( 'NONE',  ( 0.0000000000000000000, 1.000000000000000000, 0.0000000000000000000 ) ) ;
#145 = AXIS2_PLACEMENT_3D ( 'NONE', #143, #142, #141 ) ;
#146 = LINE ( 'NONE', #137, #136 ) ;
#147 = CARTESIAN_POINT ( 'NONE',  ( -5.009326287108706300E-010, -24.99999999650043500, -16.00000000000000000 ) ) ;
#148 = DIRECTION ( 'NONE',  ( 0.0000000000000000000, 1.000000000000000000, 0.0000000000000000000 ) ) ;
#149 = DIRECTION ( 'NONE',  ( 0.0000000000000000000, 1.000000000000000000, 0.0000000000000000000 ) ) ;
#150 = CARTESIAN_POINT ( 'NONE',  ( -5.009326287108706300E-010, 3.499565220943523500E-009, 0.0000000000000000000 ) ) ;
#151 = AXIS2_PLACEMENT_3D ( 'NONE', #150, #149, #96 ) ;
#152 = CIRCLE ( 'NONE', #151, 7.000000000000000000 ) ;
#153 = CIRCLE ( 'NONE', #171, 16.00000000000000000 ) ;
#154 = CARTESIAN_POINT ( 'NONE',  ( -5.009326287108706300E-010, -24.99999999650043500, 0.0000000000000000000 ) ) ;
#155 = FACE_OUTER_BOUND ( 'NONE', #48, .T. ) ;
#156 = CARTESIAN_POINT ( 'NONE',  ( -5.009317714864229600E-010, 3.499565220943523500E-009, -7.000000000000000000 ) ) ;
#157 = DIRECTION ( 'NONE',  ( 0.0000000000000000000, 1.000000000000000000, 0.0000000000000000000 ) ) ;
#158 = VECTOR ( 'NONE', #157, 1000.000000000000000 ) ;
#159 = CARTESIAN_POINT ( 'NONE',  ( -5.009317714864229600E-010, 2.412507003500041800, -7.000000000000000000 ) ) ;
#160 = LINE ( 'NONE', #159, #158 ) ;
#161 = CIRCLE ( 'NONE', #175, 14.11043057332605400 ) ;
#162 = CARTESIAN_POINT ( 'NONE',  ( -5.009326287108706300E-010, -1.380382163076099700, 14.11043057332605400 ) ) ;
#163 = CARTESIAN_POINT ( 'NONE',  ( -5.009306693407045200E-010, -24.99999999650043500, 16.00000000000000000 ) ) ;
#164 = CARTESIAN_POINT ( 'NONE',  ( -5.009309007385771900E-010, -1.380382163076099700, -14.11043057332605400 ) ) ;
#165 = DIRECTION ( 'NONE',  ( 0.0000000000000000000, 0.0000000000000000000, 1.000000000000000000 ) ) ;
#166 = DIRECTION ( 'NONE',  ( 0.0000000000000000000, 0.0000000000000000000, -1.000000000000000000 ) ) ;
#167 = DIRECTION ( 'NONE',  ( 0.0000000000000000000, -1.000000000000000000, 0.0000000000000000000 ) ) ;
#168 = AXIS2_PLACEMENT_3D ( 'NONE', #154, #167, #166 ) ;
#169 = CONICAL_SURFACE ( 'NONE', #168, 16.00000000000000000, 0.07982998571223734500 ) ;
#170 = CARTESIAN_POINT ( 'NONE',  ( -5.009326287108706300E-010, -24.99999999650043500, 0.0000000000000000000 ) ) ;
#171 = AXIS2_PLACEMENT_3D ( 'NONE', #170, #148, #165 ) ;
#172 = DIRECTION ( 'NONE',  ( 0.0000000000000000000, 0.0000000000000000000, 1.000000000000000000 ) ) ;
#173 = DIRECTION ( 'NONE',  ( 0.0000000000000000000, 1.000000000000000000, 0.0000000000000000000 ) ) ;
#174 = CARTESIAN_POINT ( 'NONE',  ( -5.009326287108706300E-010, -1.380382163076099700, 0.0000000000000000000 ) ) ;
#175 = AXIS2_PLACEMENT_3D ( 'NONE', #174, #173, #172 ) ;
#176 = CARTESIAN_POINT ( 'NONE',  ( -5.009323225592821800E-010, -24.99999999650043500, -2.500000000000001800 ) ) ;
#177 = CARTESIAN_POINT ( 'NONE',  ( -5.009323225592821800E-010, -8.999999996500434900, -2.499999999999999600 ) ) ;
#178 = DIRECTION ( 'NONE',  ( 0.0000000000000000000, 1.000000000000000000, 0.0000000000000000000 ) ) ;
#179 = VECTOR ( 'NONE', #178, 1000.000000000000000 ) ;
#180 = CARTESIAN_POINT ( 'NONE',  ( -5.009323225592821800E-010, 2.412507003500041800, -2.500000000000000400 ) ) ;
#181 = LINE ( 'NONE', #180, #179 ) ;
#182 = CARTESIAN_POINT ( 'NONE',  ( -5.009326287108706300E-010, -24.99999999650043500, 2.500000000000001300 ) ) ;
#183 = DIRECTION ( 'NONE',  ( 0.0000000000000000000, 0.0000000000000000000, 1.000000000000000000 ) ) ;
#184 = DIRECTION ( 'NONE',  ( 0.0000000000000000000, 1.000000000000000000, 0.0000000000000000000 ) ) ;
#185 = CARTESIAN_POINT ( 'NONE',  ( -5.009326287108706300E-010, -24.99999999650043500, 0.0000000000000000000 ) ) ;
#186 = AXIS2_PLACEMENT_3D ( 'NONE', #185, #184, #183 ) ;
#187 = CIRCLE ( 'NONE', #186, 2.500000000000001300 ) ;
#188 = DIRECTION ( 'NONE',  ( 0.0000000000000000000, 0.0000000000000000000, 1.000000000000000000 ) ) ;
#189 = DIRECTION ( 'NONE',  ( 0.0000000000000000000, 1.000000000000000000, 0.0000000000000000000 ) ) ;
#190 = CARTESIAN_POINT ( 'NONE',  ( -5.009326287108706300E-010, -24.99999999650043500, 0.0000000000000000000 ) ) ;
#191 = AXIS2_PLACEMENT_3D ( 'NONE', #190, #189, #188 ) ;
#192 = CIRCLE ( 'NONE', #191, 16.00000000000000000 ) ;
#193 = DIRECTION ( 'NONE',  ( 0.0000000000000000000, 0.0000000000000000000, 1.000000000000000000 ) ) ;
#194 = DIRECTION ( 'NONE',  ( 0.0000000000000000000, 1.000000000000000000, 0.0000000000000000000 ) ) ;
#195 = CARTESIAN_POINT ( 'NONE',  ( -5.009326287108706300E-010, -24.99999999650043500, 0.0000000000000000000 ) ) ;
#196 = AXIS2_PLACEMENT_3D ( 'NONE', #195, #194, #193 ) ;
#197 = CIRCLE ( 'NONE', #196, 2.500000000000001300 ) ;
#198 = DIRECTION ( 'NONE',  ( 0.0000000000000000000, 0.0000000000000000000, 1.000000000000000000 ) ) ;
#199 = DIRECTION ( 'NONE',  ( 0.0000000000000000000, 1.000000000000000000, 0.0000000000000000000 ) ) ;
#200 = CARTESIAN_POINT ( 'NONE',  ( 2.499999999499068700, -24.99999999650043500, 0.0000000000000000000 ) ) ;
#201 = AXIS2_PLACEMENT_3D ( 'NONE', #200, #199, #198 ) ;
#202 = PLANE ( 'NONE',  #201 ) ;
#203 = FACE_BOUND ( 'NONE', #35, .T. ) ;
#204 = DIRECTION ( 'NONE',  ( 0.0000000000000000000, 0.0000000000000000000, 1.000000000000000000 ) ) ;
#205 = DIRECTION ( 'NONE',  ( 0.0000000000000000000, 1.000000000000000000, 0.0000000000000000000 ) ) ;
#206 = CARTESIAN_POINT ( 'NONE',  ( -5.009326287108706300E-010, 2.412507003500041800, 0.0000000000000000000 ) ) ;
#207 = AXIS2_PLACEMENT_3D ( 'NONE', #206, #205, #204 ) ;
#208 = FACE_OUTER_BOUND ( 'NONE', #50, .T. ) ;
#209 = PRODUCT_DEFINITION_SHAPE ( 'NONE', 'NONE',  #262 ) ;
#210 = PRODUCT_RELATED_PRODUCT_CATEGORY ( 'detail', '', ( #271 ) ) ;
#211 = CC_DESIGN_SECURITY_CLASSIFICATION ( #352, ( #371 ) ) ;
#212 = CC_DESIGN_APPROVAL ( #340, ( #352 ) ) ;
#213 = APPROVAL_DATE_TIME ( #214, #340 ) ;
#214 = DATE_AND_TIME ( #215, #216 ) ;
#215 = CALENDAR_DATE ( 2009, 29, 6 ) ;
#216 = LOCAL_TIME ( 14, 2, 14.00000000000000000, #217 ) ;
#217 = COORDINATED_UNIVERSAL_TIME_OFFSET ( 9, 0, .AHEAD. ) ;
#218 = APPROVAL_PERSON_ORGANIZATION ( #342, #340, #219 ) ;
#219 = APPROVAL_ROLE ( '' ) ;
#220 = PLANE ( 'NONE',  #304 ) ;
#221 = DIRECTION ( 'NONE',  ( 0.0000000000000000000, 0.0000000000000000000, 1.000000000000000000 ) ) ;
#222 = DIRECTION ( 'NONE',  ( 0.0000000000000000000, 1.000000000000000000, 0.0000000000000000000 ) ) ;
#223 = CARTESIAN_POINT ( 'NONE',  ( -5.009326287108706300E-010, 2.412507003500041800, 0.0000000000000000000 ) ) ;
#224 = AXIS2_PLACEMENT_3D ( 'NONE', #223, #222, #221 ) ;
#225 = FACE_OUTER_BOUND ( 'NONE', #103, .T. ) ;
#226 = FACE_BOUND ( 'NONE', #89, .T. ) ;
#227 = CYLINDRICAL_SURFACE ( 'NONE', #224, 2.500000000000000400 ) ;
#228 = FACE_OUTER_BOUND ( 'NONE', #105, .T. ) ;
#229 = CARTESIAN_POINT ( 'NONE',  ( -5.009326287108706300E-010, -8.999999996500434900, 2.499999999999999600 ) ) ;
#230 = DIRECTION ( 'NONE',  ( 0.0000000000000000000, 0.0000000000000000000, 1.000000000000000000 ) ) ;
#231 = DIRECTION ( 'NONE',  ( 0.0000000000000000000, 1.000000000000000000, 0.0000000000000000000 ) ) ;
#232 = AXIS2_PLACEMENT_3D ( 'NONE', #238, #231, #230 ) ;
#233 = CIRCLE ( 'NONE', #232, 2.499999999999999600 ) ;
#234 = DIRECTION ( 'NONE',  ( 0.0000000000000000000, 0.0000000000000000000, 1.000000000000000000 ) ) ;
#235 = DIRECTION ( 'NONE',  ( 0.0000000000000000000, 1.000000000000000000, 0.0000000000000000000 ) ) ;
#236 = CARTESIAN_POINT ( 'NONE',  ( -5.009326287108706300E-010, 2.412507003500041800, 0.0000000000000000000 ) ) ;
#237 = AXIS2_PLACEMENT_3D ( 'NONE', #236, #235, #234 ) ;
#238 = CARTESIAN_POINT ( 'NONE',  ( -5.009326287108706300E-010, -8.999999996500434900, 0.0000000000000000000 ) ) ;
#239 = CYLINDRICAL_SURFACE ( 'NONE', #237, 2.500000000000000400 ) ;
#240 = FACE_OUTER_BOUND ( 'NONE', #77, .T. ) ;
#241 = DIRECTION ( 'NONE',  ( 0.0000000000000000000, -0.9968152785361249500, -0.07974522228289000800 ) ) ;
#242 = VECTOR ( 'NONE', #241, 1000.000000000000200 ) ;
#243 = CARTESIAN_POINT ( 'NONE',  ( -5.009326287108706300E-010, -24.99999999650043500, -16.00000000000000000 ) ) ;
#244 = LINE ( 'NONE', #243, #242 ) ;
#245 = CARTESIAN_POINT ( 'NONE',  ( -5.009326287108706300E-010, -8.999999996500434900, 7.000000000000000000 ) ) ;
#246 = CARTESIAN_POINT ( 'NONE',  ( -5.009317714864229600E-010, -8.999999996500434900, -7.000000000000000000 ) ) ;
#247 = DIRECTION ( 'NONE',  ( 0.0000000000000000000, 0.0000000000000000000, 1.000000000000000000 ) ) ;
#248 = DIRECTION ( 'NONE',  ( 0.0000000000000000000, 1.000000000000000000, 0.0000000000000000000 ) ) ;
#249 = CARTESIAN_POINT ( 'NONE',  ( -5.009326287108706300E-010, -8.999999996500434900, 0.0000000000000000000 ) ) ;
#250 = AXIS2_PLACEMENT_3D ( 'NONE', #249, #248, #247 ) ;
#251 = CIRCLE ( 'NONE', #250, 7.000000000000000000 ) ;
#252 = APPROVAL_DATE_TIME ( #253, #259 ) ;
#253 = DATE_AND_TIME ( #254, #255 ) ;
#254 = CALENDAR_DATE ( 2009, 29, 6 ) ;
#255 = LOCAL_TIME ( 14, 2, 14.00000000000000000, #256 ) ;
#256 = COORDINATED_UNIVERSAL_TIME_OFFSET ( 9, 0, .AHEAD. ) ;
#257 = APPROVAL_PERSON_ORGANIZATION ( #261, #259, #258 ) ;
#258 = APPROVAL_ROLE ( '' ) ;
#259 = APPROVAL ( #260, 'UNSPECIFIED' ) ;
#260 = APPROVAL_STATUS ( 'not_yet_approved' ) ;
#261 = PERSON_AND_ORGANIZATION ( #270, #269 ) ;
#262 = PRODUCT_DEFINITION ( 'UNKNOWN', '', #371, #263 ) ;
#263 = DESIGN_CONTEXT ( 'detailed design', #265, 'design' ) ;
#264 = APPLICATION_PROTOCOL_DEFINITION ( 'international standard', 'config_control_design', 1994, #265 ) ;
#265 = APPLICATION_CONTEXT ( 'configuration controlled 3d designs of mechanical parts and assemblies' ) ;
#266 = CC_DESIGN_PERSON_AND_ORGANIZATION_ASSIGNMENT ( #268, #267, ( #271 ) ) ;
#267 = PERSON_AND_ORGANIZATION_ROLE ( 'design_owner' ) ;
#268 = PERSON_AND_ORGANIZATION ( #270, #269 ) ;
#269 = ORGANIZATION ( 'UNSPECIFIED', 'UNSPECIFIED', '' ) ;
#270 = PERSON ( 'UNSPECIFIED', 'UNSPECIFIED', 'UNSPECIFIED', ('UNSPECIFIED'), ('UNSPECIFIED'), ('UNSPECIFIED') ) ;
#271 = PRODUCT ( 'C-30-RK-3225-gray', 'C-30-RK-3225-gray', '', ( #272 ) ) ;
#272 = MECHANICAL_CONTEXT ( 'NONE', #274, 'mechanical' ) ;
#273 = APPLICATION_PROTOCOL_DEFINITION ( 'international standard', 'config_control_design', 1994, #274 ) ;
#274 = APPLICATION_CONTEXT ( 'configuration controlled 3d designs of mechanical parts and assemblies' ) ;
#275 =( NAMED_UNIT ( * ) PLANE_ANGLE_UNIT ( ) SI_UNIT ( $, .RADIAN. ) );
#276 =( LENGTH_UNIT ( ) NAMED_UNIT ( * ) SI_UNIT ( .MILLI., .METRE. ) );
#277 = CARTESIAN_POINT ( 'NONE',  ( 0.0000000000000000000, 0.0000000000000000000, 0.0000000000000000000 ) ) ;
#278 = DIRECTION ( 'NONE',  ( 0.0000000000000000000, 0.0000000000000000000, 1.000000000000000000 ) ) ;
#279 = DIRECTION ( 'NONE',  ( 0.0000000000000000000, 1.000000000000000000, 0.0000000000000000000 ) ) ;
#280 = CARTESIAN_POINT ( 'NONE',  ( -5.009326287108706300E-010, -1.499999996500434900, 0.0000000000000000000 ) ) ;
#281 = AXIS2_PLACEMENT_3D ( 'NONE', #280, #279, #278 ) ;
#282 = TOROIDAL_SURFACE ( 'NONE', #281, 12.61520765552186600, 1.500000000000000000 ) ;
#283 = FACE_OUTER_BOUND ( 'NONE', #124, .T. ) ;
#284 = DIRECTION ( 'NONE',  ( 0.0000000000000000000, 0.0000000000000000000, -1.000000000000000000 ) ) ;
#285 = DIRECTION ( 'NONE',  ( 0.0000000000000000000, -1.000000000000000000, 0.0000000000000000000 ) ) ;
#286 = CARTESIAN_POINT ( 'NONE',  ( 12.61520765502093300, 3.499565220943523500E-009, 0.0000000000000000000 ) ) ;
#287 = AXIS2_PLACEMENT_3D ( 'NONE', #286, #285, #284 ) ;
#288 = PLANE ( 'NONE',  #287 ) ;
#289 = FACE_OUTER_BOUND ( 'NONE', #42, .T. ) ;
#290 = FACE_BOUND ( 'NONE', #15, .T. ) ;
#291 = DIRECTION ( 'NONE',  ( 0.0000000000000000000, 0.0000000000000000000, 1.000000000000000000 ) ) ;
#292 = DIRECTION ( 'NONE',  ( 0.0000000000000000000, 1.000000000000000000, 0.0000000000000000000 ) ) ;
#293 = CARTESIAN_POINT ( 'NONE',  ( -5.009326287108706300E-010, -8.999999996500434900, 0.0000000000000000000 ) ) ;
#294 = AXIS2_PLACEMENT_3D ( 'NONE', #293, #292, #291 ) ;
#295 = CIRCLE ( 'NONE', #294, 7.000000000000000000 ) ;
#296 = DIRECTION ( 'NONE',  ( 0.0000000000000000000, 0.0000000000000000000, 1.000000000000000000 ) ) ;
#297 = DIRECTION ( 'NONE',  ( -1.000000000000000000, 0.0000000000000000000, 0.0000000000000000000 ) ) ;
#298 = CARTESIAN_POINT ( 'NONE',  ( -5.009326287108706300E-010, -1.499999996500434900, 12.61520765552186600 ) ) ;
#299 = AXIS2_PLACEMENT_3D ( 'NONE', #298, #297, #296 ) ;
#300 = CIRCLE ( 'NONE', #299, 1.499999999999999600 ) ;
#301 = DIRECTION ( 'NONE',  ( 0.0000000000000000000, 0.0000000000000000000, -1.000000000000000000 ) ) ;
#302 = DIRECTION ( 'NONE',  ( 0.0000000000000000000, -1.000000000000000000, 0.0000000000000000000 ) ) ;
#303 = CARTESIAN_POINT ( 'NONE',  ( 6.999999999499067400, -8.999999996500434900, 0.0000000000000000000 ) ) ;
#304 = AXIS2_PLACEMENT_3D ( 'NONE', #303, #302, #301 ) ;
#305 = CYLINDRICAL_SURFACE ( 'NONE', #207, 7.000000000000000000 ) ;
#306 = FACE_OUTER_BOUND ( 'NONE', #19, .T. ) ;
#307 = DIRECTION ( 'NONE',  ( 0.0000000000000000000, 0.0000000000000000000, 1.000000000000000000 ) ) ;
#308 = DIRECTION ( 'NONE',  ( 0.0000000000000000000, 1.000000000000000000, 0.0000000000000000000 ) ) ;
#309 = CARTESIAN_POINT ( 'NONE',  ( -5.009326287108706300E-010, -8.999999996500434900, 0.0000000000000000000 ) ) ;
#310 = AXIS2_PLACEMENT_3D ( 'NONE', #309, #308, #307 ) ;
#311 = CIRCLE ( 'NONE', #310, 2.499999999999999600 ) ;
#312 = DIRECTION ( 'NONE',  ( 0.0000000000000000000, 0.0000000000000000000, 1.000000000000000000 ) ) ;
#313 = DIRECTION ( 'NONE',  ( 0.0000000000000000000, 1.000000000000000000, 0.0000000000000000000 ) ) ;
#314 = CARTESIAN_POINT ( 'NONE',  ( -5.009326287108706300E-010, 3.499565220943523500E-009, 0.0000000000000000000 ) ) ;
#315 = AXIS2_PLACEMENT_3D ( 'NONE', #314, #313, #312 ) ;
#316 = CIRCLE ( 'NONE', #315, 12.61520765552186600 ) ;
#317 = DIRECTION ( 'NONE',  ( 0.0000000000000000000, 0.0000000000000000000, 1.000000000000000000 ) ) ;
#318 = DIRECTION ( 'NONE',  ( 0.0000000000000000000, 1.000000000000000000, 0.0000000000000000000 ) ) ;
#319 = CARTESIAN_POINT ( 'NONE',  ( -5.009326287108706300E-010, -1.380382163076099700, 0.0000000000000000000 ) ) ;
#320 = AXIS2_PLACEMENT_3D ( 'NONE', #319, #318, #317 ) ;
#321 = CIRCLE ( 'NONE', #320, 14.11043057332605400 ) ;
#322 = DIRECTION ( 'NONE',  ( 0.0000000000000000000, 0.0000000000000000000, 1.000000000000000000 ) ) ;
#323 = DIRECTION ( 'NONE',  ( 0.0000000000000000000, 1.000000000000000000, 0.0000000000000000000 ) ) ;
#324 = CARTESIAN_POINT ( 'NONE',  ( -5.009326287108706300E-010, 2.412507003500041800, 0.0000000000000000000 ) ) ;
#325 = AXIS2_PLACEMENT_3D ( 'NONE', #324, #323, #322 ) ;
#326 = CYLINDRICAL_SURFACE ( 'NONE', #325, 7.000000000000000000 ) ;
#327 = FACE_OUTER_BOUND ( 'NONE', #68, .T. ) ;
#328 = DIRECTION ( 'NONE',  ( 0.0000000000000000000, 1.000000000000000000, 0.0000000000000000000 ) ) ;
#329 = VECTOR ( 'NONE', #328, 1000.000000000000000 ) ;
#330 = CARTESIAN_POINT ( 'NONE',  ( -5.009326287108706300E-010, 2.412507003500041800, 2.500000000000000400 ) ) ;
#331 = LINE ( 'NONE', #330, #329 ) ;
#332 = DIRECTION ( 'NONE',  ( 1.000000000000000000, 0.0000000000000000000, 0.0000000000000000000 ) ) ;
#333 = DIRECTION ( 'NONE',  ( 0.0000000000000000000, 0.0000000000000000000, 1.000000000000000000 ) ) ;
#334 = AXIS2_PLACEMENT_3D ( 'NONE', #277, #333, #332 ) ;
#335 = SHAPE_DEFINITION_REPRESENTATION ( #209, #336 ) ;
#336 = ADVANCED_BREP_SHAPE_REPRESENTATION ( 'C-30-RK-3225-gray', ( #1, #334 ), #337 ) ;
#337 =( GEOMETRIC_REPRESENTATION_CONTEXT ( 3 ) GLOBAL_UNCERTAINTY_ASSIGNED_CONTEXT ( ( #338 ) ) GLOBAL_UNIT_ASSIGNED_CONTEXT ( ( #276, #275, #339 ) ) REPRESENTATION_CONTEXT ( 'NONE', 'WORKASPACE' ) );
#338 = UNCERTAINTY_MEASURE_WITH_UNIT (LENGTH_MEASURE( 1.000000000000000100E-005 ), #276, 'distance_accuracy_value', 'NONE');
#339 =( NAMED_UNIT ( * ) SI_UNIT ( $, .STERADIAN. ) SOLID_ANGLE_UNIT ( ) );
#340 = APPROVAL ( #341, 'UNSPECIFIED' ) ;
#341 = APPROVAL_STATUS ( 'not_yet_approved' ) ;
#342 = PERSON_AND_ORGANIZATION ( #270, #269 ) ;
#343 = CC_DESIGN_DATE_AND_TIME_ASSIGNMENT ( #345, #344, ( #352 ) ) ;
#344 = DATE_TIME_ROLE ( 'classification_date' ) ;
#345 = DATE_AND_TIME ( #346, #347 ) ;
#346 = CALENDAR_DATE ( 2009, 29, 6 ) ;
#347 = LOCAL_TIME ( 14, 2, 14.00000000000000000, #348 ) ;
#348 = COORDINATED_UNIVERSAL_TIME_OFFSET ( 9, 0, .AHEAD. ) ;
#349 = CC_DESIGN_PERSON_AND_ORGANIZATION_ASSIGNMENT ( #351, #350, ( #352 ) ) ;
#350 = PERSON_AND_ORGANIZATION_ROLE ( 'classification_officer' ) ;
#351 = PERSON_AND_ORGANIZATION ( #270, #269 ) ;
#352 = SECURITY_CLASSIFICATION ( '', '', #353 ) ;
#353 = SECURITY_CLASSIFICATION_LEVEL ( 'unclassified' ) ;
#354 = CC_DESIGN_PERSON_AND_ORGANIZATION_ASSIGNMENT ( #356, #355, ( #371 ) ) ;
#355 = PERSON_AND_ORGANIZATION_ROLE ( 'design_supplier' ) ;
#356 = PERSON_AND_ORGANIZATION ( #270, #269 ) ;
#357 = CC_DESIGN_PERSON_AND_ORGANIZATION_ASSIGNMENT ( #359, #358, ( #371 ) ) ;
#358 = PERSON_AND_ORGANIZATION_ROLE ( 'creator' ) ;
#359 = PERSON_AND_ORGANIZATION ( #270, #269 ) ;
#360 = CC_DESIGN_APPROVAL ( #368, ( #371 ) ) ;
#361 = APPROVAL_DATE_TIME ( #362, #368 ) ;
#362 = DATE_AND_TIME ( #363, #364 ) ;
#363 = CALENDAR_DATE ( 2009, 29, 6 ) ;
#364 = LOCAL_TIME ( 14, 2, 14.00000000000000000, #365 ) ;
#365 = COORDINATED_UNIVERSAL_TIME_OFFSET ( 9, 0, .AHEAD. ) ;
#366 = APPROVAL_PERSON_ORGANIZATION ( #370, #368, #367 ) ;
#367 = APPROVAL_ROLE ( '' ) ;
#368 = APPROVAL ( #369, 'UNSPECIFIED' ) ;
#369 = APPROVAL_STATUS ( 'not_yet_approved' ) ;
#370 = PERSON_AND_ORGANIZATION ( #270, #269 ) ;
#371 = PRODUCT_DEFINITION_FORMATION_WITH_SPECIFIED_SOURCE ( 'ANY', '', #271, .NOT_KNOWN. ) ;
#372 = CC_DESIGN_DATE_AND_TIME_ASSIGNMENT ( #374, #373, ( #262 ) ) ;
#373 = DATE_TIME_ROLE ( 'creation_date' ) ;
#374 = DATE_AND_TIME ( #375, #376 ) ;
#375 = CALENDAR_DATE ( 2009, 29, 6 ) ;
#376 = LOCAL_TIME ( 14, 2, 14.00000000000000000, #377 ) ;
#377 = COORDINATED_UNIVERSAL_TIME_OFFSET ( 9, 0, .AHEAD. ) ;
#378 = CC_DESIGN_PERSON_AND_ORGANIZATION_ASSIGNMENT ( #380, #379, ( #262 ) ) ;
#379 = PERSON_AND_ORGANIZATION_ROLE ( 'creator' ) ;
#380 = PERSON_AND_ORGANIZATION ( #270, #269 ) ;
#381 = CC_DESIGN_APPROVAL ( #259, ( #262 ) ) ;
ENDSEC;
END-ISO-10303-21;
