ISO-10303-21;
HEADER;
FILE_DESCRIPTION (( 'STEP AP203' ),
    '1' );
FILE_NAME ('C-30-RK-3225.STEP',
    '2009-06-26T07:57:11',
    ( '11sw' ),
    ( '^LQ»¢®ïÐ' ),
    'SwSTEP 2.0',
    'SolidWorks 2007',
    '' );
FILE_SCHEMA (( 'CONFIG_CONTROL_DESIGN' ));
ENDSEC;

DATA;
#1 = ORIENTED_EDGE ( 'NONE', *, *, #70, .T. ) ;
#2 = ORIENTED_EDGE ( 'NONE', *, *, #15, .T. ) ;
#3 = EDGE_LOOP ( 'NONE', ( #2, #1 ) ) ;
#4 = EDGE_LOOP ( 'NONE', ( #7, #8 ) ) ;
#5 = ADVANCED_FACE ( 'NONE', ( #96, #95 ), #124, .F. ) ;
#6 = EDGE_CURVE ( 'NONE', #51, #76, #127, .T. ) ;
#7 = ORIENTED_EDGE ( 'NONE', *, *, #6, .F. ) ;
#8 = ORIENTED_EDGE ( 'NONE', *, *, #75, .F. ) ;
#9 = ORIENTED_EDGE ( 'NONE', *, *, #119, .T. ) ;
#10 = ORIENTED_EDGE ( 'NONE', *, *, #20, .T. ) ;
#11 = ORIENTED_EDGE ( 'NONE', *, *, #98, .F. ) ;
#12 = EDGE_LOOP ( 'NONE', ( #11, #13, #9, #10 ) ) ;
#13 = ORIENTED_EDGE ( 'NONE', *, *, #15, .F. ) ;
#14 = ADVANCED_FACE ( 'NONE', ( #128 ), #140, .F. ) ;
#15 = EDGE_CURVE ( 'NONE', #73, #59, #135, .T. ) ;
#16 = ORIENTED_EDGE ( 'NONE', *, *, #24, .T. ) ;
#17 = ORIENTED_EDGE ( 'NONE', *, *, #35, .T. ) ;
#18 = ADVANCED_FACE ( 'NONE', ( #136, #107 ), #106, .F. ) ;
#19 = EDGE_LOOP ( 'NONE', ( #17, #16 ) ) ;
#20 = EDGE_CURVE ( 'NONE', #117, #99, #101, .T. ) ;
#21 = EDGE_CURVE ( 'NONE', #81, #80, #301, .T. ) ;
#22 = ORIENTED_EDGE ( 'NONE', *, *, #34, .T. ) ;
#23 = EDGE_LOOP ( 'NONE', ( #26, #27 ) ) ;
#24 = EDGE_CURVE ( 'NONE', #36, #33, #296, .T. ) ;
#25 = ORIENTED_EDGE ( 'NONE', *, *, #24, .F. ) ;
#26 = ORIENTED_EDGE ( 'NONE', *, *, #20, .F. ) ;
#27 = ORIENTED_EDGE ( 'NONE', *, *, #116, .F. ) ;
#28 = ORIENTED_EDGE ( 'NONE', *, *, #21, .T. ) ;
#29 = ORIENTED_EDGE ( 'NONE', *, *, #130, .F. ) ;
#30 = EDGE_LOOP ( 'NONE', ( #29, #28, #22, #25 ) ) ;
#31 = ADVANCED_FACE ( 'NONE', ( #291 ), #290, .T. ) ;
#32 = ORIENTED_EDGE ( 'NONE', *, *, #34, .F. ) ;
#33 = VERTEX_POINT ( 'NONE', #285 ) ;
#34 = EDGE_CURVE ( 'NONE', #80, #33, #284, .T. ) ;
#35 = EDGE_CURVE ( 'NONE', #33, #36, #279, .T. ) ;
#36 = VERTEX_POINT ( 'NONE', #274 ) ;
#37 = ORIENTED_EDGE ( 'NONE', *, *, #35, .F. ) ;
#38 = ADVANCED_FACE ( 'NONE', ( #273 ), #272, .F. ) ;
#39 = EDGE_LOOP ( 'NONE', ( #40, #41, #43, #44 ) ) ;
#40 = ORIENTED_EDGE ( 'NONE', *, *, #77, .F. ) ;
#41 = ORIENTED_EDGE ( 'NONE', *, *, #42, .F. ) ;
#42 = EDGE_CURVE ( 'NONE', #53, #54, #267, .T. ) ;
#43 = ORIENTED_EDGE ( 'NONE', *, *, #67, .T. ) ;
#44 = ORIENTED_EDGE ( 'NONE', *, *, #6, .T. ) ;
#45 = ADVANCED_FACE ( 'NONE', ( #262, #261 ), #260, .F. ) ;
#46 = EDGE_LOOP ( 'NONE', ( #47, #49 ) ) ;
#47 = ORIENTED_EDGE ( 'NONE', *, *, #48, .F. ) ;
#48 = EDGE_CURVE ( 'NONE', #90, #85, #255, .T. ) ;
#49 = ORIENTED_EDGE ( 'NONE', *, *, #89, .F. ) ;
#50 = ADVANCED_FACE ( 'NONE', ( #250 ), #249, .T. ) ;
#51 = VERTEX_POINT ( 'NONE', #244 ) ;
#52 = ORIENTED_EDGE ( 'NONE', *, *, #77, .T. ) ;
#53 = VERTEX_POINT ( 'NONE', #243 ) ;
#54 = VERTEX_POINT ( 'NONE', #242 ) ;
#55 = EDGE_CURVE ( 'NONE', #54, #53, #241, .T. ) ;
#56 = EDGE_LOOP ( 'NONE', ( #57, #58 ) ) ;
#57 = ORIENTED_EDGE ( 'NONE', *, *, #42, .T. ) ;
#58 = ORIENTED_EDGE ( 'NONE', *, *, #55, .T. ) ;
#59 = VERTEX_POINT ( 'NONE', #236 ) ;
#60 = ADVANCED_FACE ( 'NONE', ( #235 ), #233, .T. ) ;
#61 = EDGE_LOOP ( 'NONE', ( #62, #63, #64, #65 ) ) ;
#62 = ORIENTED_EDGE ( 'NONE', *, *, #92, .F. ) ;
#63 = ORIENTED_EDGE ( 'NONE', *, *, #21, .F. ) ;
#64 = ORIENTED_EDGE ( 'NONE', *, *, #84, .T. ) ;
#65 = ORIENTED_EDGE ( 'NONE', *, *, #48, .T. ) ;
#66 = CLOSED_SHELL ( 'NONE', ( #50, #82, #68, #141, #31, #18, #14, #5, #38, #45, #60 ) ) ;
#67 = EDGE_CURVE ( 'NONE', #53, #51, #229, .T. ) ;
#68 = ADVANCED_FACE ( 'NONE', ( #225 ), #223, .F. ) ;
#69 = ORIENTED_EDGE ( 'NONE', *, *, #70, .F. ) ;
#70 = EDGE_CURVE ( 'NONE', #59, #73, #218, .T. ) ;
#71 = ORIENTED_EDGE ( 'NONE', *, *, #67, .F. ) ;
#72 = EDGE_LOOP ( 'NONE', ( #69, #97, #115, #118 ) ) ;
#73 = VERTEX_POINT ( 'NONE', #214 ) ;
#74 = ORIENTED_EDGE ( 'NONE', *, *, #75, .T. ) ;
#75 = EDGE_CURVE ( 'NONE', #76, #51, #213, .T. ) ;
#76 = VERTEX_POINT ( 'NONE', #208 ) ;
#77 = EDGE_CURVE ( 'NONE', #54, #76, #207, .T. ) ;
#78 = ORIENTED_EDGE ( 'NONE', *, *, #55, .F. ) ;
#79 = EDGE_CURVE ( 'NONE', #80, #81, #203, .T. ) ;
#80 = VERTEX_POINT ( 'NONE', #198 ) ;
#81 = VERTEX_POINT ( 'NONE', #197 ) ;
#82 = ADVANCED_FACE ( 'NONE', ( #196 ), #194, .F. ) ;
#83 = EDGE_LOOP ( 'NONE', ( #78, #52, #74, #71 ) ) ;
#84 = EDGE_CURVE ( 'NONE', #81, #90, #190, .T. ) ;
#85 = VERTEX_POINT ( 'NONE', #186 ) ;
#86 = ORIENTED_EDGE ( 'NONE', *, *, #79, .F. ) ;
#87 = MANIFOLD_SOLID_BREP ( 'NONE', #66 ) ;
#88 = ORIENTED_EDGE ( 'NONE', *, *, #89, .T. ) ;
#89 = EDGE_CURVE ( 'NONE', #85, #90, #185, .T. ) ;
#90 = VERTEX_POINT ( 'NONE', #180 ) ;
#91 = ORIENTED_EDGE ( 'NONE', *, *, #84, .F. ) ;
#92 = EDGE_CURVE ( 'NONE', #80, #85, #179, .T. ) ;
#93 = ORIENTED_EDGE ( 'NONE', *, *, #92, .T. ) ;
#94 = EDGE_LOOP ( 'NONE', ( #86, #93, #88, #91 ) ) ;
#95 = FACE_OUTER_BOUND ( 'NONE', #3, .T. ) ;
#96 = FACE_BOUND ( 'NONE', #4, .T. ) ;
#97 = ORIENTED_EDGE ( 'NONE', *, *, #98, .T. ) ;
#98 = EDGE_CURVE ( 'NONE', #59, #99, #175, .T. ) ;
#99 = VERTEX_POINT ( 'NONE', #171 ) ;
#100 = AXIS2_PLACEMENT_3D ( 'NONE', #304, #303, #302 ) ;
#101 = CIRCLE ( 'NONE', #100, 7.000000000000000000 ) ;
#102 = DIRECTION ( 'NONE',  ( 0.0000000000000000000, 0.0000000000000000000, -1.000000000000000000 ) ) ;
#103 = DIRECTION ( 'NONE',  ( 0.0000000000000000000, -1.000000000000000000, 0.0000000000000000000 ) ) ;
#104 = CARTESIAN_POINT ( 'NONE',  ( 12.61520765502093300, 3.499565220943523500E-009, 0.0000000000000000000 ) ) ;
#105 = AXIS2_PLACEMENT_3D ( 'NONE', #104, #103, #102 ) ;
#106 = PLANE ( 'NONE',  #105 ) ;
#107 = FACE_OUTER_BOUND ( 'NONE', #19, .T. ) ;
#108 = EDGE_LOOP ( 'NONE', ( #114, #129, #37, #32 ) ) ;
#109 = CARTESIAN_POINT ( 'NONE',  ( -5.009326287108706300E-010, 2.412507003500041800, 0.0000000000000000000 ) ) ;
#110 = DIRECTION ( 'NONE',  ( 0.0000000000000000000, 0.0000000000000000000, 1.000000000000000000 ) ) ;
#111 = DIRECTION ( 'NONE',  ( 0.0000000000000000000, 1.000000000000000000, 0.0000000000000000000 ) ) ;
#112 = CARTESIAN_POINT ( 'NONE',  ( -5.009326287108706300E-010, -8.999999996500434900, 0.0000000000000000000 ) ) ;
#113 = AXIS2_PLACEMENT_3D ( 'NONE', #112, #111, #110 ) ;
#114 = ORIENTED_EDGE ( 'NONE', *, *, #79, .T. ) ;
#115 = ORIENTED_EDGE ( 'NONE', *, *, #116, .T. ) ;
#116 = EDGE_CURVE ( 'NONE', #99, #117, #170, .T. ) ;
#117 = VERTEX_POINT ( 'NONE', #165 ) ;
#118 = ORIENTED_EDGE ( 'NONE', *, *, #119, .F. ) ;
#119 = EDGE_CURVE ( 'NONE', #73, #117, #164, .T. ) ;
#120 = DIRECTION ( 'NONE',  ( 0.0000000000000000000, 0.0000000000000000000, -1.000000000000000000 ) ) ;
#121 = DIRECTION ( 'NONE',  ( 0.0000000000000000000, -1.000000000000000000, 0.0000000000000000000 ) ) ;
#122 = CARTESIAN_POINT ( 'NONE',  ( 6.999999999499067400, -8.999999996500434900, 0.0000000000000000000 ) ) ;
#123 = AXIS2_PLACEMENT_3D ( 'NONE', #122, #121, #120 ) ;
#124 = PLANE ( 'NONE',  #123 ) ;
#125 =( LENGTH_UNIT ( ) NAMED_UNIT ( * ) SI_UNIT ( .MILLI., .METRE. ) );
#126 = CARTESIAN_POINT ( 'NONE',  ( 0.0000000000000000000, 0.0000000000000000000, 0.0000000000000000000 ) ) ;
#127 = CIRCLE ( 'NONE', #113, 2.499999999999999600 ) ;
#128 = FACE_OUTER_BOUND ( 'NONE', #12, .T. ) ;
#129 = ORIENTED_EDGE ( 'NONE', *, *, #130, .T. ) ;
#130 = EDGE_CURVE ( 'NONE', #81, #36, #160, .T. ) ;
#131 = DIRECTION ( 'NONE',  ( 0.0000000000000000000, 0.0000000000000000000, 1.000000000000000000 ) ) ;
#132 = DIRECTION ( 'NONE',  ( 0.0000000000000000000, 1.000000000000000000, 0.0000000000000000000 ) ) ;
#133 = CARTESIAN_POINT ( 'NONE',  ( -5.009326287108706300E-010, -8.999999996500434900, 0.0000000000000000000 ) ) ;
#134 = AXIS2_PLACEMENT_3D ( 'NONE', #133, #132, #131 ) ;
#135 = CIRCLE ( 'NONE', #134, 7.000000000000000000 ) ;
#136 = FACE_BOUND ( 'NONE', #23, .T. ) ;
#137 = DIRECTION ( 'NONE',  ( 0.0000000000000000000, 0.0000000000000000000, 1.000000000000000000 ) ) ;
#138 = DIRECTION ( 'NONE',  ( 0.0000000000000000000, 1.000000000000000000, 0.0000000000000000000 ) ) ;
#139 = AXIS2_PLACEMENT_3D ( 'NONE', #109, #138, #137 ) ;
#140 = CYLINDRICAL_SURFACE ( 'NONE', #139, 7.000000000000000000 ) ;
#141 = ADVANCED_FACE ( 'NONE', ( #155 ), #154, .T. ) ;
#142 = DIRECTION ( 'NONE',  ( 1.000000000000000000, 0.0000000000000000000, 0.0000000000000000000 ) ) ;
#143 = DIRECTION ( 'NONE',  ( 0.0000000000000000000, 0.0000000000000000000, 1.000000000000000000 ) ) ;
#144 = AXIS2_PLACEMENT_3D ( 'NONE', #126, #143, #142 ) ;
#145 = ADVANCED_BREP_SHAPE_REPRESENTATION ( 'C-30-RK-3225', ( #87, #144 ), #146 ) ;
#146 =( GEOMETRIC_REPRESENTATION_CONTEXT ( 3 ) GLOBAL_UNCERTAINTY_ASSIGNED_CONTEXT ( ( #147 ) ) GLOBAL_UNIT_ASSIGNED_CONTEXT ( ( #125, #149, #148 ) ) REPRESENTATION_CONTEXT ( 'NONE', 'WORKASPACE' ) );
#147 = UNCERTAINTY_MEASURE_WITH_UNIT (LENGTH_MEASURE( 1.000000000000000100E-005 ), #125, 'distance_accuracy_value', 'NONE');
#148 =( NAMED_UNIT ( * ) SI_UNIT ( $, .STERADIAN. ) SOLID_ANGLE_UNIT ( ) );
#149 =( NAMED_UNIT ( * ) PLANE_ANGLE_UNIT ( ) SI_UNIT ( $, .RADIAN. ) );
#150 = DIRECTION ( 'NONE',  ( 0.0000000000000000000, 0.0000000000000000000, 1.000000000000000000 ) ) ;
#151 = DIRECTION ( 'NONE',  ( 0.0000000000000000000, 1.000000000000000000, 0.0000000000000000000 ) ) ;
#152 = CARTESIAN_POINT ( 'NONE',  ( -5.009326287108706300E-010, -1.499999996500434900, 0.0000000000000000000 ) ) ;
#153 = AXIS2_PLACEMENT_3D ( 'NONE', #152, #151, #150 ) ;
#154 = TOROIDAL_SURFACE ( 'NONE', #153, 12.61520765552186600, 1.500000000000000000 ) ;
#155 = FACE_OUTER_BOUND ( 'NONE', #108, .T. ) ;
#156 = DIRECTION ( 'NONE',  ( 1.224606353612351200E-016, 0.0000000000000000000, -1.000000000000000000 ) ) ;
#157 = DIRECTION ( 'NONE',  ( 1.000000000000000000, 0.0000000000000000000, 1.224606353822377300E-016 ) ) ;
#158 = CARTESIAN_POINT ( 'NONE',  ( -5.009310838445256900E-010, -1.499999996500434900, -12.61520765552186600 ) ) ;
#159 = AXIS2_PLACEMENT_3D ( 'NONE', #158, #157, #156 ) ;
#160 = CIRCLE ( 'NONE', #159, 1.499999999999999600 ) ;
#161 = DIRECTION ( 'NONE',  ( 0.0000000000000000000, 1.000000000000000000, 0.0000000000000000000 ) ) ;
#162 = VECTOR ( 'NONE', #161, 1000.000000000000000 ) ;
#163 = CARTESIAN_POINT ( 'NONE',  ( -5.009326287108706300E-010, 2.412507003500041800, 7.000000000000000000 ) ) ;
#164 = LINE ( 'NONE', #163, #162 ) ;
#165 = CARTESIAN_POINT ( 'NONE',  ( -5.009326287108706300E-010, 3.499565220943523500E-009, 7.000000000000000000 ) ) ;
#166 = DIRECTION ( 'NONE',  ( 0.0000000000000000000, 0.0000000000000000000, 1.000000000000000000 ) ) ;
#167 = DIRECTION ( 'NONE',  ( 0.0000000000000000000, 1.000000000000000000, 0.0000000000000000000 ) ) ;
#168 = CARTESIAN_POINT ( 'NONE',  ( -5.009326287108706300E-010, 3.499565220943523500E-009, 0.0000000000000000000 ) ) ;
#169 = AXIS2_PLACEMENT_3D ( 'NONE', #168, #167, #166 ) ;
#170 = CIRCLE ( 'NONE', #169, 7.000000000000000000 ) ;
#171 = CARTESIAN_POINT ( 'NONE',  ( -5.009317714864229600E-010, 3.499565220943523500E-009, -7.000000000000000000 ) ) ;
#172 = DIRECTION ( 'NONE',  ( 0.0000000000000000000, 1.000000000000000000, 0.0000000000000000000 ) ) ;
#173 = VECTOR ( 'NONE', #172, 1000.000000000000000 ) ;
#174 = CARTESIAN_POINT ( 'NONE',  ( -5.009317714864229600E-010, 2.412507003500041800, -7.000000000000000000 ) ) ;
#175 = LINE ( 'NONE', #174, #173 ) ;
#176 = DIRECTION ( 'NONE',  ( 9.765650589460492700E-018, -0.9968152785361249500, 0.07974522228289000800 ) ) ;
#177 = VECTOR ( 'NONE', #176, 1000.000000000000000 ) ;
#178 = CARTESIAN_POINT ( 'NONE',  ( -5.009306693407045200E-010, -24.99999999650043500, 16.00000000000000000 ) ) ;
#179 = LINE ( 'NONE', #178, #177 ) ;
#180 = CARTESIAN_POINT ( 'NONE',  ( -5.009326287108706300E-010, -24.99999999650043500, -16.00000000000000000 ) ) ;
#181 = DIRECTION ( 'NONE',  ( 0.0000000000000000000, 0.0000000000000000000, 1.000000000000000000 ) ) ;
#182 = DIRECTION ( 'NONE',  ( 0.0000000000000000000, 1.000000000000000000, 0.0000000000000000000 ) ) ;
#183 = CARTESIAN_POINT ( 'NONE',  ( -5.009326287108706300E-010, -24.99999999650043500, 0.0000000000000000000 ) ) ;
#184 = AXIS2_PLACEMENT_3D ( 'NONE', #183, #182, #181 ) ;
#185 = CIRCLE ( 'NONE', #184, 16.00000000000000000 ) ;
#186 = CARTESIAN_POINT ( 'NONE',  ( -5.009306693407045200E-010, -24.99999999650043500, 16.00000000000000000 ) ) ;
#187 = DIRECTION ( 'NONE',  ( 0.0000000000000000000, -0.9968152785361249500, -0.07974522228289000800 ) ) ;
#188 = VECTOR ( 'NONE', #187, 1000.000000000000000 ) ;
#189 = CARTESIAN_POINT ( 'NONE',  ( -5.009326287108706300E-010, -24.99999999650043500, -16.00000000000000000 ) ) ;
#190 = LINE ( 'NONE', #189, #188 ) ;
#191 = DIRECTION ( 'NONE',  ( 0.0000000000000000000, 0.0000000000000000000, 1.000000000000000000 ) ) ;
#192 = DIRECTION ( 'NONE',  ( 0.0000000000000000000, 1.000000000000000000, 0.0000000000000000000 ) ) ;
#193 = AXIS2_PLACEMENT_3D ( 'NONE', #195, #192, #191 ) ;
#194 = CYLINDRICAL_SURFACE ( 'NONE', #193, 2.500000000000000400 ) ;
#195 = CARTESIAN_POINT ( 'NONE',  ( -5.009326287108706300E-010, 2.412507003500041800, 0.0000000000000000000 ) ) ;
#196 = FACE_OUTER_BOUND ( 'NONE', #83, .T. ) ;
#197 = CARTESIAN_POINT ( 'NONE',  ( -5.009309007385771900E-010, -1.380382163076099700, -14.11043057332605400 ) ) ;
#198 = CARTESIAN_POINT ( 'NONE',  ( -5.009326287108706300E-010, -1.380382163076099700, 14.11043057332605400 ) ) ;
#199 = DIRECTION ( 'NONE',  ( 0.0000000000000000000, 0.0000000000000000000, 1.000000000000000000 ) ) ;
#200 = DIRECTION ( 'NONE',  ( 0.0000000000000000000, 1.000000000000000000, 0.0000000000000000000 ) ) ;
#201 = CARTESIAN_POINT ( 'NONE',  ( -5.009326287108706300E-010, -1.380382163076099700, 0.0000000000000000000 ) ) ;
#202 = AXIS2_PLACEMENT_3D ( 'NONE', #201, #200, #199 ) ;
#203 = CIRCLE ( 'NONE', #202, 14.11043057332605400 ) ;
#204 = DIRECTION ( 'NONE',  ( 0.0000000000000000000, 1.000000000000000000, 0.0000000000000000000 ) ) ;
#205 = VECTOR ( 'NONE', #204, 1000.000000000000000 ) ;
#206 = CARTESIAN_POINT ( 'NONE',  ( -5.009323225592821800E-010, 2.412507003500041800, -2.500000000000000400 ) ) ;
#207 = LINE ( 'NONE', #206, #205 ) ;
#208 = CARTESIAN_POINT ( 'NONE',  ( -5.009323225592821800E-010, -8.999999996500434900, -2.499999999999999600 ) ) ;
#209 = DIRECTION ( 'NONE',  ( 0.0000000000000000000, 0.0000000000000000000, 1.000000000000000000 ) ) ;
#210 = DIRECTION ( 'NONE',  ( 0.0000000000000000000, 1.000000000000000000, 0.0000000000000000000 ) ) ;
#211 = CARTESIAN_POINT ( 'NONE',  ( -5.009326287108706300E-010, -8.999999996500434900, 0.0000000000000000000 ) ) ;
#212 = AXIS2_PLACEMENT_3D ( 'NONE', #211, #210, #209 ) ;
#213 = CIRCLE ( 'NONE', #212, 2.499999999999999600 ) ;
#214 = CARTESIAN_POINT ( 'NONE',  ( -5.009326287108706300E-010, -8.999999996500434900, 7.000000000000000000 ) ) ;
#215 = DIRECTION ( 'NONE',  ( 0.0000000000000000000, 0.0000000000000000000, 1.000000000000000000 ) ) ;
#216 = DIRECTION ( 'NONE',  ( 0.0000000000000000000, 1.000000000000000000, 0.0000000000000000000 ) ) ;
#217 = AXIS2_PLACEMENT_3D ( 'NONE', #224, #216, #215 ) ;
#218 = CIRCLE ( 'NONE', #217, 7.000000000000000000 ) ;
#219 = DIRECTION ( 'NONE',  ( 0.0000000000000000000, 0.0000000000000000000, 1.000000000000000000 ) ) ;
#220 = DIRECTION ( 'NONE',  ( 0.0000000000000000000, 1.000000000000000000, 0.0000000000000000000 ) ) ;
#221 = CARTESIAN_POINT ( 'NONE',  ( -5.009326287108706300E-010, 2.412507003500041800, 0.0000000000000000000 ) ) ;
#222 = AXIS2_PLACEMENT_3D ( 'NONE', #221, #220, #219 ) ;
#223 = CYLINDRICAL_SURFACE ( 'NONE', #222, 7.000000000000000000 ) ;
#224 = CARTESIAN_POINT ( 'NONE',  ( -5.009326287108706300E-010, -8.999999996500434900, 0.0000000000000000000 ) ) ;
#225 = FACE_OUTER_BOUND ( 'NONE', #72, .T. ) ;
#226 = DIRECTION ( 'NONE',  ( 0.0000000000000000000, 1.000000000000000000, 0.0000000000000000000 ) ) ;
#227 = VECTOR ( 'NONE', #226, 1000.000000000000000 ) ;
#228 = CARTESIAN_POINT ( 'NONE',  ( -5.009326287108706300E-010, 2.412507003500041800, 2.500000000000000400 ) ) ;
#229 = LINE ( 'NONE', #228, #227 ) ;
#230 = DIRECTION ( 'NONE',  ( 0.0000000000000000000, 0.0000000000000000000, -1.000000000000000000 ) ) ;
#231 = DIRECTION ( 'NONE',  ( 0.0000000000000000000, -1.000000000000000000, 0.0000000000000000000 ) ) ;
#232 = AXIS2_PLACEMENT_3D ( 'NONE', #234, #231, #230 ) ;
#233 = CONICAL_SURFACE ( 'NONE', #232, 16.00000000000000000, 0.07982998571223734500 ) ;
#234 = CARTESIAN_POINT ( 'NONE',  ( -5.009326287108706300E-010, -24.99999999650043500, 0.0000000000000000000 ) ) ;
#235 = FACE_OUTER_BOUND ( 'NONE', #61, .T. ) ;
#236 = CARTESIAN_POINT ( 'NONE',  ( -5.009317714864229600E-010, -8.999999996500434900, -7.000000000000000000 ) ) ;
#237 = DIRECTION ( 'NONE',  ( 0.0000000000000000000, 0.0000000000000000000, 1.000000000000000000 ) ) ;
#238 = DIRECTION ( 'NONE',  ( 0.0000000000000000000, 1.000000000000000000, 0.0000000000000000000 ) ) ;
#239 = CARTESIAN_POINT ( 'NONE',  ( -5.009326287108706300E-010, -24.99999999650043500, 0.0000000000000000000 ) ) ;
#240 = AXIS2_PLACEMENT_3D ( 'NONE', #239, #238, #237 ) ;
#241 = CIRCLE ( 'NONE', #240, 2.500000000000001300 ) ;
#242 = CARTESIAN_POINT ( 'NONE',  ( -5.009323225592821800E-010, -24.99999999650043500, -2.500000000000001300 ) ) ;
#243 = CARTESIAN_POINT ( 'NONE',  ( -5.009326287108706300E-010, -24.99999999650043500, 2.500000000000001300 ) ) ;
#244 = CARTESIAN_POINT ( 'NONE',  ( -5.009326287108706300E-010, -8.999999996500434900, 2.499999999999999600 ) ) ;
#245 = DIRECTION ( 'NONE',  ( 0.0000000000000000000, 0.0000000000000000000, -1.000000000000000000 ) ) ;
#246 = DIRECTION ( 'NONE',  ( 0.0000000000000000000, -1.000000000000000000, 0.0000000000000000000 ) ) ;
#247 = CARTESIAN_POINT ( 'NONE',  ( -5.009326287108706300E-010, -24.99999999650043500, 0.0000000000000000000 ) ) ;
#248 = AXIS2_PLACEMENT_3D ( 'NONE', #247, #246, #245 ) ;
#249 = CONICAL_SURFACE ( 'NONE', #248, 16.00000000000000000, 0.07982998571223734500 ) ;
#250 = FACE_OUTER_BOUND ( 'NONE', #94, .T. ) ;
#251 = DIRECTION ( 'NONE',  ( 0.0000000000000000000, 0.0000000000000000000, 1.000000000000000000 ) ) ;
#252 = DIRECTION ( 'NONE',  ( 0.0000000000000000000, 1.000000000000000000, 0.0000000000000000000 ) ) ;
#253 = CARTESIAN_POINT ( 'NONE',  ( -5.009326287108706300E-010, -24.99999999650043500, 0.0000000000000000000 ) ) ;
#254 = AXIS2_PLACEMENT_3D ( 'NONE', #253, #252, #251 ) ;
#255 = CIRCLE ( 'NONE', #254, 16.00000000000000000 ) ;
#256 = DIRECTION ( 'NONE',  ( 0.0000000000000000000, 0.0000000000000000000, 1.000000000000000000 ) ) ;
#257 = DIRECTION ( 'NONE',  ( 0.0000000000000000000, 1.000000000000000000, 0.0000000000000000000 ) ) ;
#258 = CARTESIAN_POINT ( 'NONE',  ( 2.499999999499068700, -24.99999999650043500, 0.0000000000000000000 ) ) ;
#259 = AXIS2_PLACEMENT_3D ( 'NONE', #258, #257, #256 ) ;
#260 = PLANE ( 'NONE',  #259 ) ;
#261 = FACE_BOUND ( 'NONE', #56, .T. ) ;
#262 = FACE_OUTER_BOUND ( 'NONE', #46, .T. ) ;
#263 = DIRECTION ( 'NONE',  ( 0.0000000000000000000, 0.0000000000000000000, 1.000000000000000000 ) ) ;
#264 = DIRECTION ( 'NONE',  ( 0.0000000000000000000, 1.000000000000000000, 0.0000000000000000000 ) ) ;
#265 = CARTESIAN_POINT ( 'NONE',  ( -5.009326287108706300E-010, -24.99999999650043500, 0.0000000000000000000 ) ) ;
#266 = AXIS2_PLACEMENT_3D ( 'NONE', #265, #264, #263 ) ;
#267 = CIRCLE ( 'NONE', #266, 2.500000000000001300 ) ;
#268 = DIRECTION ( 'NONE',  ( 0.0000000000000000000, 0.0000000000000000000, 1.000000000000000000 ) ) ;
#269 = DIRECTION ( 'NONE',  ( 0.0000000000000000000, 1.000000000000000000, 0.0000000000000000000 ) ) ;
#270 = CARTESIAN_POINT ( 'NONE',  ( -5.009326287108706300E-010, 2.412507003500041800, 0.0000000000000000000 ) ) ;
#271 = AXIS2_PLACEMENT_3D ( 'NONE', #270, #269, #268 ) ;
#272 = CYLINDRICAL_SURFACE ( 'NONE', #271, 2.500000000000000400 ) ;
#273 = FACE_OUTER_BOUND ( 'NONE', #39, .T. ) ;
#274 = CARTESIAN_POINT ( 'NONE',  ( -5.009309922915514900E-010, 3.499565220943523500E-009, -12.61520765552186600 ) ) ;
#275 = DIRECTION ( 'NONE',  ( 0.0000000000000000000, 0.0000000000000000000, 1.000000000000000000 ) ) ;
#276 = DIRECTION ( 'NONE',  ( 0.0000000000000000000, 1.000000000000000000, 0.0000000000000000000 ) ) ;
#277 = CARTESIAN_POINT ( 'NONE',  ( -5.009326287108706300E-010, 3.499565220943523500E-009, 0.0000000000000000000 ) ) ;
#278 = AXIS2_PLACEMENT_3D ( 'NONE', #277, #276, #275 ) ;
#279 = CIRCLE ( 'NONE', #278, 12.61520765552186600 ) ;
#280 = DIRECTION ( 'NONE',  ( 0.0000000000000000000, 0.0000000000000000000, 1.000000000000000000 ) ) ;
#281 = DIRECTION ( 'NONE',  ( -1.000000000000000000, 0.0000000000000000000, 0.0000000000000000000 ) ) ;
#282 = CARTESIAN_POINT ( 'NONE',  ( -5.009326287108706300E-010, -1.499999996500434900, 12.61520765552186600 ) ) ;
#283 = AXIS2_PLACEMENT_3D ( 'NONE', #282, #281, #280 ) ;
#284 = CIRCLE ( 'NONE', #283, 1.499999999999999600 ) ;
#285 = CARTESIAN_POINT ( 'NONE',  ( -5.009326287108706300E-010, 3.499565220943523500E-009, 12.61520765552186600 ) ) ;
#286 = DIRECTION ( 'NONE',  ( 0.0000000000000000000, 0.0000000000000000000, 1.000000000000000000 ) ) ;
#287 = DIRECTION ( 'NONE',  ( 0.0000000000000000000, 1.000000000000000000, 0.0000000000000000000 ) ) ;
#288 = CARTESIAN_POINT ( 'NONE',  ( -5.009326287108706300E-010, -1.499999996500434900, 0.0000000000000000000 ) ) ;
#289 = AXIS2_PLACEMENT_3D ( 'NONE', #288, #287, #286 ) ;
#290 = TOROIDAL_SURFACE ( 'NONE', #289, 12.61520765552186600, 1.500000000000000000 ) ;
#291 = FACE_OUTER_BOUND ( 'NONE', #30, .T. ) ;
#292 = DIRECTION ( 'NONE',  ( 0.0000000000000000000, 0.0000000000000000000, 1.000000000000000000 ) ) ;
#293 = DIRECTION ( 'NONE',  ( 0.0000000000000000000, 1.000000000000000000, 0.0000000000000000000 ) ) ;
#294 = CARTESIAN_POINT ( 'NONE',  ( -5.009326287108706300E-010, 3.499565220943523500E-009, 0.0000000000000000000 ) ) ;
#295 = AXIS2_PLACEMENT_3D ( 'NONE', #294, #293, #292 ) ;
#296 = CIRCLE ( 'NONE', #295, 12.61520765552186600 ) ;
#297 = DIRECTION ( 'NONE',  ( 0.0000000000000000000, 0.0000000000000000000, 1.000000000000000000 ) ) ;
#298 = DIRECTION ( 'NONE',  ( 0.0000000000000000000, 1.000000000000000000, 0.0000000000000000000 ) ) ;
#299 = CARTESIAN_POINT ( 'NONE',  ( -5.009326287108706300E-010, -1.380382163076099700, 0.0000000000000000000 ) ) ;
#300 = AXIS2_PLACEMENT_3D ( 'NONE', #299, #298, #297 ) ;
#301 = CIRCLE ( 'NONE', #300, 14.11043057332605400 ) ;
#302 = DIRECTION ( 'NONE',  ( 0.0000000000000000000, 0.0000000000000000000, 1.000000000000000000 ) ) ;
#303 = DIRECTION ( 'NONE',  ( 0.0000000000000000000, 1.000000000000000000, 0.0000000000000000000 ) ) ;
#304 = CARTESIAN_POINT ( 'NONE',  ( -5.009326287108706300E-010, 3.499565220943523500E-009, 0.0000000000000000000 ) ) ;
#305 = PRODUCT_DEFINITION_SHAPE ( 'NONE', 'NONE',  #368 ) ;
#306 = PRODUCT_RELATED_PRODUCT_CATEGORY ( 'detail', '', ( #377 ) ) ;
#307 = CC_DESIGN_SECURITY_CLASSIFICATION ( #328, ( #347 ) ) ;
#308 = CC_DESIGN_APPROVAL ( #316, ( #328 ) ) ;
#309 = APPROVAL_DATE_TIME ( #310, #316 ) ;
#310 = DATE_AND_TIME ( #311, #312 ) ;
#311 = CALENDAR_DATE ( 2009, 26, 6 ) ;
#312 = LOCAL_TIME ( 16, 57, 11.00000000000000000, #313 ) ;
#313 = COORDINATED_UNIVERSAL_TIME_OFFSET ( 9, 0, .AHEAD. ) ;
#314 = APPROVAL_PERSON_ORGANIZATION ( #318, #316, #315 ) ;
#315 = APPROVAL_ROLE ( '' ) ;
#316 = APPROVAL ( #317, 'UNSPECIFIED' ) ;
#317 = APPROVAL_STATUS ( 'not_yet_approved' ) ;
#318 = PERSON_AND_ORGANIZATION ( #376, #375 ) ;
#319 = CC_DESIGN_DATE_AND_TIME_ASSIGNMENT ( #321, #320, ( #328 ) ) ;
#320 = DATE_TIME_ROLE ( 'classification_date' ) ;
#321 = DATE_AND_TIME ( #322, #323 ) ;
#322 = CALENDAR_DATE ( 2009, 26, 6 ) ;
#323 = LOCAL_TIME ( 16, 57, 11.00000000000000000, #324 ) ;
#324 = COORDINATED_UNIVERSAL_TIME_OFFSET ( 9, 0, .AHEAD. ) ;
#325 = CC_DESIGN_PERSON_AND_ORGANIZATION_ASSIGNMENT ( #327, #326, ( #328 ) ) ;
#326 = PERSON_AND_ORGANIZATION_ROLE ( 'classification_officer' ) ;
#327 = PERSON_AND_ORGANIZATION ( #376, #375 ) ;
#328 = SECURITY_CLASSIFICATION ( '', '', #329 ) ;
#329 = SECURITY_CLASSIFICATION_LEVEL ( 'unclassified' ) ;
#330 = CC_DESIGN_PERSON_AND_ORGANIZATION_ASSIGNMENT ( #332, #331, ( #347 ) ) ;
#331 = PERSON_AND_ORGANIZATION_ROLE ( 'design_supplier' ) ;
#332 = PERSON_AND_ORGANIZATION ( #376, #375 ) ;
#333 = CC_DESIGN_PERSON_AND_ORGANIZATION_ASSIGNMENT ( #335, #334, ( #347 ) ) ;
#334 = PERSON_AND_ORGANIZATION_ROLE ( 'creator' ) ;
#335 = PERSON_AND_ORGANIZATION ( #376, #375 ) ;
#336 = CC_DESIGN_APPROVAL ( #344, ( #347 ) ) ;
#337 = APPROVAL_DATE_TIME ( #338, #344 ) ;
#338 = DATE_AND_TIME ( #339, #340 ) ;
#339 = CALENDAR_DATE ( 2009, 26, 6 ) ;
#340 = LOCAL_TIME ( 16, 57, 11.00000000000000000, #341 ) ;
#341 = COORDINATED_UNIVERSAL_TIME_OFFSET ( 9, 0, .AHEAD. ) ;
#342 = APPROVAL_PERSON_ORGANIZATION ( #346, #344, #343 ) ;
#343 = APPROVAL_ROLE ( '' ) ;
#344 = APPROVAL ( #345, 'UNSPECIFIED' ) ;
#345 = APPROVAL_STATUS ( 'not_yet_approved' ) ;
#346 = PERSON_AND_ORGANIZATION ( #376, #375 ) ;
#347 = PRODUCT_DEFINITION_FORMATION_WITH_SPECIFIED_SOURCE ( 'ANY', '', #377, .NOT_KNOWN. ) ;
#348 = CC_DESIGN_DATE_AND_TIME_ASSIGNMENT ( #350, #349, ( #368 ) ) ;
#349 = DATE_TIME_ROLE ( 'creation_date' ) ;
#350 = DATE_AND_TIME ( #351, #352 ) ;
#351 = CALENDAR_DATE ( 2009, 26, 6 ) ;
#352 = LOCAL_TIME ( 16, 57, 11.00000000000000000, #353 ) ;
#353 = COORDINATED_UNIVERSAL_TIME_OFFSET ( 9, 0, .AHEAD. ) ;
#354 = CC_DESIGN_PERSON_AND_ORGANIZATION_ASSIGNMENT ( #356, #355, ( #368 ) ) ;
#355 = PERSON_AND_ORGANIZATION_ROLE ( 'creator' ) ;
#356 = PERSON_AND_ORGANIZATION ( #376, #375 ) ;
#357 = CC_DESIGN_APPROVAL ( #365, ( #368 ) ) ;
#358 = APPROVAL_DATE_TIME ( #359, #365 ) ;
#359 = DATE_AND_TIME ( #360, #361 ) ;
#360 = CALENDAR_DATE ( 2009, 26, 6 ) ;
#361 = LOCAL_TIME ( 16, 57, 11.00000000000000000, #362 ) ;
#362 = COORDINATED_UNIVERSAL_TIME_OFFSET ( 9, 0, .AHEAD. ) ;
#363 = APPROVAL_PERSON_ORGANIZATION ( #367, #365, #364 ) ;
#364 = APPROVAL_ROLE ( '' ) ;
#365 = APPROVAL ( #366, 'UNSPECIFIED' ) ;
#366 = APPROVAL_STATUS ( 'not_yet_approved' ) ;
#367 = PERSON_AND_ORGANIZATION ( #376, #375 ) ;
#368 = PRODUCT_DEFINITION ( 'UNKNOWN', '', #347, #369 ) ;
#369 = DESIGN_CONTEXT ( 'detailed design', #371, 'design' ) ;
#370 = APPLICATION_PROTOCOL_DEFINITION ( 'international standard', 'config_control_design', 1994, #371 ) ;
#371 = APPLICATION_CONTEXT ( 'configuration controlled 3d designs of mechanical parts and assemblies' ) ;
#372 = CC_DESIGN_PERSON_AND_ORGANIZATION_ASSIGNMENT ( #374, #373, ( #377 ) ) ;
#373 = PERSON_AND_ORGANIZATION_ROLE ( 'design_owner' ) ;
#374 = PERSON_AND_ORGANIZATION ( #376, #375 ) ;
#375 = ORGANIZATION ( 'UNSPECIFIED', 'UNSPECIFIED', '' ) ;
#376 = PERSON ( 'UNSPECIFIED', 'UNSPECIFIED', 'UNSPECIFIED', ('UNSPECIFIED'), ('UNSPECIFIED'), ('UNSPECIFIED') ) ;
#377 = PRODUCT ( 'C-30-RK-3225', 'C-30-RK-3225', '', ( #378 ) ) ;
#378 = MECHANICAL_CONTEXT ( 'NONE', #380, 'mechanical' ) ;
#379 = APPLICATION_PROTOCOL_DEFINITION ( 'international standard', 'config_control_design', 1994, #380 ) ;
#380 = APPLICATION_CONTEXT ( 'configuration controlled 3d designs of mechanical parts and assemblies' ) ;
#381 = SHAPE_DEFINITION_REPRESENTATION ( #305, #145 ) ;
ENDSEC;
END-ISO-10303-21;
