ISO-10303-21;
HEADER;
FILE_DESCRIPTION (( 'STEP AP203' ),
    '1' );
FILE_NAME ('C-30-RK-3220.STEP',
    '2009-06-29T04:16:14',
    ( '11sw' ),
    ( '^LQ»¢®ïÐ' ),
    'SwSTEP 2.0',
    'SolidWorks 2007',
    '' );
FILE_SCHEMA (( 'CONFIG_CONTROL_DESIGN' ));
ENDSEC;

DATA;
#1 = PRODUCT_DEFINITION_SHAPE ( 'NONE', 'NONE',  #208 ) ;
#2 = SHAPE_DEFINITION_REPRESENTATION ( #1, #332 ) ;
#3 = PERSON_AND_ORGANIZATION_ROLE ( 'creator' ) ;
#4 = APPROVAL_STATUS ( 'not_yet_approved' ) ;
#5 = PERSON_AND_ORGANIZATION ( #66, #360 ) ;
#6 = CC_DESIGN_DATE_AND_TIME_ASSIGNMENT ( #8, #7, ( #15 ) ) ;
#7 = DATE_TIME_ROLE ( 'classification_date' ) ;
#8 = DATE_AND_TIME ( #9, #10 ) ;
#9 = CALENDAR_DATE ( 2009, 29, 6 ) ;
#10 = LOCAL_TIME ( 13, 16, 14.00000000000000000, #11 ) ;
#11 = COORDINATED_UNIVERSAL_TIME_OFFSET ( 9, 0, .AHEAD. ) ;
#12 = CC_DESIGN_PERSON_AND_ORGANIZATION_ASSIGNMENT ( #14, #13, ( #15 ) ) ;
#13 = PERSON_AND_ORGANIZATION_ROLE ( 'classification_officer' ) ;
#14 = PERSON_AND_ORGANIZATION ( #66, #360 ) ;
#15 = SECURITY_CLASSIFICATION ( '', '', #16 ) ;
#16 = SECURITY_CLASSIFICATION_LEVEL ( 'unclassified' ) ;
#17 = CC_DESIGN_PERSON_AND_ORGANIZATION_ASSIGNMENT ( #18, #30, ( #380 ) ) ;
#18 = PERSON_AND_ORGANIZATION ( #66, #360 ) ;
#19 = PRODUCT_RELATED_PRODUCT_CATEGORY ( 'detail', '', ( #341 ) ) ;
#20 = CC_DESIGN_SECURITY_CLASSIFICATION ( #15, ( #380 ) ) ;
#21 = CC_DESIGN_APPROVAL ( #29, ( #15 ) ) ;
#22 = APPROVAL_DATE_TIME ( #23, #29 ) ;
#23 = DATE_AND_TIME ( #24, #25 ) ;
#24 = CALENDAR_DATE ( 2009, 29, 6 ) ;
#25 = LOCAL_TIME ( 13, 16, 14.00000000000000000, #26 ) ;
#26 = COORDINATED_UNIVERSAL_TIME_OFFSET ( 9, 0, .AHEAD. ) ;
#27 = APPROVAL_PERSON_ORGANIZATION ( #5, #29, #28 ) ;
#28 = APPROVAL_ROLE ( '' ) ;
#29 = APPROVAL ( #4, 'UNSPECIFIED' ) ;
#30 = PERSON_AND_ORGANIZATION_ROLE ( 'design_supplier' ) ;
#31 = PERSON_AND_ORGANIZATION ( #66, #360 ) ;
#32 = CC_DESIGN_PERSON_AND_ORGANIZATION_ASSIGNMENT ( #31, #3, ( #380 ) ) ;
#33 = EDGE_CURVE ( 'NONE', #110, #46, #204, .T. ) ;
#34 = ORIENTED_EDGE ( 'NONE', *, *, #33, .F. ) ;
#35 = EDGE_LOOP ( 'NONE', ( #34, #101 ) ) ;
#36 = ADVANCED_FACE ( 'NONE', ( #230, #233 ), #232, .F. ) ;
#37 = EDGE_CURVE ( 'NONE', #49, #71, #272, .T. ) ;
#38 = ORIENTED_EDGE ( 'NONE', *, *, #40, .F. ) ;
#39 = ORIENTED_EDGE ( 'NONE', *, *, #74, .F. ) ;
#40 = EDGE_CURVE ( 'NONE', #71, #51, #268, .T. ) ;
#41 = EDGE_LOOP ( 'NONE', ( #80, #81 ) ) ;
#42 = ORIENTED_EDGE ( 'NONE', *, *, #45, .T. ) ;
#43 = VERTEX_POINT ( 'NONE', #151 ) ;
#44 = ORIENTED_EDGE ( 'NONE', *, *, #37, .F. ) ;
#45 = EDGE_CURVE ( 'NONE', #43, #46, #150, .T. ) ;
#46 = VERTEX_POINT ( 'NONE', #263 ) ;
#47 = ADVANCED_FACE ( 'NONE', ( #262 ), #259, .F. ) ;
#48 = ORIENTED_EDGE ( 'NONE', *, *, #84, .F. ) ;
#49 = VERTEX_POINT ( 'NONE', #260 ) ;
#50 = ORIENTED_EDGE ( 'NONE', *, *, #75, .F. ) ;
#51 = VERTEX_POINT ( 'NONE', #238 ) ;
#52 = EDGE_CURVE ( 'NONE', #72, #49, #237, .T. ) ;
#53 = ORIENTED_EDGE ( 'NONE', *, *, #69, .T. ) ;
#54 = VERTEX_POINT ( 'NONE', #130 ) ;
#55 = VERTEX_POINT ( 'NONE', #129 ) ;
#56 = VERTEX_POINT ( 'NONE', #128 ) ;
#57 = ORIENTED_EDGE ( 'NONE', *, *, #76, .T. ) ;
#58 = EDGE_CURVE ( 'NONE', #61, #55, #127, .T. ) ;
#59 = ORIENTED_EDGE ( 'NONE', *, *, #58, .T. ) ;
#60 = EDGE_CURVE ( 'NONE', #61, #54, #123, .T. ) ;
#61 = VERTEX_POINT ( 'NONE', #189 ) ;
#62 = ORIENTED_EDGE ( 'NONE', *, *, #60, .F. ) ;
#63 = MANIFOLD_SOLID_BREP ( 'NONE', #174 ) ;
#64 = EDGE_LOOP ( 'NONE', ( #62, #59, #57, #50 ) ) ;
#65 = ADVANCED_FACE ( 'NONE', ( #188 ), #185, .T. ) ;
#66 = PERSON ( 'UNSPECIFIED', 'UNSPECIFIED', 'UNSPECIFIED', ('UNSPECIFIED'), ('UNSPECIFIED'), ('UNSPECIFIED') ) ;
#67 = ADVANCED_FACE ( 'NONE', ( #186 ), #181, .F. ) ;
#68 = ORIENTED_EDGE ( 'NONE', *, *, #52, .F. ) ;
#69 = EDGE_CURVE ( 'NONE', #72, #51, #143, .T. ) ;
#70 = EDGE_LOOP ( 'NONE', ( #68, #53, #73, #44 ) ) ;
#71 = VERTEX_POINT ( 'NONE', #139 ) ;
#72 = VERTEX_POINT ( 'NONE', #138 ) ;
#73 = ORIENTED_EDGE ( 'NONE', *, *, #74, .T. ) ;
#74 = EDGE_CURVE ( 'NONE', #51, #71, #137, .T. ) ;
#75 = EDGE_CURVE ( 'NONE', #54, #56, #132, .T. ) ;
#76 = EDGE_CURVE ( 'NONE', #55, #56, #314, .T. ) ;
#77 = EDGE_LOOP ( 'NONE', ( #78, #168 ) ) ;
#78 = ORIENTED_EDGE ( 'NONE', *, *, #79, .F. ) ;
#79 = EDGE_CURVE ( 'NONE', #56, #55, #309, .T. ) ;
#80 = ORIENTED_EDGE ( 'NONE', *, *, #90, .T. ) ;
#81 = ORIENTED_EDGE ( 'NONE', *, *, #84, .T. ) ;
#82 = ADVANCED_FACE ( 'NONE', ( #304 ), #303, .F. ) ;
#83 = EDGE_LOOP ( 'NONE', ( #95, #87, #88, #85 ) ) ;
#84 = EDGE_CURVE ( 'NONE', #43, #176, #302, .T. ) ;
#85 = ORIENTED_EDGE ( 'NONE', *, *, #40, .T. ) ;
#86 = ADVANCED_FACE ( 'NONE', ( #293, #292 ), #290, .F. ) ;
#87 = ORIENTED_EDGE ( 'NONE', *, *, #96, .F. ) ;
#88 = ORIENTED_EDGE ( 'NONE', *, *, #37, .T. ) ;
#89 = EDGE_LOOP ( 'NONE', ( #48, #42, #108, #116 ) ) ;
#90 = EDGE_CURVE ( 'NONE', #176, #43, #225, .T. ) ;
#91 = ORIENTED_EDGE ( 'NONE', *, *, #117, .T. ) ;
#92 = ORIENTED_EDGE ( 'NONE', *, *, #33, .T. ) ;
#93 = ADVANCED_FACE ( 'NONE', ( #221, #220 ), #219, .F. ) ;
#94 = EDGE_LOOP ( 'NONE', ( #38, #39 ) ) ;
#95 = ORIENTED_EDGE ( 'NONE', *, *, #69, .F. ) ;
#96 = EDGE_CURVE ( 'NONE', #49, #72, #214, .T. ) ;
#97 = ORIENTED_EDGE ( 'NONE', *, *, #90, .F. ) ;
#98 = ORIENTED_EDGE ( 'NONE', *, *, #206, .T. ) ;
#99 = EDGE_LOOP ( 'NONE', ( #118, #97, #91, #92 ) ) ;
#100 = ADVANCED_FACE ( 'NONE', ( #209 ), #285, .T. ) ;
#101 = ORIENTED_EDGE ( 'NONE', *, *, #109, .F. ) ;
#102 = EDGE_LOOP ( 'NONE', ( #98, #103 ) ) ;
#103 = ORIENTED_EDGE ( 'NONE', *, *, #107, .T. ) ;
#104 = ADVANCED_FACE ( 'NONE', ( #279 ), #278, .F. ) ;
#105 = ORIENTED_EDGE ( 'NONE', *, *, #203, .T. ) ;
#106 = ORIENTED_EDGE ( 'NONE', *, *, #107, .F. ) ;
#107 = EDGE_CURVE ( 'NONE', #115, #200, #274, .T. ) ;
#108 = ORIENTED_EDGE ( 'NONE', *, *, #109, .T. ) ;
#109 = EDGE_CURVE ( 'NONE', #46, #110, #255, .T. ) ;
#110 = VERTEX_POINT ( 'NONE', #250 ) ;
#111 = EDGE_LOOP ( 'NONE', ( #112, #113, #205, #202 ) ) ;
#112 = ORIENTED_EDGE ( 'NONE', *, *, #60, .T. ) ;
#113 = ORIENTED_EDGE ( 'NONE', *, *, #114, .T. ) ;
#114 = EDGE_CURVE ( 'NONE', #54, #115, #249, .T. ) ;
#115 = VERTEX_POINT ( 'NONE', #244 ) ;
#116 = ORIENTED_EDGE ( 'NONE', *, *, #117, .F. ) ;
#117 = EDGE_CURVE ( 'NONE', #176, #110, #243, .T. ) ;
#118 = ORIENTED_EDGE ( 'NONE', *, *, #45, .F. ) ;
#119 = EDGE_CURVE ( 'NONE', #54, #61, #163, .T. ) ;
#120 = DIRECTION ( 'NONE',  ( 0.0000000000000000000, 1.000000000000000000, 0.0000000000000000000 ) ) ;
#121 = CARTESIAN_POINT ( 'NONE',  ( -5.009326287108706300E-010, -1.064574430337629200, 0.0000000000000000000 ) ) ;
#122 = AXIS2_PLACEMENT_3D ( 'NONE', #121, #120, #190 ) ;
#123 = CIRCLE ( 'NONE', #122, 13.15968616507557700 ) ;
#124 = DIRECTION ( 'NONE',  ( 1.816586611872670700E-017, -0.9889363528682976200, 0.1483404529302448100 ) ) ;
#125 = VECTOR ( 'NONE', #124, 999.9999999999998900 ) ;
#126 = CARTESIAN_POINT ( 'NONE',  ( -5.009306693407045200E-010, -19.99999999650043500, 16.00000000000000000 ) ) ;
#127 = LINE ( 'NONE', #126, #125 ) ;
#128 = CARTESIAN_POINT ( 'NONE',  ( -5.009326287108706300E-010, -19.99999999650043500, -16.00000000000000000 ) ) ;
#129 = CARTESIAN_POINT ( 'NONE',  ( -5.009306693407045200E-010, -19.99999999650043500, 16.00000000000000000 ) ) ;
#130 = CARTESIAN_POINT ( 'NONE',  ( -5.009310171673414400E-010, -1.064574430337629200, -13.15968616507557900 ) ) ;
#131 = DIRECTION ( 'NONE',  ( 0.0000000000000000000, 0.0000000000000000000, 1.000000000000000000 ) ) ;
#132 = LINE ( 'NONE', #317, #316 ) ;
#133 = DIRECTION ( 'NONE',  ( 0.0000000000000000000, 0.0000000000000000000, 1.000000000000000000 ) ) ;
#134 = DIRECTION ( 'NONE',  ( 0.0000000000000000000, 1.000000000000000000, 0.0000000000000000000 ) ) ;
#135 = CARTESIAN_POINT ( 'NONE',  ( -5.009326287108706300E-010, -9.999999996500434900, 0.0000000000000000000 ) ) ;
#136 = AXIS2_PLACEMENT_3D ( 'NONE', #135, #134, #133 ) ;
#137 = CIRCLE ( 'NONE', #136, 2.500000000000000000 ) ;
#138 = CARTESIAN_POINT ( 'NONE',  ( -5.009323225592821800E-010, -19.99999999650043500, -2.500000000000001800 ) ) ;
#139 = CARTESIAN_POINT ( 'NONE',  ( -5.009326287108706300E-010, -9.999999996500434900, 2.500000000000000000 ) ) ;
#140 = DIRECTION ( 'NONE',  ( 0.0000000000000000000, 1.000000000000000000, 0.0000000000000000000 ) ) ;
#141 = VECTOR ( 'NONE', #140, 1000.000000000000000 ) ;
#142 = CARTESIAN_POINT ( 'NONE',  ( -5.009323225592821800E-010, 2.412507003500041800, -2.500000000000000400 ) ) ;
#143 = LINE ( 'NONE', #142, #141 ) ;
#144 = DIRECTION ( 'NONE',  ( 0.0000000000000000000, 0.0000000000000000000, -1.000000000000000000 ) ) ;
#145 = DIRECTION ( 'NONE',  ( 0.0000000000000000000, -1.000000000000000000, 0.0000000000000000000 ) ) ;
#146 = CARTESIAN_POINT ( 'NONE',  ( 11.92351572348927400, 3.499565220943523500E-009, 0.0000000000000000000 ) ) ;
#147 = AXIS2_PLACEMENT_3D ( 'NONE', #146, #145, #144 ) ;
#148 = ADVANCED_FACE ( 'NONE', ( #158 ), #157, .T. ) ;
#149 = EDGE_LOOP ( 'NONE', ( #175, #170, #173, #231 ) ) ;
#150 = LINE ( 'NONE', #266, #265 ) ;
#151 = CARTESIAN_POINT ( 'NONE',  ( -5.009317102561052600E-010, -9.999999996500434900, -7.500000000000000000 ) ) ;
#152 = DIRECTION ( 'NONE',  ( 0.0000000000000000000, 0.0000000000000000000, 1.000000000000000000 ) ) ;
#153 = DIRECTION ( 'NONE',  ( 0.0000000000000000000, 1.000000000000000000, 0.0000000000000000000 ) ) ;
#154 = CARTESIAN_POINT ( 'NONE',  ( -5.009326287108706300E-010, -9.999999996500434900, 0.0000000000000000000 ) ) ;
#155 = AXIS2_PLACEMENT_3D ( 'NONE', #154, #153, #152 ) ;
#156 = AXIS2_PLACEMENT_3D ( 'NONE', #199, #198, #197 ) ;
#157 = CONICAL_SURFACE ( 'NONE', #156, 16.00000000000000000, 0.1488899476094973900 ) ;
#158 = FACE_OUTER_BOUND ( 'NONE', #149, .T. ) ;
#159 = DIRECTION ( 'NONE',  ( 0.0000000000000000000, 0.0000000000000000000, 1.000000000000000000 ) ) ;
#160 = DIRECTION ( 'NONE',  ( 0.0000000000000000000, 1.000000000000000000, 0.0000000000000000000 ) ) ;
#161 = CARTESIAN_POINT ( 'NONE',  ( -5.009326287108706300E-010, -1.064574430337629200, 0.0000000000000000000 ) ) ;
#162 = AXIS2_PLACEMENT_3D ( 'NONE', #161, #160, #159 ) ;
#163 = CIRCLE ( 'NONE', #162, 13.15968616507557700 ) ;
#164 = DIRECTION ( 'NONE',  ( 0.0000000000000000000, 1.000000000000000000, 0.0000000000000000000 ) ) ;
#165 = VECTOR ( 'NONE', #164, 1000.000000000000000 ) ;
#166 = AXIS2_PLACEMENT_3D ( 'NONE', #229, #228, #227 ) ;
#167 = ORIENTED_EDGE ( 'NONE', *, *, #119, .T. ) ;
#168 = ORIENTED_EDGE ( 'NONE', *, *, #76, .F. ) ;
#169 = ORIENTED_EDGE ( 'NONE', *, *, #52, .T. ) ;
#170 = ORIENTED_EDGE ( 'NONE', *, *, #119, .F. ) ;
#171 = EDGE_LOOP ( 'NONE', ( #226, #167, #105, #106 ) ) ;
#172 = ORIENTED_EDGE ( 'NONE', *, *, #96, .T. ) ;
#173 = ORIENTED_EDGE ( 'NONE', *, *, #75, .T. ) ;
#174 = CLOSED_SHELL ( 'NONE', ( #65, #67, #47, #100, #267, #36, #104, #93, #82, #86, #148 ) ) ;
#175 = ORIENTED_EDGE ( 'NONE', *, *, #58, .F. ) ;
#176 = VERTEX_POINT ( 'NONE', #196 ) ;
#177 = DIRECTION ( 'NONE',  ( 0.0000000000000000000, 0.0000000000000000000, 1.000000000000000000 ) ) ;
#178 = DIRECTION ( 'NONE',  ( 0.0000000000000000000, 1.000000000000000000, 0.0000000000000000000 ) ) ;
#179 = CARTESIAN_POINT ( 'NONE',  ( -5.009326287108706300E-010, 2.412507003500041800, 0.0000000000000000000 ) ) ;
#180 = AXIS2_PLACEMENT_3D ( 'NONE', #179, #178, #177 ) ;
#181 = CYLINDRICAL_SURFACE ( 'NONE', #180, 2.500000000000000400 ) ;
#182 = DIRECTION ( 'NONE',  ( 0.0000000000000000000, 0.0000000000000000000, -1.000000000000000000 ) ) ;
#183 = DIRECTION ( 'NONE',  ( 0.0000000000000000000, -1.000000000000000000, 0.0000000000000000000 ) ) ;
#184 = AXIS2_PLACEMENT_3D ( 'NONE', #187, #183, #182 ) ;
#185 = CONICAL_SURFACE ( 'NONE', #184, 16.00000000000000000, 0.1488899476094973900 ) ;
#186 = FACE_OUTER_BOUND ( 'NONE', #70, .T. ) ;
#187 = CARTESIAN_POINT ( 'NONE',  ( -5.009326287108706300E-010, -19.99999999650043500, 0.0000000000000000000 ) ) ;
#188 = FACE_OUTER_BOUND ( 'NONE', #64, .T. ) ;
#189 = CARTESIAN_POINT ( 'NONE',  ( -5.009326287108706300E-010, -1.064574430337629200, 13.15968616507557900 ) ) ;
#190 = DIRECTION ( 'NONE',  ( 0.0000000000000000000, 0.0000000000000000000, 1.000000000000000000 ) ) ;
#191 = DIRECTION ( 'NONE',  ( -1.000000000000000000, 0.0000000000000000000, 0.0000000000000000000 ) ) ;
#192 = CARTESIAN_POINT ( 'NONE',  ( -5.009326287108706300E-010, -1.249999996500434700, 11.92351572399020700 ) ) ;
#193 = AXIS2_PLACEMENT_3D ( 'NONE', #192, #191, #318 ) ;
#194 = CIRCLE ( 'NONE', #193, 1.249999999999999300 ) ;
#195 = CARTESIAN_POINT ( 'NONE',  ( -5.009326287108706300E-010, 3.499565220943523500E-009, 11.92351572399020700 ) ) ;
#196 = CARTESIAN_POINT ( 'NONE',  ( -5.009326287108706300E-010, -9.999999996500434900, 7.500000000000000000 ) ) ;
#197 = DIRECTION ( 'NONE',  ( 0.0000000000000000000, 0.0000000000000000000, -1.000000000000000000 ) ) ;
#198 = DIRECTION ( 'NONE',  ( 0.0000000000000000000, -1.000000000000000000, 0.0000000000000000000 ) ) ;
#199 = CARTESIAN_POINT ( 'NONE',  ( -5.009326287108706300E-010, -19.99999999650043500, 0.0000000000000000000 ) ) ;
#200 = VERTEX_POINT ( 'NONE', #195 ) ;
#201 = EDGE_LOOP ( 'NONE', ( #172, #169 ) ) ;
#202 = ORIENTED_EDGE ( 'NONE', *, *, #203, .F. ) ;
#203 = EDGE_CURVE ( 'NONE', #61, #200, #194, .T. ) ;
#204 = CIRCLE ( 'NONE', #166, 7.500000000000000000 ) ;
#205 = ORIENTED_EDGE ( 'NONE', *, *, #206, .F. ) ;
#206 = EDGE_CURVE ( 'NONE', #200, #115, #319, .T. ) ;
#207 = PERSON_AND_ORGANIZATION ( #66, #360 ) ;
#208 = PRODUCT_DEFINITION ( 'UNKNOWN', '', #380, #356 ) ;
#209 = FACE_OUTER_BOUND ( 'NONE', #111, .T. ) ;
#210 = DIRECTION ( 'NONE',  ( 0.0000000000000000000, 0.0000000000000000000, 1.000000000000000000 ) ) ;
#211 = DIRECTION ( 'NONE',  ( 0.0000000000000000000, 1.000000000000000000, 0.0000000000000000000 ) ) ;
#212 = CARTESIAN_POINT ( 'NONE',  ( -5.009326287108706300E-010, -19.99999999650043500, 0.0000000000000000000 ) ) ;
#213 = AXIS2_PLACEMENT_3D ( 'NONE', #212, #211, #210 ) ;
#214 = CIRCLE ( 'NONE', #213, 2.500000000000001300 ) ;
#215 = DIRECTION ( 'NONE',  ( 0.0000000000000000000, 0.0000000000000000000, -1.000000000000000000 ) ) ;
#216 = DIRECTION ( 'NONE',  ( 0.0000000000000000000, -1.000000000000000000, 0.0000000000000000000 ) ) ;
#217 = CARTESIAN_POINT ( 'NONE',  ( 7.499999999499067400, -9.999999996500434900, 0.0000000000000000000 ) ) ;
#218 = AXIS2_PLACEMENT_3D ( 'NONE', #217, #216, #215 ) ;
#219 = PLANE ( 'NONE',  #218 ) ;
#220 = FACE_OUTER_BOUND ( 'NONE', #41, .T. ) ;
#221 = FACE_BOUND ( 'NONE', #94, .T. ) ;
#222 = DIRECTION ( 'NONE',  ( 0.0000000000000000000, 0.0000000000000000000, 1.000000000000000000 ) ) ;
#223 = DIRECTION ( 'NONE',  ( 0.0000000000000000000, 1.000000000000000000, 0.0000000000000000000 ) ) ;
#224 = AXIS2_PLACEMENT_3D ( 'NONE', #291, #223, #222 ) ;
#225 = CIRCLE ( 'NONE', #224, 7.500000000000000000 ) ;
#226 = ORIENTED_EDGE ( 'NONE', *, *, #114, .F. ) ;
#227 = DIRECTION ( 'NONE',  ( 0.0000000000000000000, 0.0000000000000000000, 1.000000000000000000 ) ) ;
#228 = DIRECTION ( 'NONE',  ( 0.0000000000000000000, 1.000000000000000000, 0.0000000000000000000 ) ) ;
#229 = CARTESIAN_POINT ( 'NONE',  ( -5.009326287108706300E-010, 3.499565220943523500E-009, 0.0000000000000000000 ) ) ;
#230 = FACE_BOUND ( 'NONE', #35, .T. ) ;
#231 = ORIENTED_EDGE ( 'NONE', *, *, #79, .T. ) ;
#232 = PLANE ( 'NONE',  #147 ) ;
#233 = FACE_OUTER_BOUND ( 'NONE', #102, .T. ) ;
#234 = DIRECTION ( 'NONE',  ( 0.0000000000000000000, 1.000000000000000000, 0.0000000000000000000 ) ) ;
#235 = CARTESIAN_POINT ( 'NONE',  ( -5.009326287108706300E-010, -19.99999999650043500, 0.0000000000000000000 ) ) ;
#236 = AXIS2_PLACEMENT_3D ( 'NONE', #235, #234, #131 ) ;
#237 = CIRCLE ( 'NONE', #236, 2.500000000000001300 ) ;
#238 = CARTESIAN_POINT ( 'NONE',  ( -5.009323225592821800E-010, -9.999999996500434900, -2.500000000000000000 ) ) ;
#239 = DIRECTION ( 'NONE',  ( 0.0000000000000000000, 0.0000000000000000000, 1.000000000000000000 ) ) ;
#240 = DIRECTION ( 'NONE',  ( 0.0000000000000000000, 1.000000000000000000, 0.0000000000000000000 ) ) ;
#241 = AXIS2_PLACEMENT_3D ( 'NONE', #261, #240, #239 ) ;
#242 = CARTESIAN_POINT ( 'NONE',  ( -5.009326287108706300E-010, 2.412507003500041800, 7.500000000000000000 ) ) ;
#243 = LINE ( 'NONE', #242, #165 ) ;
#244 = CARTESIAN_POINT ( 'NONE',  ( -5.009310928584502400E-010, 3.499565220943523500E-009, -11.92351572399020700 ) ) ;
#245 = DIRECTION ( 'NONE',  ( 1.224606354016248500E-016, 0.0000000000000000000, -1.000000000000000000 ) ) ;
#246 = DIRECTION ( 'NONE',  ( 1.000000000000000000, 0.0000000000000000000, 1.224606353822377300E-016 ) ) ;
#247 = CARTESIAN_POINT ( 'NONE',  ( -5.009311685495590500E-010, -1.249999996500434700, -11.92351572399020700 ) ) ;
#248 = AXIS2_PLACEMENT_3D ( 'NONE', #247, #246, #245 ) ;
#249 = CIRCLE ( 'NONE', #248, 1.249999999999999300 ) ;
#250 = CARTESIAN_POINT ( 'NONE',  ( -5.009326287108706300E-010, 3.499565220943523500E-009, 7.500000000000000000 ) ) ;
#251 = DIRECTION ( 'NONE',  ( 0.0000000000000000000, 0.0000000000000000000, 1.000000000000000000 ) ) ;
#252 = DIRECTION ( 'NONE',  ( 0.0000000000000000000, 1.000000000000000000, 0.0000000000000000000 ) ) ;
#253 = CARTESIAN_POINT ( 'NONE',  ( -5.009326287108706300E-010, 3.499565220943523500E-009, 0.0000000000000000000 ) ) ;
#254 = AXIS2_PLACEMENT_3D ( 'NONE', #253, #252, #251 ) ;
#255 = CIRCLE ( 'NONE', #254, 7.500000000000000000 ) ;
#256 = DIRECTION ( 'NONE',  ( 0.0000000000000000000, 0.0000000000000000000, 1.000000000000000000 ) ) ;
#257 = DIRECTION ( 'NONE',  ( 0.0000000000000000000, 1.000000000000000000, 0.0000000000000000000 ) ) ;
#258 = AXIS2_PLACEMENT_3D ( 'NONE', #273, #257, #256 ) ;
#259 = CYLINDRICAL_SURFACE ( 'NONE', #241, 7.500000000000000000 ) ;
#260 = CARTESIAN_POINT ( 'NONE',  ( -5.009326287108706300E-010, -19.99999999650043500, 2.500000000000001300 ) ) ;
#261 = CARTESIAN_POINT ( 'NONE',  ( -5.009326287108706300E-010, 2.412507003500041800, 0.0000000000000000000 ) ) ;
#262 = FACE_OUTER_BOUND ( 'NONE', #89, .T. ) ;
#263 = CARTESIAN_POINT ( 'NONE',  ( -5.009317102561052600E-010, 3.499565220943523500E-009, -7.500000000000000000 ) ) ;
#264 = DIRECTION ( 'NONE',  ( 0.0000000000000000000, 1.000000000000000000, 0.0000000000000000000 ) ) ;
#265 = VECTOR ( 'NONE', #264, 1000.000000000000000 ) ;
#266 = CARTESIAN_POINT ( 'NONE',  ( -5.009317102561052600E-010, 2.412507003500041800, -7.500000000000000000 ) ) ;
#267 = ADVANCED_FACE ( 'NONE', ( #322 ), #326, .T. ) ;
#268 = CIRCLE ( 'NONE', #155, 2.500000000000000000 ) ;
#269 = DIRECTION ( 'NONE',  ( 0.0000000000000000000, 1.000000000000000000, 0.0000000000000000000 ) ) ;
#270 = VECTOR ( 'NONE', #269, 1000.000000000000000 ) ;
#271 = CARTESIAN_POINT ( 'NONE',  ( -5.009326287108706300E-010, 2.412507003500041800, 2.500000000000000400 ) ) ;
#272 = LINE ( 'NONE', #271, #270 ) ;
#273 = CARTESIAN_POINT ( 'NONE',  ( -5.009326287108706300E-010, 3.499565220943523500E-009, 0.0000000000000000000 ) ) ;
#274 = CIRCLE ( 'NONE', #258, 11.92351572399020700 ) ;
#275 = DIRECTION ( 'NONE',  ( 0.0000000000000000000, 0.0000000000000000000, 1.000000000000000000 ) ) ;
#276 = DIRECTION ( 'NONE',  ( 0.0000000000000000000, 1.000000000000000000, 0.0000000000000000000 ) ) ;
#277 = AXIS2_PLACEMENT_3D ( 'NONE', #284, #276, #275 ) ;
#278 = CYLINDRICAL_SURFACE ( 'NONE', #277, 7.500000000000000000 ) ;
#279 = FACE_OUTER_BOUND ( 'NONE', #99, .T. ) ;
#280 = DIRECTION ( 'NONE',  ( 0.0000000000000000000, 0.0000000000000000000, 1.000000000000000000 ) ) ;
#281 = DIRECTION ( 'NONE',  ( 0.0000000000000000000, 1.000000000000000000, 0.0000000000000000000 ) ) ;
#282 = CARTESIAN_POINT ( 'NONE',  ( -5.009326287108706300E-010, -1.249999996500434700, 0.0000000000000000000 ) ) ;
#283 = AXIS2_PLACEMENT_3D ( 'NONE', #282, #281, #280 ) ;
#284 = CARTESIAN_POINT ( 'NONE',  ( -5.009326287108706300E-010, 2.412507003500041800, 0.0000000000000000000 ) ) ;
#285 = TOROIDAL_SURFACE ( 'NONE', #283, 11.92351572399020700, 1.249999999999998900 ) ;
#286 = DIRECTION ( 'NONE',  ( 0.0000000000000000000, 0.0000000000000000000, 1.000000000000000000 ) ) ;
#287 = DIRECTION ( 'NONE',  ( 0.0000000000000000000, 1.000000000000000000, 0.0000000000000000000 ) ) ;
#288 = CARTESIAN_POINT ( 'NONE',  ( 2.499999999499068700, -19.99999999650043500, 0.0000000000000000000 ) ) ;
#289 = AXIS2_PLACEMENT_3D ( 'NONE', #288, #287, #286 ) ;
#290 = PLANE ( 'NONE',  #289 ) ;
#291 = CARTESIAN_POINT ( 'NONE',  ( -5.009326287108706300E-010, -9.999999996500434900, 0.0000000000000000000 ) ) ;
#292 = FACE_BOUND ( 'NONE', #201, .T. ) ;
#293 = FACE_OUTER_BOUND ( 'NONE', #77, .T. ) ;
#294 = DIRECTION ( 'NONE',  ( 0.0000000000000000000, 0.0000000000000000000, 1.000000000000000000 ) ) ;
#295 = DIRECTION ( 'NONE',  ( 0.0000000000000000000, 1.000000000000000000, 0.0000000000000000000 ) ) ;
#296 = CARTESIAN_POINT ( 'NONE',  ( -5.009326287108706300E-010, -9.999999996500434900, 0.0000000000000000000 ) ) ;
#297 = AXIS2_PLACEMENT_3D ( 'NONE', #296, #295, #294 ) ;
#298 = DIRECTION ( 'NONE',  ( 0.0000000000000000000, 0.0000000000000000000, 1.000000000000000000 ) ) ;
#299 = DIRECTION ( 'NONE',  ( 0.0000000000000000000, 1.000000000000000000, 0.0000000000000000000 ) ) ;
#300 = CARTESIAN_POINT ( 'NONE',  ( -5.009326287108706300E-010, 2.412507003500041800, 0.0000000000000000000 ) ) ;
#301 = AXIS2_PLACEMENT_3D ( 'NONE', #300, #299, #298 ) ;
#302 = CIRCLE ( 'NONE', #297, 7.500000000000000000 ) ;
#303 = CYLINDRICAL_SURFACE ( 'NONE', #301, 2.500000000000000400 ) ;
#304 = FACE_OUTER_BOUND ( 'NONE', #83, .T. ) ;
#305 = DIRECTION ( 'NONE',  ( 0.0000000000000000000, 0.0000000000000000000, 1.000000000000000000 ) ) ;
#306 = DIRECTION ( 'NONE',  ( 0.0000000000000000000, 1.000000000000000000, 0.0000000000000000000 ) ) ;
#307 = CARTESIAN_POINT ( 'NONE',  ( -5.009326287108706300E-010, -19.99999999650043500, 0.0000000000000000000 ) ) ;
#308 = AXIS2_PLACEMENT_3D ( 'NONE', #307, #306, #305 ) ;
#309 = CIRCLE ( 'NONE', #308, 16.00000000000000000 ) ;
#310 = DIRECTION ( 'NONE',  ( 0.0000000000000000000, 0.0000000000000000000, 1.000000000000000000 ) ) ;
#311 = DIRECTION ( 'NONE',  ( 0.0000000000000000000, 1.000000000000000000, 0.0000000000000000000 ) ) ;
#312 = CARTESIAN_POINT ( 'NONE',  ( -5.009326287108706300E-010, -19.99999999650043500, 0.0000000000000000000 ) ) ;
#313 = AXIS2_PLACEMENT_3D ( 'NONE', #312, #311, #310 ) ;
#314 = CIRCLE ( 'NONE', #313, 16.00000000000000000 ) ;
#315 = DIRECTION ( 'NONE',  ( 0.0000000000000000000, -0.9889363528682976200, -0.1483404529302448100 ) ) ;
#316 = VECTOR ( 'NONE', #315, 999.9999999999998900 ) ;
#317 = CARTESIAN_POINT ( 'NONE',  ( -5.009326287108706300E-010, -19.99999999650043500, -16.00000000000000000 ) ) ;
#318 = DIRECTION ( 'NONE',  ( 0.0000000000000000000, 0.0000000000000000000, 1.000000000000000000 ) ) ;
#319 = CIRCLE ( 'NONE', #325, 11.92351572399020700 ) ;
#320 = APPROVAL_STATUS ( 'not_yet_approved' ) ;
#321 = DIRECTION ( 'NONE',  ( 0.0000000000000000000, 0.0000000000000000000, 1.000000000000000000 ) ) ;
#322 = FACE_OUTER_BOUND ( 'NONE', #171, .T. ) ;
#323 = DIRECTION ( 'NONE',  ( 0.0000000000000000000, 1.000000000000000000, 0.0000000000000000000 ) ) ;
#324 = CARTESIAN_POINT ( 'NONE',  ( -5.009326287108706300E-010, 3.499565220943523500E-009, 0.0000000000000000000 ) ) ;
#325 = AXIS2_PLACEMENT_3D ( 'NONE', #324, #323, #321 ) ;
#326 = TOROIDAL_SURFACE ( 'NONE', #330, 11.92351572399020700, 1.249999999999998900 ) ;
#327 = DATE_AND_TIME ( #349, #350 ) ;
#328 =( NAMED_UNIT ( * ) PLANE_ANGLE_UNIT ( ) SI_UNIT ( $, .RADIAN. ) );
#329 = DIRECTION ( 'NONE',  ( 0.0000000000000000000, 1.000000000000000000, 0.0000000000000000000 ) ) ;
#330 = AXIS2_PLACEMENT_3D ( 'NONE', #331, #329, #336 ) ;
#331 = CARTESIAN_POINT ( 'NONE',  ( -5.009326287108706300E-010, -1.249999996500434700, 0.0000000000000000000 ) ) ;
#332 = ADVANCED_BREP_SHAPE_REPRESENTATION ( 'C-30-RK-3220', ( #63, #345 ), #333 ) ;
#333 =( GEOMETRIC_REPRESENTATION_CONTEXT ( 3 ) GLOBAL_UNCERTAINTY_ASSIGNED_CONTEXT ( ( #334 ) ) GLOBAL_UNIT_ASSIGNED_CONTEXT ( ( #337, #328, #335 ) ) REPRESENTATION_CONTEXT ( 'NONE', 'WORKASPACE' ) );
#334 = UNCERTAINTY_MEASURE_WITH_UNIT (LENGTH_MEASURE( 1.000000000000000100E-005 ), #337, 'distance_accuracy_value', 'NONE');
#335 =( NAMED_UNIT ( * ) SI_UNIT ( $, .STERADIAN. ) SOLID_ANGLE_UNIT ( ) );
#336 = DIRECTION ( 'NONE',  ( 0.0000000000000000000, 0.0000000000000000000, 1.000000000000000000 ) ) ;
#337 =( LENGTH_UNIT ( ) NAMED_UNIT ( * ) SI_UNIT ( .MILLI., .METRE. ) );
#338 = APPROVAL ( #320, 'UNSPECIFIED' ) ;
#339 = APPROVAL_ROLE ( '' ) ;
#340 = CARTESIAN_POINT ( 'NONE',  ( 0.0000000000000000000, 0.0000000000000000000, 0.0000000000000000000 ) ) ;
#341 = PRODUCT ( 'C-30-RK-3220', 'C-30-RK-3220', '', ( #342 ) ) ;
#342 = MECHANICAL_CONTEXT ( 'NONE', #344, 'mechanical' ) ;
#343 = APPLICATION_PROTOCOL_DEFINITION ( 'international standard', 'config_control_design', 1994, #344 ) ;
#344 = APPLICATION_CONTEXT ( 'configuration controlled 3d designs of mechanical parts and assemblies' ) ;
#345 = AXIS2_PLACEMENT_3D ( 'NONE', #340, #347, #346 ) ;
#346 = DIRECTION ( 'NONE',  ( 1.000000000000000000, 0.0000000000000000000, 0.0000000000000000000 ) ) ;
#347 = DIRECTION ( 'NONE',  ( 0.0000000000000000000, 0.0000000000000000000, 1.000000000000000000 ) ) ;
#348 = APPROVAL_PERSON_ORGANIZATION ( #207, #338, #339 ) ;
#349 = CALENDAR_DATE ( 2009, 29, 6 ) ;
#350 = LOCAL_TIME ( 13, 16, 14.00000000000000000, #351 ) ;
#351 = COORDINATED_UNIVERSAL_TIME_OFFSET ( 9, 0, .AHEAD. ) ;
#352 = APPROVAL_DATE_TIME ( #376, #373 ) ;
#353 = APPROVAL_DATE_TIME ( #327, #338 ) ;
#354 = CC_DESIGN_APPROVAL ( #338, ( #208 ) ) ;
#355 = CC_DESIGN_APPROVAL ( #373, ( #380 ) ) ;
#356 = DESIGN_CONTEXT ( 'detailed design', #358, 'design' ) ;
#357 = APPLICATION_PROTOCOL_DEFINITION ( 'international standard', 'config_control_design', 1994, #358 ) ;
#358 = APPLICATION_CONTEXT ( 'configuration controlled 3d designs of mechanical parts and assemblies' ) ;
#359 = PERSON_AND_ORGANIZATION_ROLE ( 'design_owner' ) ;
#360 = ORGANIZATION ( 'UNSPECIFIED', 'UNSPECIFIED', '' ) ;
#361 = CC_DESIGN_PERSON_AND_ORGANIZATION_ASSIGNMENT ( #362, #359, ( #341 ) ) ;
#362 = PERSON_AND_ORGANIZATION ( #66, #360 ) ;
#363 = CC_DESIGN_PERSON_AND_ORGANIZATION_ASSIGNMENT ( #365, #364, ( #208 ) ) ;
#364 = PERSON_AND_ORGANIZATION_ROLE ( 'creator' ) ;
#365 = PERSON_AND_ORGANIZATION ( #66, #360 ) ;
#366 = CC_DESIGN_DATE_AND_TIME_ASSIGNMENT ( #368, #367, ( #208 ) ) ;
#367 = DATE_TIME_ROLE ( 'creation_date' ) ;
#368 = DATE_AND_TIME ( #369, #370 ) ;
#369 = CALENDAR_DATE ( 2009, 29, 6 ) ;
#370 = LOCAL_TIME ( 13, 16, 14.00000000000000000, #371 ) ;
#371 = COORDINATED_UNIVERSAL_TIME_OFFSET ( 9, 0, .AHEAD. ) ;
#372 = APPROVAL_STATUS ( 'not_yet_approved' ) ;
#373 = APPROVAL ( #372, 'UNSPECIFIED' ) ;
#374 = COORDINATED_UNIVERSAL_TIME_OFFSET ( 9, 0, .AHEAD. ) ;
#375 = APPROVAL_PERSON_ORGANIZATION ( #381, #373, #377 ) ;
#376 = DATE_AND_TIME ( #378, #379 ) ;
#377 = APPROVAL_ROLE ( '' ) ;
#378 = CALENDAR_DATE ( 2009, 29, 6 ) ;
#379 = LOCAL_TIME ( 13, 16, 14.00000000000000000, #374 ) ;
#380 = PRODUCT_DEFINITION_FORMATION_WITH_SPECIFIED_SOURCE ( 'ANY', '', #341, .NOT_KNOWN. ) ;
#381 = PERSON_AND_ORGANIZATION ( #66, #360 ) ;
ENDSEC;
END-ISO-10303-21;
