ISO-10303-21;
HEADER;
FILE_DESCRIPTION (( 'STEP AP203' ),
    '1' );
FILE_NAME ('C-30-RK-3220-gray.STEP',
    '2009-06-29T04:13:16',
    ( '11sw' ),
    ( '^LQ»¢®ïÐ' ),
    'SwSTEP 2.0',
    'SolidWorks 2007',
    '' );
FILE_SCHEMA (( 'CONFIG_CONTROL_DESIGN' ));
ENDSEC;

DATA;
#1 = ORIENTED_EDGE ( 'NONE', *, *, #67, .F. ) ;
#2 = ORIENTED_EDGE ( 'NONE', *, *, #38, .T. ) ;
#3 = ADVANCED_FACE ( 'NONE', ( #179 ), #277, .T. ) ;
#4 = EDGE_LOOP ( 'NONE', ( #9, #10, #11, #79 ) ) ;
#5 = ADVANCED_FACE ( 'NONE', ( #200 ), #121, .T. ) ;
#6 = ORIENTED_EDGE ( 'NONE', *, *, #14, .T. ) ;
#7 = ORIENTED_EDGE ( 'NONE', *, *, #44, .T. ) ;
#8 = ORIENTED_EDGE ( 'NONE', *, *, #93, .F. ) ;
#9 = ORIENTED_EDGE ( 'NONE', *, *, #59, .F. ) ;
#10 = ORIENTED_EDGE ( 'NONE', *, *, #24, .F. ) ;
#11 = ORIENTED_EDGE ( 'NONE', *, *, #65, .T. ) ;
#12 = CLOSED_SHELL ( 'NONE', ( #52, #66, #83, #36, #3, #26, #219, #275, #250, #70, #5 ) ) ;
#13 = ORIENTED_EDGE ( 'NONE', *, *, #14, .F. ) ;
#14 = EDGE_CURVE ( 'NONE', #46, #45, #165, .T. ) ;
#15 = ORIENTED_EDGE ( 'NONE', *, *, #90, .T. ) ;
#16 = ORIENTED_EDGE ( 'NONE', *, *, #81, .T. ) ;
#17 = ORIENTED_EDGE ( 'NONE', *, *, #28, .T. ) ;
#18 = ORIENTED_EDGE ( 'NONE', *, *, #25, .F. ) ;
#19 = ORIENTED_EDGE ( 'NONE', *, *, #40, .T. ) ;
#20 = ORIENTED_EDGE ( 'NONE', *, *, #51, .F. ) ;
#21 = EDGE_LOOP ( 'NONE', ( #278, #249 ) ) ;
#22 = ORIENTED_EDGE ( 'NONE', *, *, #28, .F. ) ;
#23 = ORIENTED_EDGE ( 'NONE', *, *, #24, .T. ) ;
#24 = EDGE_CURVE ( 'NONE', #57, #56, #236, .T. ) ;
#25 = EDGE_CURVE ( 'NONE', #35, #29, #215, .T. ) ;
#26 = ADVANCED_FACE ( 'NONE', ( #211, #210 ), #287, .F. ) ;
#27 = EDGE_LOOP ( 'NONE', ( #30, #8 ) ) ;
#28 = EDGE_CURVE ( 'NONE', #56, #29, #282, .T. ) ;
#29 = VERTEX_POINT ( 'NONE', #206 ) ;
#30 = ORIENTED_EDGE ( 'NONE', *, *, #31, .F. ) ;
#31 = EDGE_CURVE ( 'NONE', #94, #41, #205, .T. ) ;
#32 = EDGE_CURVE ( 'NONE', #29, #35, #129, .T. ) ;
#33 = EDGE_LOOP ( 'NONE', ( #37, #34, #68, #22 ) ) ;
#34 = ORIENTED_EDGE ( 'NONE', *, *, #67, .T. ) ;
#35 = VERTEX_POINT ( 'NONE', #124 ) ;
#36 = ADVANCED_FACE ( 'NONE', ( #123 ), #232, .T. ) ;
#37 = ORIENTED_EDGE ( 'NONE', *, *, #55, .T. ) ;
#38 = EDGE_CURVE ( 'NONE', #87, #94, #228, .T. ) ;
#39 = ORIENTED_EDGE ( 'NONE', *, *, #38, .F. ) ;
#40 = EDGE_CURVE ( 'NONE', #86, #41, #137, .T. ) ;
#41 = VERTEX_POINT ( 'NONE', #133 ) ;
#42 = EDGE_LOOP ( 'NONE', ( #43, #47, #50, #89 ) ) ;
#43 = ORIENTED_EDGE ( 'NONE', *, *, #44, .F. ) ;
#44 = EDGE_CURVE ( 'NONE', #45, #46, #132, .T. ) ;
#45 = VERTEX_POINT ( 'NONE', #116 ) ;
#46 = VERTEX_POINT ( 'NONE', #115 ) ;
#47 = ORIENTED_EDGE ( 'NONE', *, *, #48, .T. ) ;
#48 = EDGE_CURVE ( 'NONE', #45, #49, #114, .T. ) ;
#49 = VERTEX_POINT ( 'NONE', #110 ) ;
#50 = ORIENTED_EDGE ( 'NONE', *, *, #51, .T. ) ;
#51 = EDGE_CURVE ( 'NONE', #49, #88, #109, .T. ) ;
#52 = ADVANCED_FACE ( 'NONE', ( #104 ), #103, .T. ) ;
#53 = EDGE_LOOP ( 'NONE', ( #54, #58, #61, #64 ) ) ;
#54 = ORIENTED_EDGE ( 'NONE', *, *, #55, .F. ) ;
#55 = EDGE_CURVE ( 'NONE', #56, #57, #97, .T. ) ;
#56 = VERTEX_POINT ( 'NONE', #273 ) ;
#57 = VERTEX_POINT ( 'NONE', #272 ) ;
#58 = ORIENTED_EDGE ( 'NONE', *, *, #59, .T. ) ;
#59 = EDGE_CURVE ( 'NONE', #56, #60, #271, .T. ) ;
#60 = VERTEX_POINT ( 'NONE', #267 ) ;
#61 = ORIENTED_EDGE ( 'NONE', *, *, #62, .T. ) ;
#62 = EDGE_CURVE ( 'NONE', #60, #63, #248, .T. ) ;
#63 = VERTEX_POINT ( 'NONE', #243 ) ;
#64 = ORIENTED_EDGE ( 'NONE', *, *, #65, .F. ) ;
#65 = EDGE_CURVE ( 'NONE', #57, #63, #242, .T. ) ;
#66 = ADVANCED_FACE ( 'NONE', ( #238 ), #195, .F. ) ;
#67 = EDGE_CURVE ( 'NONE', #57, #35, #190, .T. ) ;
#68 = ORIENTED_EDGE ( 'NONE', *, *, #32, .F. ) ;
#69 = EDGE_LOOP ( 'NONE', ( #80, #20 ) ) ;
#70 = ADVANCED_FACE ( 'NONE', ( #186, #185 ), #183, .F. ) ;
#71 = EDGE_LOOP ( 'NONE', ( #72, #74 ) ) ;
#72 = ORIENTED_EDGE ( 'NONE', *, *, #73, .F. ) ;
#73 = EDGE_CURVE ( 'NONE', #63, #60, #146, .T. ) ;
#74 = ORIENTED_EDGE ( 'NONE', *, *, #62, .F. ) ;
#75 = EDGE_LOOP ( 'NONE', ( #6, #7 ) ) ;
#76 = ORIENTED_EDGE ( 'NONE', *, *, #40, .F. ) ;
#77 = ORIENTED_EDGE ( 'NONE', *, *, #78, .F. ) ;
#78 = EDGE_CURVE ( 'NONE', #87, #86, #142, .T. ) ;
#79 = ORIENTED_EDGE ( 'NONE', *, *, #73, .T. ) ;
#80 = ORIENTED_EDGE ( 'NONE', *, *, #81, .F. ) ;
#81 = EDGE_CURVE ( 'NONE', #88, #49, #178, .T. ) ;
#82 = MANIFOLD_SOLID_BREP ( 'NONE', #12 ) ;
#83 = ADVANCED_FACE ( 'NONE', ( #173 ), #172, .F. ) ;
#84 = ORIENTED_EDGE ( 'NONE', *, *, #85, .F. ) ;
#85 = EDGE_CURVE ( 'NONE', #86, #87, #167, .T. ) ;
#86 = VERTEX_POINT ( 'NONE', #262 ) ;
#87 = VERTEX_POINT ( 'NONE', #261 ) ;
#88 = VERTEX_POINT ( 'NONE', #260 ) ;
#89 = ORIENTED_EDGE ( 'NONE', *, *, #90, .F. ) ;
#90 = EDGE_CURVE ( 'NONE', #46, #88, #259, .T. ) ;
#91 = EDGE_LOOP ( 'NONE', ( #84, #19, #92, #39 ) ) ;
#92 = ORIENTED_EDGE ( 'NONE', *, *, #93, .T. ) ;
#93 = EDGE_CURVE ( 'NONE', #41, #94, #255, .T. ) ;
#94 = VERTEX_POINT ( 'NONE', #161 ) ;
#95 = DIRECTION ( 'NONE',  ( 0.0000000000000000000, 1.000000000000000000, 0.0000000000000000000 ) ) ;
#96 = AXIS2_PLACEMENT_3D ( 'NONE', #102, #95, #274 ) ;
#97 = CIRCLE ( 'NONE', #96, 13.15968616507557700 ) ;
#98 = DIRECTION ( 'NONE',  ( 0.0000000000000000000, 0.0000000000000000000, -1.000000000000000000 ) ) ;
#99 = DIRECTION ( 'NONE',  ( 0.0000000000000000000, -1.000000000000000000, 0.0000000000000000000 ) ) ;
#100 = CARTESIAN_POINT ( 'NONE',  ( -5.009326287108706300E-010, -19.99999999650043500, 0.0000000000000000000 ) ) ;
#101 = AXIS2_PLACEMENT_3D ( 'NONE', #100, #99, #98 ) ;
#102 = CARTESIAN_POINT ( 'NONE',  ( -5.009326287108706300E-010, -1.064574430337629200, 0.0000000000000000000 ) ) ;
#103 = CONICAL_SURFACE ( 'NONE', #101, 16.00000000000000000, 0.1488899476094973900 ) ;
#104 = FACE_OUTER_BOUND ( 'NONE', #53, .T. ) ;
#105 = DIRECTION ( 'NONE',  ( 0.0000000000000000000, 0.0000000000000000000, 1.000000000000000000 ) ) ;
#106 = DIRECTION ( 'NONE',  ( 0.0000000000000000000, 1.000000000000000000, 0.0000000000000000000 ) ) ;
#107 = CARTESIAN_POINT ( 'NONE',  ( -5.009326287108706300E-010, -9.999999996500434900, 0.0000000000000000000 ) ) ;
#108 = AXIS2_PLACEMENT_3D ( 'NONE', #107, #106, #105 ) ;
#109 = CIRCLE ( 'NONE', #108, 2.500000000000000000 ) ;
#110 = CARTESIAN_POINT ( 'NONE',  ( -5.009323225592821800E-010, -9.999999996500434900, -2.500000000000000000 ) ) ;
#111 = DIRECTION ( 'NONE',  ( 0.0000000000000000000, 1.000000000000000000, 0.0000000000000000000 ) ) ;
#112 = VECTOR ( 'NONE', #111, 1000.000000000000000 ) ;
#113 = CARTESIAN_POINT ( 'NONE',  ( -5.009323225592821800E-010, 2.412507003500041800, -2.500000000000000400 ) ) ;
#114 = LINE ( 'NONE', #113, #112 ) ;
#115 = CARTESIAN_POINT ( 'NONE',  ( -5.009326287108706300E-010, -19.99999999650043500, 2.500000000000001300 ) ) ;
#116 = CARTESIAN_POINT ( 'NONE',  ( -5.009323225592821800E-010, -19.99999999650043500, -2.500000000000001800 ) ) ;
#117 = DIRECTION ( 'NONE',  ( 0.0000000000000000000, 0.0000000000000000000, 1.000000000000000000 ) ) ;
#118 = DIRECTION ( 'NONE',  ( 0.0000000000000000000, 1.000000000000000000, 0.0000000000000000000 ) ) ;
#119 = CARTESIAN_POINT ( 'NONE',  ( -5.009326287108706300E-010, -19.99999999650043500, 0.0000000000000000000 ) ) ;
#120 = AXIS2_PLACEMENT_3D ( 'NONE', #119, #223, #222 ) ;
#121 = CONICAL_SURFACE ( 'NONE', #120, 16.00000000000000000, 0.1488899476094973900 ) ;
#122 = CARTESIAN_POINT ( 'NONE',  ( -5.009326287108706300E-010, -1.249999996500434700, 0.0000000000000000000 ) ) ;
#123 = FACE_OUTER_BOUND ( 'NONE', #33, .T. ) ;
#124 = CARTESIAN_POINT ( 'NONE',  ( -5.009310928584502400E-010, 3.499565220943523500E-009, -11.92351572399020700 ) ) ;
#125 = DIRECTION ( 'NONE',  ( 0.0000000000000000000, 0.0000000000000000000, 1.000000000000000000 ) ) ;
#126 = DIRECTION ( 'NONE',  ( 0.0000000000000000000, 1.000000000000000000, 0.0000000000000000000 ) ) ;
#127 = CARTESIAN_POINT ( 'NONE',  ( -5.009326287108706300E-010, 3.499565220943523500E-009, 0.0000000000000000000 ) ) ;
#128 = AXIS2_PLACEMENT_3D ( 'NONE', #127, #126, #125 ) ;
#129 = CIRCLE ( 'NONE', #128, 11.92351572399020700 ) ;
#130 = CARTESIAN_POINT ( 'NONE',  ( -5.009326287108706300E-010, -19.99999999650043500, 0.0000000000000000000 ) ) ;
#131 = AXIS2_PLACEMENT_3D ( 'NONE', #130, #118, #117 ) ;
#132 = CIRCLE ( 'NONE', #131, 2.500000000000001300 ) ;
#133 = CARTESIAN_POINT ( 'NONE',  ( -5.009317102561052600E-010, 3.499565220943523500E-009, -7.500000000000000000 ) ) ;
#134 = DIRECTION ( 'NONE',  ( 0.0000000000000000000, 1.000000000000000000, 0.0000000000000000000 ) ) ;
#135 = VECTOR ( 'NONE', #134, 1000.000000000000000 ) ;
#136 = CARTESIAN_POINT ( 'NONE',  ( -5.009317102561052600E-010, 2.412507003500041800, -7.500000000000000000 ) ) ;
#137 = LINE ( 'NONE', #136, #135 ) ;
#138 = DIRECTION ( 'NONE',  ( 0.0000000000000000000, 0.0000000000000000000, 1.000000000000000000 ) ) ;
#139 = DIRECTION ( 'NONE',  ( 0.0000000000000000000, 1.000000000000000000, 0.0000000000000000000 ) ) ;
#140 = CARTESIAN_POINT ( 'NONE',  ( -5.009326287108706300E-010, -9.999999996500434900, 0.0000000000000000000 ) ) ;
#141 = AXIS2_PLACEMENT_3D ( 'NONE', #140, #139, #138 ) ;
#142 = CIRCLE ( 'NONE', #141, 7.500000000000000000 ) ;
#143 = DIRECTION ( 'NONE',  ( 0.0000000000000000000, 0.0000000000000000000, 1.000000000000000000 ) ) ;
#144 = DIRECTION ( 'NONE',  ( 0.0000000000000000000, 1.000000000000000000, 0.0000000000000000000 ) ) ;
#145 = AXIS2_PLACEMENT_3D ( 'NONE', #184, #144, #143 ) ;
#146 = CIRCLE ( 'NONE', #145, 16.00000000000000000 ) ;
#147 = DIRECTION ( 'NONE',  ( 0.0000000000000000000, 0.0000000000000000000, 1.000000000000000000 ) ) ;
#148 = DIRECTION ( 'NONE',  ( 0.0000000000000000000, 1.000000000000000000, 0.0000000000000000000 ) ) ;
#149 = DIRECTION ( 'NONE',  ( 0.0000000000000000000, 0.0000000000000000000, 1.000000000000000000 ) ) ;
#150 = DIRECTION ( 'NONE',  ( 0.0000000000000000000, 1.000000000000000000, 0.0000000000000000000 ) ) ;
#151 = CARTESIAN_POINT ( 'NONE',  ( -5.009326287108706300E-010, 2.412507003500041800, 0.0000000000000000000 ) ) ;
#152 = AXIS2_PLACEMENT_3D ( 'NONE', #151, #150, #149 ) ;
#153 = CYLINDRICAL_SURFACE ( 'NONE', #152, 2.500000000000000400 ) ;
#154 = DIRECTION ( 'NONE',  ( 0.0000000000000000000, 0.0000000000000000000, 1.000000000000000000 ) ) ;
#155 = DIRECTION ( 'NONE',  ( 0.0000000000000000000, 1.000000000000000000, 0.0000000000000000000 ) ) ;
#156 = AXIS2_PLACEMENT_3D ( 'NONE', #159, #155, #154 ) ;
#157 = CYLINDRICAL_SURFACE ( 'NONE', #156, 7.500000000000000000 ) ;
#158 = FACE_OUTER_BOUND ( 'NONE', #208, .T. ) ;
#159 = CARTESIAN_POINT ( 'NONE',  ( -5.009326287108706300E-010, 2.412507003500041800, 0.0000000000000000000 ) ) ;
#160 = FACE_OUTER_BOUND ( 'NONE', #224, .T. ) ;
#161 = CARTESIAN_POINT ( 'NONE',  ( -5.009326287108706300E-010, 3.499565220943523500E-009, 7.500000000000000000 ) ) ;
#162 = DIRECTION ( 'NONE',  ( 0.0000000000000000000, 0.0000000000000000000, 1.000000000000000000 ) ) ;
#163 = DIRECTION ( 'NONE',  ( 0.0000000000000000000, 1.000000000000000000, 0.0000000000000000000 ) ) ;
#164 = AXIS2_PLACEMENT_3D ( 'NONE', #221, #163, #162 ) ;
#165 = CIRCLE ( 'NONE', #164, 2.500000000000001300 ) ;
#166 = CARTESIAN_POINT ( 'NONE',  ( -5.009326287108706300E-010, -1.064574430337629200, 0.0000000000000000000 ) ) ;
#167 = CIRCLE ( 'NONE', #266, 7.500000000000000000 ) ;
#168 = DIRECTION ( 'NONE',  ( 0.0000000000000000000, 0.0000000000000000000, 1.000000000000000000 ) ) ;
#169 = DIRECTION ( 'NONE',  ( 0.0000000000000000000, 1.000000000000000000, 0.0000000000000000000 ) ) ;
#170 = CARTESIAN_POINT ( 'NONE',  ( -5.009326287108706300E-010, 2.412507003500041800, 0.0000000000000000000 ) ) ;
#171 = AXIS2_PLACEMENT_3D ( 'NONE', #170, #169, #168 ) ;
#172 = CYLINDRICAL_SURFACE ( 'NONE', #171, 7.500000000000000000 ) ;
#173 = FACE_OUTER_BOUND ( 'NONE', #91, .T. ) ;
#174 = DIRECTION ( 'NONE',  ( 0.0000000000000000000, 0.0000000000000000000, 1.000000000000000000 ) ) ;
#175 = DIRECTION ( 'NONE',  ( 0.0000000000000000000, 1.000000000000000000, 0.0000000000000000000 ) ) ;
#176 = CARTESIAN_POINT ( 'NONE',  ( -5.009326287108706300E-010, -9.999999996500434900, 0.0000000000000000000 ) ) ;
#177 = AXIS2_PLACEMENT_3D ( 'NONE', #176, #175, #174 ) ;
#178 = CIRCLE ( 'NONE', #177, 2.500000000000000000 ) ;
#179 = FACE_OUTER_BOUND ( 'NONE', #216, .T. ) ;
#180 = ORIENTED_EDGE ( 'NONE', *, *, #25, .T. ) ;
#181 = CARTESIAN_POINT ( 'NONE',  ( 2.499999999499068700, -19.99999999650043500, 0.0000000000000000000 ) ) ;
#182 = AXIS2_PLACEMENT_3D ( 'NONE', #181, #148, #147 ) ;
#183 = PLANE ( 'NONE',  #182 ) ;
#184 = CARTESIAN_POINT ( 'NONE',  ( -5.009326287108706300E-010, -19.99999999650043500, 0.0000000000000000000 ) ) ;
#185 = FACE_BOUND ( 'NONE', #75, .T. ) ;
#186 = FACE_OUTER_BOUND ( 'NONE', #71, .T. ) ;
#187 = DIRECTION ( 'NONE',  ( 1.224606354016248500E-016, 0.0000000000000000000, -1.000000000000000000 ) ) ;
#188 = DIRECTION ( 'NONE',  ( 1.000000000000000000, 0.0000000000000000000, 1.224606353822377300E-016 ) ) ;
#189 = AXIS2_PLACEMENT_3D ( 'NONE', #196, #188, #187 ) ;
#190 = CIRCLE ( 'NONE', #189, 1.249999999999999300 ) ;
#191 = DIRECTION ( 'NONE',  ( 0.0000000000000000000, 0.0000000000000000000, 1.000000000000000000 ) ) ;
#192 = DIRECTION ( 'NONE',  ( 0.0000000000000000000, 1.000000000000000000, 0.0000000000000000000 ) ) ;
#193 = CARTESIAN_POINT ( 'NONE',  ( -5.009326287108706300E-010, 2.412507003500041800, 0.0000000000000000000 ) ) ;
#194 = AXIS2_PLACEMENT_3D ( 'NONE', #193, #192, #191 ) ;
#195 = CYLINDRICAL_SURFACE ( 'NONE', #194, 2.500000000000000400 ) ;
#196 = CARTESIAN_POINT ( 'NONE',  ( -5.009311685495590500E-010, -1.249999996500434700, -11.92351572399020700 ) ) ;
#197 = DIRECTION ( 'NONE',  ( 0.0000000000000000000, 0.0000000000000000000, 1.000000000000000000 ) ) ;
#198 = DIRECTION ( 'NONE',  ( 0.0000000000000000000, 1.000000000000000000, 0.0000000000000000000 ) ) ;
#199 = CARTESIAN_POINT ( 'NONE',  ( -5.009326287108706300E-010, -1.249999996500434700, 0.0000000000000000000 ) ) ;
#200 = FACE_OUTER_BOUND ( 'NONE', #4, .T. ) ;
#201 = DIRECTION ( 'NONE',  ( 0.0000000000000000000, 0.0000000000000000000, 1.000000000000000000 ) ) ;
#202 = DIRECTION ( 'NONE',  ( 0.0000000000000000000, 1.000000000000000000, 0.0000000000000000000 ) ) ;
#203 = CARTESIAN_POINT ( 'NONE',  ( -5.009326287108706300E-010, 3.499565220943523500E-009, 0.0000000000000000000 ) ) ;
#204 = AXIS2_PLACEMENT_3D ( 'NONE', #203, #202, #201 ) ;
#205 = CIRCLE ( 'NONE', #204, 7.500000000000000000 ) ;
#206 = CARTESIAN_POINT ( 'NONE',  ( -5.009326287108706300E-010, 3.499565220943523500E-009, 11.92351572399020700 ) ) ;
#207 = DIRECTION ( 'NONE',  ( 0.0000000000000000000, 0.0000000000000000000, 1.000000000000000000 ) ) ;
#208 = EDGE_LOOP ( 'NONE', ( #209, #13, #15, #16 ) ) ;
#209 = ORIENTED_EDGE ( 'NONE', *, *, #48, .F. ) ;
#210 = FACE_OUTER_BOUND ( 'NONE', #218, .T. ) ;
#211 = FACE_BOUND ( 'NONE', #27, .T. ) ;
#212 = DIRECTION ( 'NONE',  ( 0.0000000000000000000, 0.0000000000000000000, 1.000000000000000000 ) ) ;
#213 = DIRECTION ( 'NONE',  ( 0.0000000000000000000, 1.000000000000000000, 0.0000000000000000000 ) ) ;
#214 = AXIS2_PLACEMENT_3D ( 'NONE', #237, #213, #212 ) ;
#215 = CIRCLE ( 'NONE', #214, 11.92351572399020700 ) ;
#216 = EDGE_LOOP ( 'NONE', ( #1, #23, #17, #18 ) ) ;
#217 = ORIENTED_EDGE ( 'NONE', *, *, #31, .T. ) ;
#218 = EDGE_LOOP ( 'NONE', ( #220, #180 ) ) ;
#219 = ADVANCED_FACE ( 'NONE', ( #160 ), #157, .F. ) ;
#220 = ORIENTED_EDGE ( 'NONE', *, *, #32, .T. ) ;
#221 = CARTESIAN_POINT ( 'NONE',  ( -5.009326287108706300E-010, -19.99999999650043500, 0.0000000000000000000 ) ) ;
#222 = DIRECTION ( 'NONE',  ( 0.0000000000000000000, 0.0000000000000000000, -1.000000000000000000 ) ) ;
#223 = DIRECTION ( 'NONE',  ( 0.0000000000000000000, -1.000000000000000000, 0.0000000000000000000 ) ) ;
#224 = EDGE_LOOP ( 'NONE', ( #76, #77, #2, #217 ) ) ;
#225 = DIRECTION ( 'NONE',  ( 0.0000000000000000000, 1.000000000000000000, 0.0000000000000000000 ) ) ;
#226 = VECTOR ( 'NONE', #225, 1000.000000000000000 ) ;
#227 = CARTESIAN_POINT ( 'NONE',  ( -5.009326287108706300E-010, 2.412507003500041800, 7.500000000000000000 ) ) ;
#228 = LINE ( 'NONE', #227, #226 ) ;
#229 = DIRECTION ( 'NONE',  ( 0.0000000000000000000, 0.0000000000000000000, 1.000000000000000000 ) ) ;
#230 = DIRECTION ( 'NONE',  ( 0.0000000000000000000, 1.000000000000000000, 0.0000000000000000000 ) ) ;
#231 = AXIS2_PLACEMENT_3D ( 'NONE', #122, #230, #229 ) ;
#232 = TOROIDAL_SURFACE ( 'NONE', #231, 11.92351572399020700, 1.249999999999998900 ) ;
#233 = DIRECTION ( 'NONE',  ( 0.0000000000000000000, 0.0000000000000000000, 1.000000000000000000 ) ) ;
#234 = DIRECTION ( 'NONE',  ( 0.0000000000000000000, 1.000000000000000000, 0.0000000000000000000 ) ) ;
#235 = AXIS2_PLACEMENT_3D ( 'NONE', #166, #234, #233 ) ;
#236 = CIRCLE ( 'NONE', #235, 13.15968616507557700 ) ;
#237 = CARTESIAN_POINT ( 'NONE',  ( -5.009326287108706300E-010, 3.499565220943523500E-009, 0.0000000000000000000 ) ) ;
#238 = FACE_OUTER_BOUND ( 'NONE', #42, .T. ) ;
#239 = DIRECTION ( 'NONE',  ( 0.0000000000000000000, -0.9889363528682976200, -0.1483404529302448100 ) ) ;
#240 = VECTOR ( 'NONE', #239, 999.9999999999998900 ) ;
#241 = CARTESIAN_POINT ( 'NONE',  ( -5.009326287108706300E-010, -19.99999999650043500, -16.00000000000000000 ) ) ;
#242 = LINE ( 'NONE', #241, #240 ) ;
#243 = CARTESIAN_POINT ( 'NONE',  ( -5.009326287108706300E-010, -19.99999999650043500, -16.00000000000000000 ) ) ;
#244 = DIRECTION ( 'NONE',  ( 0.0000000000000000000, 0.0000000000000000000, 1.000000000000000000 ) ) ;
#245 = DIRECTION ( 'NONE',  ( 0.0000000000000000000, 1.000000000000000000, 0.0000000000000000000 ) ) ;
#246 = CARTESIAN_POINT ( 'NONE',  ( -5.009326287108706300E-010, -19.99999999650043500, 0.0000000000000000000 ) ) ;
#247 = AXIS2_PLACEMENT_3D ( 'NONE', #246, #245, #244 ) ;
#248 = CIRCLE ( 'NONE', #247, 16.00000000000000000 ) ;
#249 = ORIENTED_EDGE ( 'NONE', *, *, #85, .T. ) ;
#250 = ADVANCED_FACE ( 'NONE', ( #158 ), #153, .F. ) ;
#251 = DIRECTION ( 'NONE',  ( 0.0000000000000000000, 0.0000000000000000000, 1.000000000000000000 ) ) ;
#252 = DIRECTION ( 'NONE',  ( 0.0000000000000000000, 1.000000000000000000, 0.0000000000000000000 ) ) ;
#253 = CARTESIAN_POINT ( 'NONE',  ( -5.009326287108706300E-010, 3.499565220943523500E-009, 0.0000000000000000000 ) ) ;
#254 = AXIS2_PLACEMENT_3D ( 'NONE', #253, #252, #251 ) ;
#255 = CIRCLE ( 'NONE', #254, 7.500000000000000000 ) ;
#256 = DIRECTION ( 'NONE',  ( 0.0000000000000000000, 1.000000000000000000, 0.0000000000000000000 ) ) ;
#257 = VECTOR ( 'NONE', #256, 1000.000000000000000 ) ;
#258 = CARTESIAN_POINT ( 'NONE',  ( -5.009326287108706300E-010, 2.412507003500041800, 2.500000000000000400 ) ) ;
#259 = LINE ( 'NONE', #258, #257 ) ;
#260 = CARTESIAN_POINT ( 'NONE',  ( -5.009326287108706300E-010, -9.999999996500434900, 2.500000000000000000 ) ) ;
#261 = CARTESIAN_POINT ( 'NONE',  ( -5.009326287108706300E-010, -9.999999996500434900, 7.500000000000000000 ) ) ;
#262 = CARTESIAN_POINT ( 'NONE',  ( -5.009317102561052600E-010, -9.999999996500434900, -7.500000000000000000 ) ) ;
#263 = DIRECTION ( 'NONE',  ( 0.0000000000000000000, 0.0000000000000000000, 1.000000000000000000 ) ) ;
#264 = DIRECTION ( 'NONE',  ( 0.0000000000000000000, 1.000000000000000000, 0.0000000000000000000 ) ) ;
#265 = CARTESIAN_POINT ( 'NONE',  ( -5.009326287108706300E-010, -9.999999996500434900, 0.0000000000000000000 ) ) ;
#266 = AXIS2_PLACEMENT_3D ( 'NONE', #265, #264, #263 ) ;
#267 = CARTESIAN_POINT ( 'NONE',  ( -5.009306693407045200E-010, -19.99999999650043500, 16.00000000000000000 ) ) ;
#268 = DIRECTION ( 'NONE',  ( 1.816586611872670700E-017, -0.9889363528682976200, 0.1483404529302448100 ) ) ;
#269 = VECTOR ( 'NONE', #268, 999.9999999999998900 ) ;
#270 = CARTESIAN_POINT ( 'NONE',  ( -5.009306693407045200E-010, -19.99999999650043500, 16.00000000000000000 ) ) ;
#271 = LINE ( 'NONE', #270, #269 ) ;
#272 = CARTESIAN_POINT ( 'NONE',  ( -5.009310171673414400E-010, -1.064574430337629200, -13.15968616507557900 ) ) ;
#273 = CARTESIAN_POINT ( 'NONE',  ( -5.009326287108706300E-010, -1.064574430337629200, 13.15968616507557900 ) ) ;
#274 = DIRECTION ( 'NONE',  ( 0.0000000000000000000, 0.0000000000000000000, 1.000000000000000000 ) ) ;
#275 = ADVANCED_FACE ( 'NONE', ( #368, #329 ), #331, .F. ) ;
#276 = AXIS2_PLACEMENT_3D ( 'NONE', #199, #198, #197 ) ;
#277 = TOROIDAL_SURFACE ( 'NONE', #276, 11.92351572399020700, 1.249999999999998900 ) ;
#278 = ORIENTED_EDGE ( 'NONE', *, *, #78, .T. ) ;
#279 = DIRECTION ( 'NONE',  ( -1.000000000000000000, 0.0000000000000000000, 0.0000000000000000000 ) ) ;
#280 = CARTESIAN_POINT ( 'NONE',  ( -5.009326287108706300E-010, -1.249999996500434700, 11.92351572399020700 ) ) ;
#281 = AXIS2_PLACEMENT_3D ( 'NONE', #280, #279, #207 ) ;
#282 = CIRCLE ( 'NONE', #281, 1.249999999999999300 ) ;
#283 = DIRECTION ( 'NONE',  ( 0.0000000000000000000, 0.0000000000000000000, -1.000000000000000000 ) ) ;
#284 = DIRECTION ( 'NONE',  ( 0.0000000000000000000, -1.000000000000000000, 0.0000000000000000000 ) ) ;
#285 = CARTESIAN_POINT ( 'NONE',  ( 11.92351572348927400, 3.499565220943523500E-009, 0.0000000000000000000 ) ) ;
#286 = AXIS2_PLACEMENT_3D ( 'NONE', #285, #284, #283 ) ;
#287 = PLANE ( 'NONE',  #286 ) ;
#288 = CARTESIAN_POINT ( 'NONE',  ( 0.0000000000000000000, 0.0000000000000000000, 0.0000000000000000000 ) ) ;
#289 = CC_DESIGN_PERSON_AND_ORGANIZATION_ASSIGNMENT ( #350, #290, ( #327 ) ) ;
#290 = PERSON_AND_ORGANIZATION_ROLE ( 'design_owner' ) ;
#291 = SHAPE_DEFINITION_REPRESENTATION ( #316, #347 ) ;
#292 = DIRECTION ( 'NONE',  ( 0.0000000000000000000, -1.000000000000000000, 0.0000000000000000000 ) ) ;
#293 = DATE_AND_TIME ( #294, #295 ) ;
#294 = CALENDAR_DATE ( 2009, 29, 6 ) ;
#295 = LOCAL_TIME ( 13, 13, 16.00000000000000000, #296 ) ;
#296 = COORDINATED_UNIVERSAL_TIME_OFFSET ( 9, 0, .AHEAD. ) ;
#297 = APPROVAL_PERSON_ORGANIZATION ( #301, #299, #298 ) ;
#298 = APPROVAL_ROLE ( '' ) ;
#299 = APPROVAL ( #300, 'UNSPECIFIED' ) ;
#300 = APPROVAL_STATUS ( 'not_yet_approved' ) ;
#301 = PERSON_AND_ORGANIZATION ( #326, #320 ) ;
#302 = DIRECTION ( 'NONE',  ( 1.000000000000000000, 0.0000000000000000000, 0.0000000000000000000 ) ) ;
#303 = DIRECTION ( 'NONE',  ( 0.0000000000000000000, 0.0000000000000000000, 1.000000000000000000 ) ) ;
#304 = CC_DESIGN_APPROVAL ( #312, ( #346 ) ) ;
#305 = APPROVAL_DATE_TIME ( #306, #312 ) ;
#306 = DATE_AND_TIME ( #307, #308 ) ;
#307 = CALENDAR_DATE ( 2009, 29, 6 ) ;
#308 = LOCAL_TIME ( 13, 13, 16.00000000000000000, #309 ) ;
#309 = COORDINATED_UNIVERSAL_TIME_OFFSET ( 9, 0, .AHEAD. ) ;
#310 = APPROVAL_PERSON_ORGANIZATION ( #314, #312, #311 ) ;
#311 = APPROVAL_ROLE ( '' ) ;
#312 = APPROVAL ( #313, 'UNSPECIFIED' ) ;
#313 = APPROVAL_STATUS ( 'not_yet_approved' ) ;
#314 = PERSON_AND_ORGANIZATION ( #326, #320 ) ;
#315 = CC_DESIGN_DATE_AND_TIME_ASSIGNMENT ( #339, #338, ( #346 ) ) ;
#316 = PRODUCT_DEFINITION_SHAPE ( 'NONE', 'NONE',  #371 ) ;
#317 = PRODUCT_RELATED_PRODUCT_CATEGORY ( 'detail', '', ( #327 ) ) ;
#318 = CC_DESIGN_SECURITY_CLASSIFICATION ( #346, ( #366 ) ) ;
#319 = CARTESIAN_POINT ( 'NONE',  ( 7.499999999499067400, -9.999999996500434900, 0.0000000000000000000 ) ) ;
#320 = ORGANIZATION ( 'UNSPECIFIED', 'UNSPECIFIED', '' ) ;
#321 = CC_DESIGN_DATE_AND_TIME_ASSIGNMENT ( #323, #322, ( #371 ) ) ;
#322 = DATE_TIME_ROLE ( 'creation_date' ) ;
#323 = DATE_AND_TIME ( #324, #325 ) ;
#324 = CALENDAR_DATE ( 2009, 29, 6 ) ;
#325 = LOCAL_TIME ( 13, 13, 16.00000000000000000, #332 ) ;
#326 = PERSON ( 'UNSPECIFIED', 'UNSPECIFIED', 'UNSPECIFIED', ('UNSPECIFIED'), ('UNSPECIFIED'), ('UNSPECIFIED') ) ;
#327 = PRODUCT ( 'C-30-RK-3220-gray', 'C-30-RK-3220-gray', '', ( #328 ) ) ;
#328 = MECHANICAL_CONTEXT ( 'NONE', #354, 'mechanical' ) ;
#329 = FACE_OUTER_BOUND ( 'NONE', #21, .T. ) ;
#330 =( GEOMETRIC_REPRESENTATION_CONTEXT ( 3 ) GLOBAL_UNCERTAINTY_ASSIGNED_CONTEXT ( ( #348 ) ) GLOBAL_UNIT_ASSIGNED_CONTEXT ( ( #370, #349, #367 ) ) REPRESENTATION_CONTEXT ( 'NONE', 'WORKASPACE' ) );
#331 = PLANE ( 'NONE',  #351 ) ;
#332 = COORDINATED_UNIVERSAL_TIME_OFFSET ( 9, 0, .AHEAD. ) ;
#333 = CC_DESIGN_PERSON_AND_ORGANIZATION_ASSIGNMENT ( #335, #334, ( #371 ) ) ;
#334 = PERSON_AND_ORGANIZATION_ROLE ( 'creator' ) ;
#335 = PERSON_AND_ORGANIZATION ( #326, #320 ) ;
#336 = CC_DESIGN_APPROVAL ( #299, ( #371 ) ) ;
#337 = APPROVAL_DATE_TIME ( #293, #299 ) ;
#338 = DATE_TIME_ROLE ( 'classification_date' ) ;
#339 = DATE_AND_TIME ( #340, #341 ) ;
#340 = CALENDAR_DATE ( 2009, 29, 6 ) ;
#341 = LOCAL_TIME ( 13, 13, 16.00000000000000000, #342 ) ;
#342 = COORDINATED_UNIVERSAL_TIME_OFFSET ( 9, 0, .AHEAD. ) ;
#343 = CC_DESIGN_PERSON_AND_ORGANIZATION_ASSIGNMENT ( #345, #344, ( #346 ) ) ;
#344 = PERSON_AND_ORGANIZATION_ROLE ( 'classification_officer' ) ;
#345 = PERSON_AND_ORGANIZATION ( #326, #320 ) ;
#346 = SECURITY_CLASSIFICATION ( '', '', #375 ) ;
#347 = ADVANCED_BREP_SHAPE_REPRESENTATION ( 'C-30-RK-3220-gray', ( #82, #352 ), #330 ) ;
#348 = UNCERTAINTY_MEASURE_WITH_UNIT (LENGTH_MEASURE( 1.000000000000000100E-005 ), #370, 'distance_accuracy_value', 'NONE');
#349 =( NAMED_UNIT ( * ) PLANE_ANGLE_UNIT ( ) SI_UNIT ( $, .RADIAN. ) );
#350 = PERSON_AND_ORGANIZATION ( #326, #320 ) ;
#351 = AXIS2_PLACEMENT_3D ( 'NONE', #319, #292, #369 ) ;
#352 = AXIS2_PLACEMENT_3D ( 'NONE', #288, #303, #302 ) ;
#353 = APPLICATION_PROTOCOL_DEFINITION ( 'international standard', 'config_control_design', 1994, #354 ) ;
#354 = APPLICATION_CONTEXT ( 'configuration controlled 3d designs of mechanical parts and assemblies' ) ;
#355 = CC_DESIGN_APPROVAL ( #363, ( #366 ) ) ;
#356 = APPROVAL_DATE_TIME ( #357, #363 ) ;
#357 = DATE_AND_TIME ( #358, #359 ) ;
#358 = CALENDAR_DATE ( 2009, 29, 6 ) ;
#359 = LOCAL_TIME ( 13, 13, 16.00000000000000000, #360 ) ;
#360 = COORDINATED_UNIVERSAL_TIME_OFFSET ( 9, 0, .AHEAD. ) ;
#361 = APPROVAL_PERSON_ORGANIZATION ( #365, #363, #362 ) ;
#362 = APPROVAL_ROLE ( '' ) ;
#363 = APPROVAL ( #364, 'UNSPECIFIED' ) ;
#364 = APPROVAL_STATUS ( 'not_yet_approved' ) ;
#365 = PERSON_AND_ORGANIZATION ( #326, #320 ) ;
#366 = PRODUCT_DEFINITION_FORMATION_WITH_SPECIFIED_SOURCE ( 'ANY', '', #327, .NOT_KNOWN. ) ;
#367 =( NAMED_UNIT ( * ) SI_UNIT ( $, .STERADIAN. ) SOLID_ANGLE_UNIT ( ) );
#368 = FACE_BOUND ( 'NONE', #69, .T. ) ;
#369 = DIRECTION ( 'NONE',  ( 0.0000000000000000000, 0.0000000000000000000, -1.000000000000000000 ) ) ;
#370 =( LENGTH_UNIT ( ) NAMED_UNIT ( * ) SI_UNIT ( .MILLI., .METRE. ) );
#371 = PRODUCT_DEFINITION ( 'UNKNOWN', '', #366, #372 ) ;
#372 = DESIGN_CONTEXT ( 'detailed design', #374, 'design' ) ;
#373 = APPLICATION_PROTOCOL_DEFINITION ( 'international standard', 'config_control_design', 1994, #374 ) ;
#374 = APPLICATION_CONTEXT ( 'configuration controlled 3d designs of mechanical parts and assemblies' ) ;
#375 = SECURITY_CLASSIFICATION_LEVEL ( 'unclassified' ) ;
#376 = CC_DESIGN_PERSON_AND_ORGANIZATION_ASSIGNMENT ( #378, #377, ( #366 ) ) ;
#377 = PERSON_AND_ORGANIZATION_ROLE ( 'design_supplier' ) ;
#378 = PERSON_AND_ORGANIZATION ( #326, #320 ) ;
#379 = CC_DESIGN_PERSON_AND_ORGANIZATION_ASSIGNMENT ( #381, #380, ( #366 ) ) ;
#380 = PERSON_AND_ORGANIZATION_ROLE ( 'creator' ) ;
#381 = PERSON_AND_ORGANIZATION ( #326, #320 ) ;
ENDSEC;
END-ISO-10303-21;
