ISO-10303-21;
HEADER;
FILE_DESCRIPTION (( 'STEP AP203' ),
    '1' );
FILE_NAME ('C-30-RK-3220.STEP',
    '2009-06-26T07:55:56',
    ( '11sw' ),
    ( '^LQ»¢®ïÐ' ),
    'SwSTEP 2.0',
    'SolidWorks 2007',
    '' );
FILE_SCHEMA (( 'CONFIG_CONTROL_DESIGN' ));
ENDSEC;

DATA;
#1 = ORIENTED_EDGE ( 'NONE', *, *, #2, .F. ) ;
#2 = EDGE_CURVE ( 'NONE', #47, #3, #295, .T. ) ;
#3 = VERTEX_POINT ( 'NONE', #283 ) ;
#4 = VERTEX_POINT ( 'NONE', #267 ) ;
#5 = ORIENTED_EDGE ( 'NONE', *, *, #6, .T. ) ;
#6 = EDGE_CURVE ( 'NONE', #4, #3, #294, .T. ) ;
#7 = CLOSED_SHELL ( 'NONE', ( #92, #53, #42, #54, #65, #73, #81, #89, #22, #29, #37 ) ) ;
#8 = EDGE_CURVE ( 'NONE', #45, #4, #262, .T. ) ;
#9 = ORIENTED_EDGE ( 'NONE', *, *, #69, .F. ) ;
#10 = ORIENTED_EDGE ( 'NONE', *, *, #99, .F. ) ;
#11 = ORIENTED_EDGE ( 'NONE', *, *, #52, .T. ) ;
#12 = ORIENTED_EDGE ( 'NONE', *, *, #32, .T. ) ;
#13 = APPLICATION_PROTOCOL_DEFINITION ( 'international standard', 'config_control_design', 1994, #14 ) ;
#14 = APPLICATION_CONTEXT ( 'configuration controlled 3d designs of mechanical parts and assemblies' ) ;
#15 = PRODUCT ( 'C-30-RK-3220', 'C-30-RK-3220', '', ( #16 ) ) ;
#16 = MECHANICAL_CONTEXT ( 'NONE', #14, 'mechanical' ) ;
#17 = PERSON ( 'UNSPECIFIED', 'UNSPECIFIED', 'UNSPECIFIED', ('UNSPECIFIED'), ('UNSPECIFIED'), ('UNSPECIFIED') ) ;
#18 = ORIENTED_EDGE ( 'NONE', *, *, #50, .F. ) ;
#19 = EDGE_LOOP ( 'NONE', ( #20, #21 ) ) ;
#20 = ORIENTED_EDGE ( 'NONE', *, *, #85, .T. ) ;
#21 = ORIENTED_EDGE ( 'NONE', *, *, #39, .T. ) ;
#22 = ADVANCED_FACE ( 'NONE', ( #258 ), #256, .F. ) ;
#23 = EDGE_LOOP ( 'NONE', ( #24, #25, #27, #28 ) ) ;
#24 = ORIENTED_EDGE ( 'NONE', *, *, #51, .F. ) ;
#25 = ORIENTED_EDGE ( 'NONE', *, *, #26, .F. ) ;
#26 = EDGE_CURVE ( 'NONE', #109, #111, #257, .T. ) ;
#27 = ORIENTED_EDGE ( 'NONE', *, *, #41, .T. ) ;
#28 = ORIENTED_EDGE ( 'NONE', *, *, #91, .T. ) ;
#29 = ADVANCED_FACE ( 'NONE', ( #289, #288 ), #287, .F. ) ;
#30 = EDGE_LOOP ( 'NONE', ( #31, #33 ) ) ;
#31 = ORIENTED_EDGE ( 'NONE', *, *, #32, .F. ) ;
#32 = EDGE_CURVE ( 'NONE', #101, #103, #142, .T. ) ;
#33 = ORIENTED_EDGE ( 'NONE', *, *, #105, .F. ) ;
#34 = EDGE_LOOP ( 'NONE', ( #35, #36 ) ) ;
#35 = ORIENTED_EDGE ( 'NONE', *, *, #26, .T. ) ;
#36 = ORIENTED_EDGE ( 'NONE', *, *, #110, .T. ) ;
#37 = ADVANCED_FACE ( 'NONE', ( #137 ), #136, .T. ) ;
#38 = EDGE_LOOP ( 'NONE', ( #10, #9, #11, #12 ) ) ;
#39 = EDGE_CURVE ( 'NONE', #45, #47, #130, .T. ) ;
#40 = ORIENTED_EDGE ( 'NONE', *, *, #8, .T. ) ;
#41 = EDGE_CURVE ( 'NONE', #109, #108, #126, .T. ) ;
#42 = ADVANCED_FACE ( 'NONE', ( #122 ), #121, .F. ) ;
#43 = EDGE_LOOP ( 'NONE', ( #44, #40, #5, #1 ) ) ;
#44 = ORIENTED_EDGE ( 'NONE', *, *, #39, .F. ) ;
#45 = VERTEX_POINT ( 'NONE', #116 ) ;
#46 = ORIENTED_EDGE ( 'NONE', *, *, #41, .F. ) ;
#47 = VERTEX_POINT ( 'NONE', #115 ) ;
#48 = VERTEX_POINT ( 'NONE', #114 ) ;
#49 = ORIENTED_EDGE ( 'NONE', *, *, #50, .T. ) ;
#50 = EDGE_CURVE ( 'NONE', #48, #108, #113, .T. ) ;
#51 = EDGE_CURVE ( 'NONE', #111, #48, #176, .T. ) ;
#52 = EDGE_CURVE ( 'NONE', #106, #101, #168, .T. ) ;
#53 = ADVANCED_FACE ( 'NONE', ( #164 ), #162, .F. ) ;
#54 = ADVANCED_FACE ( 'NONE', ( #157 ), #156, .T. ) ;
#55 = EDGE_LOOP ( 'NONE', ( #56, #57, #60, #63 ) ) ;
#56 = ORIENTED_EDGE ( 'NONE', *, *, #95, .T. ) ;
#57 = ORIENTED_EDGE ( 'NONE', *, *, #58, .T. ) ;
#58 = EDGE_CURVE ( 'NONE', #106, #59, #152, .T. ) ;
#59 = VERTEX_POINT ( 'NONE', #147 ) ;
#60 = ORIENTED_EDGE ( 'NONE', *, *, #61, .F. ) ;
#61 = EDGE_CURVE ( 'NONE', #62, #59, #146, .T. ) ;
#62 = VERTEX_POINT ( 'NONE', #214 ) ;
#63 = ORIENTED_EDGE ( 'NONE', *, *, #64, .F. ) ;
#64 = EDGE_CURVE ( 'NONE', #96, #62, #213, .T. ) ;
#65 = ADVANCED_FACE ( 'NONE', ( #208 ), #207, .T. ) ;
#66 = EDGE_LOOP ( 'NONE', ( #67, #68, #70, #71 ) ) ;
#67 = ORIENTED_EDGE ( 'NONE', *, *, #58, .F. ) ;
#68 = ORIENTED_EDGE ( 'NONE', *, *, #69, .T. ) ;
#69 = EDGE_CURVE ( 'NONE', #106, #96, #201, .T. ) ;
#70 = ORIENTED_EDGE ( 'NONE', *, *, #64, .T. ) ;
#71 = ORIENTED_EDGE ( 'NONE', *, *, #72, .F. ) ;
#72 = EDGE_CURVE ( 'NONE', #59, #62, #197, .T. ) ;
#73 = ADVANCED_FACE ( 'NONE', ( #192, #191 ), #190, .F. ) ;
#74 = EDGE_LOOP ( 'NONE', ( #75, #77 ) ) ;
#75 = ORIENTED_EDGE ( 'NONE', *, *, #76, .F. ) ;
#76 = EDGE_CURVE ( 'NONE', #3, #4, #251, .T. ) ;
#77 = ORIENTED_EDGE ( 'NONE', *, *, #6, .F. ) ;
#78 = EDGE_LOOP ( 'NONE', ( #79, #80 ) ) ;
#79 = ORIENTED_EDGE ( 'NONE', *, *, #61, .T. ) ;
#80 = ORIENTED_EDGE ( 'NONE', *, *, #72, .T. ) ;
#81 = ADVANCED_FACE ( 'NONE', ( #246 ), #245, .F. ) ;
#82 = EDGE_LOOP ( 'NONE', ( #83, #84, #86, #88 ) ) ;
#83 = ORIENTED_EDGE ( 'NONE', *, *, #8, .F. ) ;
#84 = ORIENTED_EDGE ( 'NONE', *, *, #85, .F. ) ;
#85 = EDGE_CURVE ( 'NONE', #47, #45, #239, .T. ) ;
#86 = ORIENTED_EDGE ( 'NONE', *, *, #2, .T. ) ;
#87 = EDGE_LOOP ( 'NONE', ( #90, #18 ) ) ;
#88 = ORIENTED_EDGE ( 'NONE', *, *, #76, .T. ) ;
#89 = ADVANCED_FACE ( 'NONE', ( #235, #234 ), #233, .F. ) ;
#90 = ORIENTED_EDGE ( 'NONE', *, *, #91, .F. ) ;
#91 = EDGE_CURVE ( 'NONE', #108, #48, #228, .T. ) ;
#92 = ADVANCED_FACE ( 'NONE', ( #223 ), #222, .T. ) ;
#93 = EDGE_LOOP ( 'NONE', ( #98, #97, #104, #102 ) ) ;
#94 = MANIFOLD_SOLID_BREP ( 'NONE', #7 ) ;
#95 = EDGE_CURVE ( 'NONE', #96, #106, #281, .T. ) ;
#96 = VERTEX_POINT ( 'NONE', #276 ) ;
#97 = ORIENTED_EDGE ( 'NONE', *, *, #99, .T. ) ;
#98 = ORIENTED_EDGE ( 'NONE', *, *, #95, .F. ) ;
#99 = EDGE_CURVE ( 'NONE', #96, #103, #275, .T. ) ;
#100 = EDGE_LOOP ( 'NONE', ( #112, #107, #49, #46 ) ) ;
#101 = VERTEX_POINT ( 'NONE', #270 ) ;
#102 = ORIENTED_EDGE ( 'NONE', *, *, #52, .F. ) ;
#103 = VERTEX_POINT ( 'NONE', #271 ) ;
#104 = ORIENTED_EDGE ( 'NONE', *, *, #105, .T. ) ;
#105 = EDGE_CURVE ( 'NONE', #103, #101, #310, .T. ) ;
#106 = VERTEX_POINT ( 'NONE', #305 ) ;
#107 = ORIENTED_EDGE ( 'NONE', *, *, #51, .T. ) ;
#108 = VERTEX_POINT ( 'NONE', #304 ) ;
#109 = VERTEX_POINT ( 'NONE', #303 ) ;
#110 = EDGE_CURVE ( 'NONE', #111, #109, #302, .T. ) ;
#111 = VERTEX_POINT ( 'NONE', #297 ) ;
#112 = ORIENTED_EDGE ( 'NONE', *, *, #110, .F. ) ;
#113 = CIRCLE ( 'NONE', #175, 2.500000000000000000 ) ;
#114 = CARTESIAN_POINT ( 'NONE',  ( -5.009323225592821800E-010, -9.999999996500434900, -2.500000000000000000 ) ) ;
#115 = CARTESIAN_POINT ( 'NONE',  ( -5.009326287108706300E-010, -9.999999996500434900, 7.500000000000000000 ) ) ;
#116 = CARTESIAN_POINT ( 'NONE',  ( -5.009317102561052600E-010, -9.999999996500434900, -7.500000000000000000 ) ) ;
#117 = DIRECTION ( 'NONE',  ( 0.0000000000000000000, 0.0000000000000000000, 1.000000000000000000 ) ) ;
#118 = DIRECTION ( 'NONE',  ( 0.0000000000000000000, 1.000000000000000000, 0.0000000000000000000 ) ) ;
#119 = CARTESIAN_POINT ( 'NONE',  ( -5.009326287108706300E-010, 2.412507003500041800, 0.0000000000000000000 ) ) ;
#120 = AXIS2_PLACEMENT_3D ( 'NONE', #119, #118, #117 ) ;
#121 = CYLINDRICAL_SURFACE ( 'NONE', #120, 7.500000000000000000 ) ;
#122 = FACE_OUTER_BOUND ( 'NONE', #43, .T. ) ;
#123 = DIRECTION ( 'NONE',  ( 0.0000000000000000000, 1.000000000000000000, 0.0000000000000000000 ) ) ;
#124 = VECTOR ( 'NONE', #123, 1000.000000000000000 ) ;
#125 = CARTESIAN_POINT ( 'NONE',  ( -5.009326287108706300E-010, 2.412507003500041800, 2.500000000000000400 ) ) ;
#126 = LINE ( 'NONE', #125, #124 ) ;
#127 = DIRECTION ( 'NONE',  ( 0.0000000000000000000, 0.0000000000000000000, 1.000000000000000000 ) ) ;
#128 = DIRECTION ( 'NONE',  ( 0.0000000000000000000, 1.000000000000000000, 0.0000000000000000000 ) ) ;
#129 = AXIS2_PLACEMENT_3D ( 'NONE', #135, #128, #127 ) ;
#130 = CIRCLE ( 'NONE', #129, 7.500000000000000000 ) ;
#131 = DIRECTION ( 'NONE',  ( 0.0000000000000000000, 0.0000000000000000000, -1.000000000000000000 ) ) ;
#132 = DIRECTION ( 'NONE',  ( 0.0000000000000000000, -1.000000000000000000, 0.0000000000000000000 ) ) ;
#133 = CARTESIAN_POINT ( 'NONE',  ( -5.009326287108706300E-010, -19.99999999650043500, 0.0000000000000000000 ) ) ;
#134 = AXIS2_PLACEMENT_3D ( 'NONE', #133, #132, #131 ) ;
#135 = CARTESIAN_POINT ( 'NONE',  ( -5.009326287108706300E-010, -9.999999996500434900, 0.0000000000000000000 ) ) ;
#136 = CONICAL_SURFACE ( 'NONE', #134, 16.00000000000000000, 0.1488899476094973900 ) ;
#137 = FACE_OUTER_BOUND ( 'NONE', #38, .T. ) ;
#138 = DIRECTION ( 'NONE',  ( 0.0000000000000000000, 0.0000000000000000000, 1.000000000000000000 ) ) ;
#139 = DIRECTION ( 'NONE',  ( 0.0000000000000000000, 1.000000000000000000, 0.0000000000000000000 ) ) ;
#140 = CARTESIAN_POINT ( 'NONE',  ( -5.009326287108706300E-010, -19.99999999650043500, 0.0000000000000000000 ) ) ;
#141 = AXIS2_PLACEMENT_3D ( 'NONE', #140, #139, #138 ) ;
#142 = CIRCLE ( 'NONE', #141, 16.00000000000000000 ) ;
#143 = DIRECTION ( 'NONE',  ( 0.0000000000000000000, 0.0000000000000000000, 1.000000000000000000 ) ) ;
#144 = DIRECTION ( 'NONE',  ( 0.0000000000000000000, 1.000000000000000000, 0.0000000000000000000 ) ) ;
#145 = CARTESIAN_POINT ( 'NONE',  ( 2.499999999499068700, -19.99999999650043500, 0.0000000000000000000 ) ) ;
#146 = CIRCLE ( 'NONE', #218, 11.92351572399020700 ) ;
#147 = CARTESIAN_POINT ( 'NONE',  ( -5.009310928584502400E-010, 3.499565220943523500E-009, -11.92351572399020700 ) ) ;
#148 = DIRECTION ( 'NONE',  ( 1.224606354016248500E-016, 0.0000000000000000000, -1.000000000000000000 ) ) ;
#149 = DIRECTION ( 'NONE',  ( 1.000000000000000000, 0.0000000000000000000, 1.224606353822377300E-016 ) ) ;
#150 = CARTESIAN_POINT ( 'NONE',  ( -5.009311685495590500E-010, -1.249999996500434700, -11.92351572399020700 ) ) ;
#151 = AXIS2_PLACEMENT_3D ( 'NONE', #150, #149, #148 ) ;
#152 = CIRCLE ( 'NONE', #151, 1.249999999999999300 ) ;
#153 = DIRECTION ( 'NONE',  ( 0.0000000000000000000, 0.0000000000000000000, 1.000000000000000000 ) ) ;
#154 = DIRECTION ( 'NONE',  ( 0.0000000000000000000, 1.000000000000000000, 0.0000000000000000000 ) ) ;
#155 = AXIS2_PLACEMENT_3D ( 'NONE', #163, #154, #153 ) ;
#156 = TOROIDAL_SURFACE ( 'NONE', #155, 11.92351572399020700, 1.249999999999998900 ) ;
#157 = FACE_OUTER_BOUND ( 'NONE', #55, .T. ) ;
#158 = DIRECTION ( 'NONE',  ( 0.0000000000000000000, 0.0000000000000000000, 1.000000000000000000 ) ) ;
#159 = DIRECTION ( 'NONE',  ( 0.0000000000000000000, 1.000000000000000000, 0.0000000000000000000 ) ) ;
#160 = CARTESIAN_POINT ( 'NONE',  ( -5.009326287108706300E-010, 2.412507003500041800, 0.0000000000000000000 ) ) ;
#161 = AXIS2_PLACEMENT_3D ( 'NONE', #160, #159, #158 ) ;
#162 = CYLINDRICAL_SURFACE ( 'NONE', #161, 2.500000000000000400 ) ;
#163 = CARTESIAN_POINT ( 'NONE',  ( -5.009326287108706300E-010, -1.249999996500434700, 0.0000000000000000000 ) ) ;
#164 = FACE_OUTER_BOUND ( 'NONE', #100, .T. ) ;
#165 = DIRECTION ( 'NONE',  ( 0.0000000000000000000, -0.9889363528682975100, -0.1483404529302447800 ) ) ;
#166 = VECTOR ( 'NONE', #165, 1000.000000000000000 ) ;
#167 = CARTESIAN_POINT ( 'NONE',  ( -5.009326287108706300E-010, -19.99999999650043500, -16.00000000000000000 ) ) ;
#168 = LINE ( 'NONE', #167, #166 ) ;
#169 = DIRECTION ( 'NONE',  ( 0.0000000000000000000, 1.000000000000000000, 0.0000000000000000000 ) ) ;
#170 = VECTOR ( 'NONE', #169, 1000.000000000000000 ) ;
#171 = CARTESIAN_POINT ( 'NONE',  ( -5.009323225592821800E-010, 2.412507003500041800, -2.500000000000000400 ) ) ;
#172 = DIRECTION ( 'NONE',  ( 0.0000000000000000000, 0.0000000000000000000, 1.000000000000000000 ) ) ;
#173 = DIRECTION ( 'NONE',  ( 0.0000000000000000000, 1.000000000000000000, 0.0000000000000000000 ) ) ;
#174 = CARTESIAN_POINT ( 'NONE',  ( -5.009326287108706300E-010, -9.999999996500434900, 0.0000000000000000000 ) ) ;
#175 = AXIS2_PLACEMENT_3D ( 'NONE', #174, #173, #172 ) ;
#176 = LINE ( 'NONE', #171, #170 ) ;
#177 = ORGANIZATION ( 'UNSPECIFIED', 'UNSPECIFIED', '' ) ;
#178 = DIRECTION ( 'NONE',  ( 1.000000000000000000, 0.0000000000000000000, 0.0000000000000000000 ) ) ;
#179 = DIRECTION ( 'NONE',  ( 0.0000000000000000000, 0.0000000000000000000, 1.000000000000000000 ) ) ;
#180 = AXIS2_PLACEMENT_3D ( 'NONE', #296, #179, #178 ) ;
#181 = ADVANCED_BREP_SHAPE_REPRESENTATION ( 'C-30-RK-3220', ( #94, #180 ), #182 ) ;
#182 =( GEOMETRIC_REPRESENTATION_CONTEXT ( 3 ) GLOBAL_UNCERTAINTY_ASSIGNED_CONTEXT ( ( #183 ) ) GLOBAL_UNIT_ASSIGNED_CONTEXT ( ( #269, #185, #184 ) ) REPRESENTATION_CONTEXT ( 'NONE', 'WORKASPACE' ) );
#183 = UNCERTAINTY_MEASURE_WITH_UNIT (LENGTH_MEASURE( 1.000000000000000100E-005 ), #269, 'distance_accuracy_value', 'NONE');
#184 =( NAMED_UNIT ( * ) SI_UNIT ( $, .STERADIAN. ) SOLID_ANGLE_UNIT ( ) );
#185 =( NAMED_UNIT ( * ) PLANE_ANGLE_UNIT ( ) SI_UNIT ( $, .RADIAN. ) );
#186 = DIRECTION ( 'NONE',  ( 0.0000000000000000000, 0.0000000000000000000, -1.000000000000000000 ) ) ;
#187 = DIRECTION ( 'NONE',  ( 0.0000000000000000000, -1.000000000000000000, 0.0000000000000000000 ) ) ;
#188 = CARTESIAN_POINT ( 'NONE',  ( 11.92351572348927400, 3.499565220943523500E-009, 0.0000000000000000000 ) ) ;
#189 = AXIS2_PLACEMENT_3D ( 'NONE', #188, #187, #186 ) ;
#190 = PLANE ( 'NONE',  #189 ) ;
#191 = FACE_OUTER_BOUND ( 'NONE', #78, .T. ) ;
#192 = FACE_BOUND ( 'NONE', #74, .T. ) ;
#193 = DIRECTION ( 'NONE',  ( 0.0000000000000000000, 0.0000000000000000000, 1.000000000000000000 ) ) ;
#194 = DIRECTION ( 'NONE',  ( 0.0000000000000000000, 1.000000000000000000, 0.0000000000000000000 ) ) ;
#195 = CARTESIAN_POINT ( 'NONE',  ( -5.009326287108706300E-010, 3.499565220943523500E-009, 0.0000000000000000000 ) ) ;
#196 = AXIS2_PLACEMENT_3D ( 'NONE', #195, #194, #193 ) ;
#197 = CIRCLE ( 'NONE', #196, 11.92351572399020700 ) ;
#198 = DIRECTION ( 'NONE',  ( 0.0000000000000000000, 0.0000000000000000000, 1.000000000000000000 ) ) ;
#199 = DIRECTION ( 'NONE',  ( 0.0000000000000000000, 1.000000000000000000, 0.0000000000000000000 ) ) ;
#200 = AXIS2_PLACEMENT_3D ( 'NONE', #206, #199, #198 ) ;
#201 = CIRCLE ( 'NONE', #200, 13.15968616507557700 ) ;
#202 = DIRECTION ( 'NONE',  ( 0.0000000000000000000, 0.0000000000000000000, 1.000000000000000000 ) ) ;
#203 = DIRECTION ( 'NONE',  ( 0.0000000000000000000, 1.000000000000000000, 0.0000000000000000000 ) ) ;
#204 = CARTESIAN_POINT ( 'NONE',  ( -5.009326287108706300E-010, -1.249999996500434700, 0.0000000000000000000 ) ) ;
#205 = AXIS2_PLACEMENT_3D ( 'NONE', #204, #203, #202 ) ;
#206 = CARTESIAN_POINT ( 'NONE',  ( -5.009326287108706300E-010, -1.064574430337629200, 0.0000000000000000000 ) ) ;
#207 = TOROIDAL_SURFACE ( 'NONE', #205, 11.92351572399020700, 1.249999999999998900 ) ;
#208 = FACE_OUTER_BOUND ( 'NONE', #66, .T. ) ;
#209 = DIRECTION ( 'NONE',  ( 0.0000000000000000000, 0.0000000000000000000, 1.000000000000000000 ) ) ;
#210 = DIRECTION ( 'NONE',  ( -1.000000000000000000, 0.0000000000000000000, 0.0000000000000000000 ) ) ;
#211 = CARTESIAN_POINT ( 'NONE',  ( -5.009326287108706300E-010, -1.249999996500434700, 11.92351572399020700 ) ) ;
#212 = AXIS2_PLACEMENT_3D ( 'NONE', #211, #210, #209 ) ;
#213 = CIRCLE ( 'NONE', #212, 1.249999999999999300 ) ;
#214 = CARTESIAN_POINT ( 'NONE',  ( -5.009326287108706300E-010, 3.499565220943523500E-009, 11.92351572399020700 ) ) ;
#215 = DIRECTION ( 'NONE',  ( 0.0000000000000000000, 0.0000000000000000000, 1.000000000000000000 ) ) ;
#216 = DIRECTION ( 'NONE',  ( 0.0000000000000000000, 1.000000000000000000, 0.0000000000000000000 ) ) ;
#217 = CARTESIAN_POINT ( 'NONE',  ( -5.009326287108706300E-010, 3.499565220943523500E-009, 0.0000000000000000000 ) ) ;
#218 = AXIS2_PLACEMENT_3D ( 'NONE', #217, #216, #215 ) ;
#219 = DIRECTION ( 'NONE',  ( 0.0000000000000000000, -1.000000000000000000, 0.0000000000000000000 ) ) ;
#220 = CARTESIAN_POINT ( 'NONE',  ( -5.009326287108706300E-010, -19.99999999650043500, 0.0000000000000000000 ) ) ;
#221 = AXIS2_PLACEMENT_3D ( 'NONE', #220, #219, #282 ) ;
#222 = CONICAL_SURFACE ( 'NONE', #221, 16.00000000000000000, 0.1488899476094973900 ) ;
#223 = FACE_OUTER_BOUND ( 'NONE', #93, .T. ) ;
#224 = DIRECTION ( 'NONE',  ( 0.0000000000000000000, 0.0000000000000000000, 1.000000000000000000 ) ) ;
#225 = DIRECTION ( 'NONE',  ( 0.0000000000000000000, 1.000000000000000000, 0.0000000000000000000 ) ) ;
#226 = CARTESIAN_POINT ( 'NONE',  ( -5.009326287108706300E-010, -9.999999996500434900, 0.0000000000000000000 ) ) ;
#227 = AXIS2_PLACEMENT_3D ( 'NONE', #226, #225, #224 ) ;
#228 = CIRCLE ( 'NONE', #227, 2.500000000000000000 ) ;
#229 = DIRECTION ( 'NONE',  ( 0.0000000000000000000, 0.0000000000000000000, -1.000000000000000000 ) ) ;
#230 = DIRECTION ( 'NONE',  ( 0.0000000000000000000, -1.000000000000000000, 0.0000000000000000000 ) ) ;
#231 = CARTESIAN_POINT ( 'NONE',  ( 7.499999999499067400, -9.999999996500434900, 0.0000000000000000000 ) ) ;
#232 = AXIS2_PLACEMENT_3D ( 'NONE', #231, #230, #229 ) ;
#233 = PLANE ( 'NONE',  #232 ) ;
#234 = FACE_OUTER_BOUND ( 'NONE', #19, .T. ) ;
#235 = FACE_BOUND ( 'NONE', #87, .T. ) ;
#236 = DIRECTION ( 'NONE',  ( 0.0000000000000000000, 0.0000000000000000000, 1.000000000000000000 ) ) ;
#237 = DIRECTION ( 'NONE',  ( 0.0000000000000000000, 1.000000000000000000, 0.0000000000000000000 ) ) ;
#238 = AXIS2_PLACEMENT_3D ( 'NONE', #244, #237, #236 ) ;
#239 = CIRCLE ( 'NONE', #238, 7.500000000000000000 ) ;
#240 = DIRECTION ( 'NONE',  ( 0.0000000000000000000, 0.0000000000000000000, 1.000000000000000000 ) ) ;
#241 = DIRECTION ( 'NONE',  ( 0.0000000000000000000, 1.000000000000000000, 0.0000000000000000000 ) ) ;
#242 = CARTESIAN_POINT ( 'NONE',  ( -5.009326287108706300E-010, 2.412507003500041800, 0.0000000000000000000 ) ) ;
#243 = AXIS2_PLACEMENT_3D ( 'NONE', #242, #241, #240 ) ;
#244 = CARTESIAN_POINT ( 'NONE',  ( -5.009326287108706300E-010, -9.999999996500434900, 0.0000000000000000000 ) ) ;
#245 = CYLINDRICAL_SURFACE ( 'NONE', #243, 7.500000000000000000 ) ;
#246 = FACE_OUTER_BOUND ( 'NONE', #82, .T. ) ;
#247 = DIRECTION ( 'NONE',  ( 0.0000000000000000000, 0.0000000000000000000, 1.000000000000000000 ) ) ;
#248 = DIRECTION ( 'NONE',  ( 0.0000000000000000000, 1.000000000000000000, 0.0000000000000000000 ) ) ;
#249 = CARTESIAN_POINT ( 'NONE',  ( -5.009326287108706300E-010, 3.499565220943523500E-009, 0.0000000000000000000 ) ) ;
#250 = AXIS2_PLACEMENT_3D ( 'NONE', #249, #248, #247 ) ;
#251 = CIRCLE ( 'NONE', #250, 7.500000000000000000 ) ;
#252 = DIRECTION ( 'NONE',  ( 0.0000000000000000000, 0.0000000000000000000, 1.000000000000000000 ) ) ;
#253 = DIRECTION ( 'NONE',  ( 0.0000000000000000000, 1.000000000000000000, 0.0000000000000000000 ) ) ;
#254 = CARTESIAN_POINT ( 'NONE',  ( -5.009326287108706300E-010, 2.412507003500041800, 0.0000000000000000000 ) ) ;
#255 = AXIS2_PLACEMENT_3D ( 'NONE', #254, #253, #252 ) ;
#256 = CYLINDRICAL_SURFACE ( 'NONE', #255, 2.500000000000000400 ) ;
#257 = CIRCLE ( 'NONE', #293, 2.500000000000001300 ) ;
#258 = FACE_OUTER_BOUND ( 'NONE', #23, .T. ) ;
#259 = DIRECTION ( 'NONE',  ( 0.0000000000000000000, 1.000000000000000000, 0.0000000000000000000 ) ) ;
#260 = VECTOR ( 'NONE', #259, 1000.000000000000000 ) ;
#261 = CARTESIAN_POINT ( 'NONE',  ( -5.009317102561052600E-010, 2.412507003500041800, -7.500000000000000000 ) ) ;
#262 = LINE ( 'NONE', #261, #260 ) ;
#263 = DIRECTION ( 'NONE',  ( 0.0000000000000000000, 0.0000000000000000000, 1.000000000000000000 ) ) ;
#264 = DIRECTION ( 'NONE',  ( 0.0000000000000000000, 1.000000000000000000, 0.0000000000000000000 ) ) ;
#265 = CARTESIAN_POINT ( 'NONE',  ( -5.009326287108706300E-010, 3.499565220943523500E-009, 0.0000000000000000000 ) ) ;
#266 = AXIS2_PLACEMENT_3D ( 'NONE', #265, #264, #263 ) ;
#267 = CARTESIAN_POINT ( 'NONE',  ( -5.009317102561052600E-010, 3.499565220943523500E-009, -7.500000000000000000 ) ) ;
#268 = VECTOR ( 'NONE', #284, 1000.000000000000000 ) ;
#269 =( LENGTH_UNIT ( ) NAMED_UNIT ( * ) SI_UNIT ( .MILLI., .METRE. ) );
#270 = CARTESIAN_POINT ( 'NONE',  ( -5.009326287108706300E-010, -19.99999999650043500, -16.00000000000000000 ) ) ;
#271 = CARTESIAN_POINT ( 'NONE',  ( -5.009306693407045200E-010, -19.99999999650043500, 16.00000000000000000 ) ) ;
#272 = DIRECTION ( 'NONE',  ( 1.816586611872670400E-017, -0.9889363528682975100, 0.1483404529302447800 ) ) ;
#273 = VECTOR ( 'NONE', #272, 1000.000000000000000 ) ;
#274 = CARTESIAN_POINT ( 'NONE',  ( -5.009306693407045200E-010, -19.99999999650043500, 16.00000000000000000 ) ) ;
#275 = LINE ( 'NONE', #274, #273 ) ;
#276 = CARTESIAN_POINT ( 'NONE',  ( -5.009326287108706300E-010, -1.064574430337629200, 13.15968616507557900 ) ) ;
#277 = DIRECTION ( 'NONE',  ( 0.0000000000000000000, 0.0000000000000000000, 1.000000000000000000 ) ) ;
#278 = DIRECTION ( 'NONE',  ( 0.0000000000000000000, 1.000000000000000000, 0.0000000000000000000 ) ) ;
#279 = CARTESIAN_POINT ( 'NONE',  ( -5.009326287108706300E-010, -1.064574430337629200, 0.0000000000000000000 ) ) ;
#280 = AXIS2_PLACEMENT_3D ( 'NONE', #279, #278, #277 ) ;
#281 = CIRCLE ( 'NONE', #280, 13.15968616507557700 ) ;
#282 = DIRECTION ( 'NONE',  ( 0.0000000000000000000, 0.0000000000000000000, -1.000000000000000000 ) ) ;
#283 = CARTESIAN_POINT ( 'NONE',  ( -5.009326287108706300E-010, 3.499565220943523500E-009, 7.500000000000000000 ) ) ;
#284 = DIRECTION ( 'NONE',  ( 0.0000000000000000000, 1.000000000000000000, 0.0000000000000000000 ) ) ;
#285 = CARTESIAN_POINT ( 'NONE',  ( -5.009326287108706300E-010, 2.412507003500041800, 7.500000000000000000 ) ) ;
#286 = AXIS2_PLACEMENT_3D ( 'NONE', #145, #144, #143 ) ;
#287 = PLANE ( 'NONE',  #286 ) ;
#288 = FACE_BOUND ( 'NONE', #34, .T. ) ;
#289 = FACE_OUTER_BOUND ( 'NONE', #30, .T. ) ;
#290 = DIRECTION ( 'NONE',  ( 0.0000000000000000000, 0.0000000000000000000, 1.000000000000000000 ) ) ;
#291 = DIRECTION ( 'NONE',  ( 0.0000000000000000000, 1.000000000000000000, 0.0000000000000000000 ) ) ;
#292 = CARTESIAN_POINT ( 'NONE',  ( -5.009326287108706300E-010, -19.99999999650043500, 0.0000000000000000000 ) ) ;
#293 = AXIS2_PLACEMENT_3D ( 'NONE', #292, #291, #290 ) ;
#294 = CIRCLE ( 'NONE', #266, 7.500000000000000000 ) ;
#295 = LINE ( 'NONE', #285, #268 ) ;
#296 = CARTESIAN_POINT ( 'NONE',  ( 0.0000000000000000000, 0.0000000000000000000, 0.0000000000000000000 ) ) ;
#297 = CARTESIAN_POINT ( 'NONE',  ( -5.009323225592821800E-010, -19.99999999650043500, -2.500000000000001300 ) ) ;
#298 = DIRECTION ( 'NONE',  ( 0.0000000000000000000, 0.0000000000000000000, 1.000000000000000000 ) ) ;
#299 = DIRECTION ( 'NONE',  ( 0.0000000000000000000, 1.000000000000000000, 0.0000000000000000000 ) ) ;
#300 = CARTESIAN_POINT ( 'NONE',  ( -5.009326287108706300E-010, -19.99999999650043500, 0.0000000000000000000 ) ) ;
#301 = AXIS2_PLACEMENT_3D ( 'NONE', #300, #299, #298 ) ;
#302 = CIRCLE ( 'NONE', #301, 2.500000000000001300 ) ;
#303 = CARTESIAN_POINT ( 'NONE',  ( -5.009326287108706300E-010, -19.99999999650043500, 2.500000000000001300 ) ) ;
#304 = CARTESIAN_POINT ( 'NONE',  ( -5.009326287108706300E-010, -9.999999996500434900, 2.500000000000000000 ) ) ;
#305 = CARTESIAN_POINT ( 'NONE',  ( -5.009310171673414400E-010, -1.064574430337629200, -13.15968616507557900 ) ) ;
#306 = DIRECTION ( 'NONE',  ( 0.0000000000000000000, 0.0000000000000000000, 1.000000000000000000 ) ) ;
#307 = DIRECTION ( 'NONE',  ( 0.0000000000000000000, 1.000000000000000000, 0.0000000000000000000 ) ) ;
#308 = CARTESIAN_POINT ( 'NONE',  ( -5.009326287108706300E-010, -19.99999999650043500, 0.0000000000000000000 ) ) ;
#309 = AXIS2_PLACEMENT_3D ( 'NONE', #308, #307, #306 ) ;
#310 = CIRCLE ( 'NONE', #309, 16.00000000000000000 ) ;
#311 = PERSON_AND_ORGANIZATION_ROLE ( 'creator' ) ;
#312 = CC_DESIGN_APPROVAL ( #376, ( #377 ) ) ;
#313 = CC_DESIGN_SECURITY_CLASSIFICATION ( #351, ( #365 ) ) ;
#314 = CC_DESIGN_APPROVAL ( #327, ( #351 ) ) ;
#315 = APPROVAL_DATE_TIME ( #316, #327 ) ;
#316 = DATE_AND_TIME ( #317, #323 ) ;
#317 = CALENDAR_DATE ( 2009, 26, 6 ) ;
#318 = APPROVAL_PERSON_ORGANIZATION ( #353, #376, #319 ) ;
#319 = APPROVAL_ROLE ( '' ) ;
#320 = COORDINATED_UNIVERSAL_TIME_OFFSET ( 9, 0, .AHEAD. ) ;
#321 = APPLICATION_PROTOCOL_DEFINITION ( 'international standard', 'config_control_design', 1994, #378 ) ;
#322 = PERSON_AND_ORGANIZATION ( #17, #177 ) ;
#323 = LOCAL_TIME ( 16, 55, 56.00000000000000000, #324 ) ;
#324 = COORDINATED_UNIVERSAL_TIME_OFFSET ( 9, 0, .AHEAD. ) ;
#325 = APPROVAL_PERSON_ORGANIZATION ( #329, #327, #326 ) ;
#326 = APPROVAL_ROLE ( '' ) ;
#327 = APPROVAL ( #328, 'UNSPECIFIED' ) ;
#328 = APPROVAL_STATUS ( 'not_yet_approved' ) ;
#329 = PERSON_AND_ORGANIZATION ( #17, #177 ) ;
#330 = CC_DESIGN_DATE_AND_TIME_ASSIGNMENT ( #344, #331, ( #351 ) ) ;
#331 = DATE_TIME_ROLE ( 'classification_date' ) ;
#332 = PERSON_AND_ORGANIZATION ( #17, #177 ) ;
#333 = CC_DESIGN_APPROVAL ( #341, ( #365 ) ) ;
#334 = APPROVAL_DATE_TIME ( #335, #341 ) ;
#335 = DATE_AND_TIME ( #336, #337 ) ;
#336 = CALENDAR_DATE ( 2009, 26, 6 ) ;
#337 = LOCAL_TIME ( 16, 55, 56.00000000000000000, #338 ) ;
#338 = COORDINATED_UNIVERSAL_TIME_OFFSET ( 9, 0, .AHEAD. ) ;
#339 = APPROVAL_PERSON_ORGANIZATION ( #364, #341, #340 ) ;
#340 = APPROVAL_ROLE ( '' ) ;
#341 = APPROVAL ( #342, 'UNSPECIFIED' ) ;
#342 = APPROVAL_STATUS ( 'not_yet_approved' ) ;
#343 = PERSON_AND_ORGANIZATION_ROLE ( 'design_owner' ) ;
#344 = DATE_AND_TIME ( #345, #346 ) ;
#345 = CALENDAR_DATE ( 2009, 26, 6 ) ;
#346 = LOCAL_TIME ( 16, 55, 56.00000000000000000, #347 ) ;
#347 = COORDINATED_UNIVERSAL_TIME_OFFSET ( 9, 0, .AHEAD. ) ;
#348 = CC_DESIGN_PERSON_AND_ORGANIZATION_ASSIGNMENT ( #350, #349, ( #351 ) ) ;
#349 = PERSON_AND_ORGANIZATION_ROLE ( 'classification_officer' ) ;
#350 = PERSON_AND_ORGANIZATION ( #17, #177 ) ;
#351 = SECURITY_CLASSIFICATION ( '', '', #357 ) ;
#352 = APPROVAL_STATUS ( 'not_yet_approved' ) ;
#353 = PERSON_AND_ORGANIZATION ( #17, #177 ) ;
#354 = PERSON_AND_ORGANIZATION ( #17, #177 ) ;
#355 = LOCAL_TIME ( 16, 55, 56.00000000000000000, #356 ) ;
#356 = COORDINATED_UNIVERSAL_TIME_OFFSET ( 9, 0, .AHEAD. ) ;
#357 = SECURITY_CLASSIFICATION_LEVEL ( 'unclassified' ) ;
#358 = CC_DESIGN_PERSON_AND_ORGANIZATION_ASSIGNMENT ( #361, #359, ( #365 ) ) ;
#359 = PERSON_AND_ORGANIZATION_ROLE ( 'design_supplier' ) ;
#360 = DESIGN_CONTEXT ( 'detailed design', #378, 'design' ) ;
#361 = PERSON_AND_ORGANIZATION ( #17, #177 ) ;
#362 = CC_DESIGN_PERSON_AND_ORGANIZATION_ASSIGNMENT ( #332, #363, ( #365 ) ) ;
#363 = PERSON_AND_ORGANIZATION_ROLE ( 'creator' ) ;
#364 = PERSON_AND_ORGANIZATION ( #17, #177 ) ;
#365 = PRODUCT_DEFINITION_FORMATION_WITH_SPECIFIED_SOURCE ( 'ANY', '', #15, .NOT_KNOWN. ) ;
#366 = CC_DESIGN_DATE_AND_TIME_ASSIGNMENT ( #368, #367, ( #377 ) ) ;
#367 = DATE_TIME_ROLE ( 'creation_date' ) ;
#368 = DATE_AND_TIME ( #369, #370 ) ;
#369 = CALENDAR_DATE ( 2009, 26, 6 ) ;
#370 = LOCAL_TIME ( 16, 55, 56.00000000000000000, #320 ) ;
#371 = CC_DESIGN_PERSON_AND_ORGANIZATION_ASSIGNMENT ( #322, #311, ( #377 ) ) ;
#372 = CC_DESIGN_PERSON_AND_ORGANIZATION_ASSIGNMENT ( #354, #343, ( #15 ) ) ;
#373 = APPROVAL_DATE_TIME ( #374, #376 ) ;
#374 = DATE_AND_TIME ( #375, #355 ) ;
#375 = CALENDAR_DATE ( 2009, 26, 6 ) ;
#376 = APPROVAL ( #352, 'UNSPECIFIED' ) ;
#377 = PRODUCT_DEFINITION ( 'UNKNOWN', '', #365, #360 ) ;
#378 = APPLICATION_CONTEXT ( 'configuration controlled 3d designs of mechanical parts and assemblies' ) ;
#379 = SHAPE_DEFINITION_REPRESENTATION ( #380, #181 ) ;
#380 = PRODUCT_DEFINITION_SHAPE ( 'NONE', 'NONE',  #377 ) ;
#381 = PRODUCT_RELATED_PRODUCT_CATEGORY ( 'detail', '', ( #15 ) ) ;
ENDSEC;
END-ISO-10303-21;
