ISO-10303-21;
HEADER;
FILE_DESCRIPTION (( 'STEP AP203' ),
    '1' );
FILE_NAME ('C-30-RK-3215.STEP',
    '2009-06-29T04:09:01',
    ( '11sw' ),
    ( '^LQ»¢®ïÐ' ),
    'SwSTEP 2.0',
    'SolidWorks 2007',
    '' );
FILE_SCHEMA (( 'CONFIG_CONTROL_DESIGN' ));
ENDSEC;

DATA;
#1 = DIRECTION ( 'NONE',  ( 0.0000000000000000000, 0.0000000000000000000, 1.000000000000000000 ) ) ;
#2 = DIRECTION ( 'NONE',  ( 1.000000000000000000, 0.0000000000000000000, 0.0000000000000000000 ) ) ;
#3 = ADVANCED_FACE ( 'NONE', ( #94 ), #92, .F. ) ;
#4 = EDGE_LOOP ( 'NONE', ( #74, #81, #75, #51 ) ) ;
#5 = ORIENTED_EDGE ( 'NONE', *, *, #6, .T. ) ;
#6 = EDGE_CURVE ( 'NONE', #21, #7, #88, .T. ) ;
#7 = VERTEX_POINT ( 'NONE', #84 ) ;
#8 = ORIENTED_EDGE ( 'NONE', *, *, #9, .T. ) ;
#9 = EDGE_CURVE ( 'NONE', #7, #10, #141, .T. ) ;
#10 = VERTEX_POINT ( 'NONE', #198 ) ;
#11 = ORIENTED_EDGE ( 'NONE', *, *, #72, .F. ) ;
#12 = ORIENTED_EDGE ( 'NONE', *, *, #13, .T. ) ;
#13 = EDGE_CURVE ( 'NONE', #71, #14, #149, .T. ) ;
#14 = VERTEX_POINT ( 'NONE', #226 ) ;
#15 = ORIENTED_EDGE ( 'NONE', *, *, #16, .F. ) ;
#16 = EDGE_CURVE ( 'NONE', #68, #14, #203, .T. ) ;
#17 = ADVANCED_FACE ( 'NONE', ( #143 ), #278, .F. ) ;
#18 = EDGE_LOOP ( 'NONE', ( #19, #5, #8, #11 ) ) ;
#19 = ORIENTED_EDGE ( 'NONE', *, *, #20, .F. ) ;
#20 = EDGE_CURVE ( 'NONE', #21, #22, #229, .T. ) ;
#21 = VERTEX_POINT ( 'NONE', #131 ) ;
#22 = VERTEX_POINT ( 'NONE', #130 ) ;
#23 = MANIFOLD_SOLID_BREP ( 'NONE', #98 ) ;
#24 = ADVANCED_FACE ( 'NONE', ( #129 ), #262, .T. ) ;
#25 = EDGE_LOOP ( 'NONE', ( #26, #69, #12, #15 ) ) ;
#26 = ORIENTED_EDGE ( 'NONE', *, *, #66, .F. ) ;
#27 = ORIENTED_EDGE ( 'NONE', *, *, #43, .T. ) ;
#28 = ORIENTED_EDGE ( 'NONE', *, *, #31, .T. ) ;
#29 = EDGE_CURVE ( 'NONE', #50, #83, #257, .T. ) ;
#30 = ORIENTED_EDGE ( 'NONE', *, *, #29, .F. ) ;
#31 = EDGE_CURVE ( 'NONE', #48, #47, #209, .T. ) ;
#32 = ORIENTED_EDGE ( 'NONE', *, *, #31, .F. ) ;
#33 = ORIENTED_EDGE ( 'NONE', *, *, #76, .F. ) ;
#34 = EDGE_LOOP ( 'NONE', ( #35, #28 ) ) ;
#35 = ORIENTED_EDGE ( 'NONE', *, *, #46, .T. ) ;
#36 = ADVANCED_FACE ( 'NONE', ( #210, #204 ), #190, .F. ) ;
#37 = EDGE_LOOP ( 'NONE', ( #30, #33 ) ) ;
#38 = EDGE_CURVE ( 'NONE', #68, #67, #185, .T. ) ;
#39 = ORIENTED_EDGE ( 'NONE', *, *, #38, .T. ) ;
#40 = ORIENTED_EDGE ( 'NONE', *, *, #49, .F. ) ;
#41 = ADVANCED_FACE ( 'NONE', ( #123 ), #122, .T. ) ;
#42 = EDGE_LOOP ( 'NONE', ( #40, #39, #27, #32 ) ) ;
#43 = EDGE_CURVE ( 'NONE', #67, #47, #282, .T. ) ;
#44 = ORIENTED_EDGE ( 'NONE', *, *, #43, .F. ) ;
#45 = ORIENTED_EDGE ( 'NONE', *, *, #46, .F. ) ;
#46 = EDGE_CURVE ( 'NONE', #47, #48, #196, .T. ) ;
#47 = VERTEX_POINT ( 'NONE', #191 ) ;
#48 = VERTEX_POINT ( 'NONE', #291 ) ;
#49 = EDGE_CURVE ( 'NONE', #68, #48, #290, .T. ) ;
#50 = VERTEX_POINT ( 'NONE', #304 ) ;
#51 = ORIENTED_EDGE ( 'NONE', *, *, #53, .F. ) ;
#52 = EDGE_LOOP ( 'NONE', ( #73, #77, #45, #44 ) ) ;
#53 = EDGE_CURVE ( 'NONE', #80, #50, #303, .T. ) ;
#54 = ADVANCED_FACE ( 'NONE', ( #299 ), #296, .T. ) ;
#55 = ADVANCED_FACE ( 'NONE', ( #297 ), #274, .F. ) ;
#56 = ORIENTED_EDGE ( 'NONE', *, *, #113, .F. ) ;
#57 = ORIENTED_EDGE ( 'NONE', *, *, #58, .F. ) ;
#58 = EDGE_CURVE ( 'NONE', #14, #71, #269, .T. ) ;
#59 = ORIENTED_EDGE ( 'NONE', *, *, #13, .F. ) ;
#60 = EDGE_LOOP ( 'NONE', ( #61, #62 ) ) ;
#61 = ORIENTED_EDGE ( 'NONE', *, *, #100, .T. ) ;
#62 = ORIENTED_EDGE ( 'NONE', *, *, #20, .T. ) ;
#63 = ADVANCED_FACE ( 'NONE', ( #265 ), #264, .T. ) ;
#64 = EDGE_LOOP ( 'NONE', ( #65, #95, #96, #97 ) ) ;
#65 = ORIENTED_EDGE ( 'NONE', *, *, #70, .F. ) ;
#66 = EDGE_CURVE ( 'NONE', #67, #68, #160, .T. ) ;
#67 = VERTEX_POINT ( 'NONE', #152 ) ;
#68 = VERTEX_POINT ( 'NONE', #151 ) ;
#69 = ORIENTED_EDGE ( 'NONE', *, *, #70, .T. ) ;
#70 = EDGE_CURVE ( 'NONE', #67, #71, #184, .T. ) ;
#71 = VERTEX_POINT ( 'NONE', #180 ) ;
#72 = EDGE_CURVE ( 'NONE', #22, #10, #179, .T. ) ;
#73 = ORIENTED_EDGE ( 'NONE', *, *, #66, .T. ) ;
#74 = ORIENTED_EDGE ( 'NONE', *, *, #78, .F. ) ;
#75 = ORIENTED_EDGE ( 'NONE', *, *, #76, .T. ) ;
#76 = EDGE_CURVE ( 'NONE', #83, #50, #174, .T. ) ;
#77 = ORIENTED_EDGE ( 'NONE', *, *, #49, .T. ) ;
#78 = EDGE_CURVE ( 'NONE', #79, #80, #169, .T. ) ;
#79 = VERTEX_POINT ( 'NONE', #165 ) ;
#80 = VERTEX_POINT ( 'NONE', #164 ) ;
#81 = ORIENTED_EDGE ( 'NONE', *, *, #82, .T. ) ;
#82 = EDGE_CURVE ( 'NONE', #79, #83, #163, .T. ) ;
#83 = VERTEX_POINT ( 'NONE', #249 ) ;
#84 = CARTESIAN_POINT ( 'NONE',  ( -5.009323225592821800E-010, -4.999999996500434000, -2.499999999999999600 ) ) ;
#85 = DIRECTION ( 'NONE',  ( 0.0000000000000000000, 1.000000000000000000, 0.0000000000000000000 ) ) ;
#86 = VECTOR ( 'NONE', #85, 1000.000000000000000 ) ;
#87 = CARTESIAN_POINT ( 'NONE',  ( -5.009323225592821800E-010, 2.412507003500041800, -2.500000000000000400 ) ) ;
#88 = LINE ( 'NONE', #87, #86 ) ;
#89 = DIRECTION ( 'NONE',  ( 0.0000000000000000000, 0.0000000000000000000, 1.000000000000000000 ) ) ;
#90 = DIRECTION ( 'NONE',  ( 0.0000000000000000000, 1.000000000000000000, 0.0000000000000000000 ) ) ;
#91 = AXIS2_PLACEMENT_3D ( 'NONE', #93, #90, #89 ) ;
#92 = CYLINDRICAL_SURFACE ( 'NONE', #91, 7.000000000000000900 ) ;
#93 = CARTESIAN_POINT ( 'NONE',  ( -5.009326287108706300E-010, 2.412507003500041800, 0.0000000000000000000 ) ) ;
#94 = FACE_OUTER_BOUND ( 'NONE', #4, .T. ) ;
#95 = ORIENTED_EDGE ( 'NONE', *, *, #38, .F. ) ;
#96 = ORIENTED_EDGE ( 'NONE', *, *, #16, .T. ) ;
#97 = ORIENTED_EDGE ( 'NONE', *, *, #58, .T. ) ;
#98 = CLOSED_SHELL ( 'NONE', ( #24, #17, #3, #54, #41, #36, #55, #107, #117, #103, #63 ) ) ;
#99 = ORIENTED_EDGE ( 'NONE', *, *, #100, .F. ) ;
#100 = EDGE_CURVE ( 'NONE', #22, #21, #247, .T. ) ;
#101 = ORIENTED_EDGE ( 'NONE', *, *, #72, .T. ) ;
#102 = ORIENTED_EDGE ( 'NONE', *, *, #113, .T. ) ;
#103 = ADVANCED_FACE ( 'NONE', ( #248, #242 ), #241, .F. ) ;
#104 = EDGE_LOOP ( 'NONE', ( #57, #59 ) ) ;
#105 = ORIENTED_EDGE ( 'NONE', *, *, #53, .T. ) ;
#106 = ORIENTED_EDGE ( 'NONE', *, *, #110, .T. ) ;
#107 = ADVANCED_FACE ( 'NONE', ( #236, #235 ), #234, .F. ) ;
#108 = EDGE_LOOP ( 'NONE', ( #56, #114 ) ) ;
#109 = EDGE_LOOP ( 'NONE', ( #120, #112, #105, #111 ) ) ;
#110 = EDGE_CURVE ( 'NONE', #80, #79, #139, .T. ) ;
#111 = ORIENTED_EDGE ( 'NONE', *, *, #29, .T. ) ;
#112 = ORIENTED_EDGE ( 'NONE', *, *, #110, .F. ) ;
#113 = EDGE_CURVE ( 'NONE', #10, #7, #225, .T. ) ;
#114 = ORIENTED_EDGE ( 'NONE', *, *, #9, .F. ) ;
#115 = EDGE_LOOP ( 'NONE', ( #106, #116 ) ) ;
#116 = ORIENTED_EDGE ( 'NONE', *, *, #78, .T. ) ;
#117 = ADVANCED_FACE ( 'NONE', ( #221 ), #220, .F. ) ;
#118 = EDGE_LOOP ( 'NONE', ( #119, #99, #101, #102 ) ) ;
#119 = ORIENTED_EDGE ( 'NONE', *, *, #6, .F. ) ;
#120 = ORIENTED_EDGE ( 'NONE', *, *, #82, .F. ) ;
#121 = CARTESIAN_POINT ( 'NONE',  ( -5.009326287108706300E-010, -1.499999996500432900, 0.0000000000000000000 ) ) ;
#122 = TOROIDAL_SURFACE ( 'NONE', #285, 11.77029414592216300, 1.500000000000000000 ) ;
#123 = FACE_OUTER_BOUND ( 'NONE', #42, .T. ) ;
#124 = DIRECTION ( 'NONE',  ( 0.0000000000000000000, 0.0000000000000000000, 1.000000000000000000 ) ) ;
#125 = DIRECTION ( 'NONE',  ( 0.0000000000000000000, 1.000000000000000000, 0.0000000000000000000 ) ) ;
#126 = CARTESIAN_POINT ( 'NONE',  ( -5.009326287108706300E-010, -1.205825793793165300, 0.0000000000000000000 ) ) ;
#127 = AXIS2_PLACEMENT_3D ( 'NONE', #126, #125, #124 ) ;
#128 = CARTESIAN_POINT ( 'NONE',  ( -5.009326287108706300E-010, -14.99999999650043100, 0.0000000000000000000 ) ) ;
#129 = FACE_OUTER_BOUND ( 'NONE', #25, .T. ) ;
#130 = CARTESIAN_POINT ( 'NONE',  ( -5.009326287108706300E-010, -14.99999999650043300, 2.500000000000001300 ) ) ;
#131 = CARTESIAN_POINT ( 'NONE',  ( -5.009323225592821800E-010, -14.99999999650043300, -2.500000000000001800 ) ) ;
#132 = DIRECTION ( 'NONE',  ( 0.0000000000000000000, 0.0000000000000000000, 1.000000000000000000 ) ) ;
#133 = DIRECTION ( 'NONE',  ( 0.0000000000000000000, 1.000000000000000000, 0.0000000000000000000 ) ) ;
#134 = CARTESIAN_POINT ( 'NONE',  ( -5.009326287108706300E-010, -4.999999996500434000, 0.0000000000000000000 ) ) ;
#135 = DIRECTION ( 'NONE',  ( 0.0000000000000000000, 0.0000000000000000000, 1.000000000000000000 ) ) ;
#136 = DIRECTION ( 'NONE',  ( 0.0000000000000000000, 1.000000000000000000, 0.0000000000000000000 ) ) ;
#137 = CARTESIAN_POINT ( 'NONE',  ( -5.009326287108706300E-010, -4.999999996500434000, 0.0000000000000000000 ) ) ;
#138 = AXIS2_PLACEMENT_3D ( 'NONE', #137, #136, #135 ) ;
#139 = CIRCLE ( 'NONE', #138, 7.000000000000000900 ) ;
#140 = DIRECTION ( 'NONE',  ( 0.0000000000000000000, 0.0000000000000000000, -1.000000000000000000 ) ) ;
#141 = CIRCLE ( 'NONE', #150, 2.499999999999999600 ) ;
#142 = CARTESIAN_POINT ( 'NONE',  ( -5.009326287108706300E-010, -4.999999996500434000, 0.0000000000000000000 ) ) ;
#143 = FACE_OUTER_BOUND ( 'NONE', #18, .T. ) ;
#144 = DIRECTION ( 'NONE',  ( 0.0000000000000000000, -0.9805806756909202200, -0.1961161351381841000 ) ) ;
#145 = VECTOR ( 'NONE', #144, 999.9999999999998900 ) ;
#146 = DIRECTION ( 'NONE',  ( 0.0000000000000000000, 1.000000000000000000, 0.0000000000000000000 ) ) ;
#147 = DIRECTION ( 'NONE',  ( 0.0000000000000000000, 0.0000000000000000000, 1.000000000000000000 ) ) ;
#148 = AXIS2_PLACEMENT_3D ( 'NONE', #201, #200, #199 ) ;
#149 = CIRCLE ( 'NONE', #148, 16.00000000000000000 ) ;
#150 = AXIS2_PLACEMENT_3D ( 'NONE', #142, #146, #147 ) ;
#151 = CARTESIAN_POINT ( 'NONE',  ( -5.009310071893720000E-010, -1.205825793793165300, -13.24116515945854600 ) ) ;
#152 = CARTESIAN_POINT ( 'NONE',  ( -5.009326287108706300E-010, -1.205825793793165300, 13.24116515945854600 ) ) ;
#153 = DIRECTION ( 'NONE',  ( 0.0000000000000000000, 0.0000000000000000000, 1.000000000000000000 ) ) ;
#154 = DIRECTION ( 'NONE',  ( 0.0000000000000000000, 1.000000000000000000, 0.0000000000000000000 ) ) ;
#155 = CARTESIAN_POINT ( 'NONE',  ( -5.009326287108706300E-010, -1.205825793793165300, 0.0000000000000000000 ) ) ;
#156 = AXIS2_PLACEMENT_3D ( 'NONE', #155, #154, #153 ) ;
#157 = DIRECTION ( 'NONE',  ( 0.0000000000000000000, 0.0000000000000000000, -1.000000000000000000 ) ) ;
#158 = DIRECTION ( 'NONE',  ( 0.0000000000000000000, -1.000000000000000000, 0.0000000000000000000 ) ) ;
#159 = AXIS2_PLACEMENT_3D ( 'NONE', #263, #158, #157 ) ;
#160 = CIRCLE ( 'NONE', #156, 13.24116515945854600 ) ;
#161 = VECTOR ( 'NONE', #250, 1000.000000000000000 ) ;
#162 = CARTESIAN_POINT ( 'NONE',  ( -5.009317714864229600E-010, 2.412507003500041800, -7.000000000000000900 ) ) ;
#163 = LINE ( 'NONE', #162, #161 ) ;
#164 = CARTESIAN_POINT ( 'NONE',  ( -5.009326287108706300E-010, -4.999999996500434000, 7.000000000000000900 ) ) ;
#165 = CARTESIAN_POINT ( 'NONE',  ( -5.009317714864229600E-010, -4.999999996500434000, -7.000000000000000900 ) ) ;
#166 = DIRECTION ( 'NONE',  ( 0.0000000000000000000, 0.0000000000000000000, 1.000000000000000000 ) ) ;
#167 = DIRECTION ( 'NONE',  ( 0.0000000000000000000, 1.000000000000000000, 0.0000000000000000000 ) ) ;
#168 = AXIS2_PLACEMENT_3D ( 'NONE', #175, #167, #166 ) ;
#169 = CIRCLE ( 'NONE', #168, 7.000000000000000900 ) ;
#170 = DIRECTION ( 'NONE',  ( 0.0000000000000000000, 0.0000000000000000000, 1.000000000000000000 ) ) ;
#171 = DIRECTION ( 'NONE',  ( 0.0000000000000000000, 1.000000000000000000, 0.0000000000000000000 ) ) ;
#172 = CARTESIAN_POINT ( 'NONE',  ( -5.009326287108706300E-010, 3.499566521986130500E-009, 0.0000000000000000000 ) ) ;
#173 = AXIS2_PLACEMENT_3D ( 'NONE', #172, #171, #170 ) ;
#174 = CIRCLE ( 'NONE', #173, 7.000000000000000000 ) ;
#175 = CARTESIAN_POINT ( 'NONE',  ( -5.009326287108706300E-010, -4.999999996500434000, 0.0000000000000000000 ) ) ;
#176 = DIRECTION ( 'NONE',  ( 0.0000000000000000000, 1.000000000000000000, 0.0000000000000000000 ) ) ;
#177 = VECTOR ( 'NONE', #176, 1000.000000000000000 ) ;
#178 = CARTESIAN_POINT ( 'NONE',  ( -5.009326287108706300E-010, 2.412507003500041800, 2.500000000000000400 ) ) ;
#179 = LINE ( 'NONE', #178, #177 ) ;
#180 = CARTESIAN_POINT ( 'NONE',  ( -5.009306693407045200E-010, -14.99999999650043100, 16.00000000000000000 ) ) ;
#181 = DIRECTION ( 'NONE',  ( 2.401650651773082500E-017, -0.9805806756909202200, 0.1961161351381841000 ) ) ;
#182 = VECTOR ( 'NONE', #181, 999.9999999999998900 ) ;
#183 = CARTESIAN_POINT ( 'NONE',  ( -5.009306693407045200E-010, -14.99999999650043100, 16.00000000000000000 ) ) ;
#184 = LINE ( 'NONE', #183, #182 ) ;
#185 = CIRCLE ( 'NONE', #127, 13.24116515945854600 ) ;
#186 = DIRECTION ( 'NONE',  ( 0.0000000000000000000, 0.0000000000000000000, -1.000000000000000000 ) ) ;
#187 = DIRECTION ( 'NONE',  ( 0.0000000000000000000, -1.000000000000000000, 0.0000000000000000000 ) ) ;
#188 = CARTESIAN_POINT ( 'NONE',  ( 11.77029414542122300, 3.499566521986130500E-009, 0.0000000000000000000 ) ) ;
#189 = AXIS2_PLACEMENT_3D ( 'NONE', #188, #187, #186 ) ;
#190 = PLANE ( 'NONE',  #189 ) ;
#191 = CARTESIAN_POINT ( 'NONE',  ( -5.009326287108706300E-010, 3.499566521986130500E-009, 11.77029414592215600 ) ) ;
#192 = DIRECTION ( 'NONE',  ( 0.0000000000000000000, 0.0000000000000000000, 1.000000000000000000 ) ) ;
#193 = DIRECTION ( 'NONE',  ( 0.0000000000000000000, 1.000000000000000000, 0.0000000000000000000 ) ) ;
#194 = CARTESIAN_POINT ( 'NONE',  ( -5.009326287108706300E-010, 3.499566521986130500E-009, 0.0000000000000000000 ) ) ;
#195 = AXIS2_PLACEMENT_3D ( 'NONE', #194, #193, #192 ) ;
#196 = CIRCLE ( 'NONE', #195, 11.77029414592215600 ) ;
#197 = DIRECTION ( 'NONE',  ( 0.0000000000000000000, 0.0000000000000000000, 1.000000000000000000 ) ) ;
#198 = CARTESIAN_POINT ( 'NONE',  ( -5.009326287108706300E-010, -4.999999996500434000, 2.499999999999999600 ) ) ;
#199 = DIRECTION ( 'NONE',  ( 0.0000000000000000000, 0.0000000000000000000, 1.000000000000000000 ) ) ;
#200 = DIRECTION ( 'NONE',  ( 0.0000000000000000000, 1.000000000000000000, 0.0000000000000000000 ) ) ;
#201 = CARTESIAN_POINT ( 'NONE',  ( -5.009326287108706300E-010, -14.99999999650043100, 0.0000000000000000000 ) ) ;
#202 = CARTESIAN_POINT ( 'NONE',  ( -5.009326287108706300E-010, -14.99999999650043100, -16.00000000000000000 ) ) ;
#203 = LINE ( 'NONE', #202, #145 ) ;
#204 = FACE_OUTER_BOUND ( 'NONE', #34, .T. ) ;
#205 = DIRECTION ( 'NONE',  ( 0.0000000000000000000, 0.0000000000000000000, 1.000000000000000000 ) ) ;
#206 = DIRECTION ( 'NONE',  ( 0.0000000000000000000, 1.000000000000000000, 0.0000000000000000000 ) ) ;
#207 = CARTESIAN_POINT ( 'NONE',  ( -5.009326287108706300E-010, 3.499566521986130500E-009, 0.0000000000000000000 ) ) ;
#208 = AXIS2_PLACEMENT_3D ( 'NONE', #207, #206, #205 ) ;
#209 = CIRCLE ( 'NONE', #208, 11.77029414592215600 ) ;
#210 = FACE_BOUND ( 'NONE', #37, .T. ) ;
#211 = UNCERTAINTY_MEASURE_WITH_UNIT (LENGTH_MEASURE( 1.000000000000000100E-005 ), #214, 'distance_accuracy_value', 'NONE');
#212 =( NAMED_UNIT ( * ) SI_UNIT ( $, .STERADIAN. ) SOLID_ANGLE_UNIT ( ) );
#213 =( NAMED_UNIT ( * ) PLANE_ANGLE_UNIT ( ) SI_UNIT ( $, .RADIAN. ) );
#214 =( LENGTH_UNIT ( ) NAMED_UNIT ( * ) SI_UNIT ( .MILLI., .METRE. ) );
#215 = DIRECTION ( 'NONE',  ( 0.0000000000000000000, 0.0000000000000000000, 1.000000000000000000 ) ) ;
#216 = DIRECTION ( 'NONE',  ( 0.0000000000000000000, 1.000000000000000000, 0.0000000000000000000 ) ) ;
#217 = CARTESIAN_POINT ( 'NONE',  ( -5.009326287108706300E-010, 2.412507003500041800, 0.0000000000000000000 ) ) ;
#218 = AXIS2_PLACEMENT_3D ( 'NONE', #217, #216, #215 ) ;
#219 = CARTESIAN_POINT ( 'NONE',  ( 0.0000000000000000000, 0.0000000000000000000, 0.0000000000000000000 ) ) ;
#220 = CYLINDRICAL_SURFACE ( 'NONE', #218, 2.500000000000000400 ) ;
#221 = FACE_OUTER_BOUND ( 'NONE', #118, .T. ) ;
#222 = DIRECTION ( 'NONE',  ( 0.0000000000000000000, 0.0000000000000000000, 1.000000000000000000 ) ) ;
#223 = DIRECTION ( 'NONE',  ( 0.0000000000000000000, 1.000000000000000000, 0.0000000000000000000 ) ) ;
#224 = AXIS2_PLACEMENT_3D ( 'NONE', #134, #223, #222 ) ;
#225 = CIRCLE ( 'NONE', #224, 2.499999999999999600 ) ;
#226 = CARTESIAN_POINT ( 'NONE',  ( -5.009326287108706300E-010, -14.99999999650043100, -16.00000000000000000 ) ) ;
#227 = CARTESIAN_POINT ( 'NONE',  ( -5.009326287108706300E-010, -14.99999999650043300, 0.0000000000000000000 ) ) ;
#228 = AXIS2_PLACEMENT_3D ( 'NONE', #227, #133, #132 ) ;
#229 = CIRCLE ( 'NONE', #228, 2.500000000000001300 ) ;
#230 = DIRECTION ( 'NONE',  ( 0.0000000000000000000, 0.0000000000000000000, 1.000000000000000000 ) ) ;
#231 = DIRECTION ( 'NONE',  ( 0.0000000000000000000, -1.000000000000000000, 0.0000000000000000000 ) ) ;
#232 = CARTESIAN_POINT ( 'NONE',  ( 6.999999999499068300, -4.999999996500434000, 0.0000000000000000000 ) ) ;
#233 = AXIS2_PLACEMENT_3D ( 'NONE', #232, #231, #140 ) ;
#234 = PLANE ( 'NONE',  #233 ) ;
#235 = FACE_OUTER_BOUND ( 'NONE', #115, .T. ) ;
#236 = FACE_BOUND ( 'NONE', #108, .T. ) ;
#237 = DIRECTION ( 'NONE',  ( 0.0000000000000000000, 0.0000000000000000000, 1.000000000000000000 ) ) ;
#238 = DIRECTION ( 'NONE',  ( 0.0000000000000000000, 1.000000000000000000, 0.0000000000000000000 ) ) ;
#239 = CARTESIAN_POINT ( 'NONE',  ( 2.499999999499068700, -14.99999999650043100, 0.0000000000000000000 ) ) ;
#240 = AXIS2_PLACEMENT_3D ( 'NONE', #239, #238, #237 ) ;
#241 = PLANE ( 'NONE',  #240 ) ;
#242 = FACE_BOUND ( 'NONE', #60, .T. ) ;
#243 = DIRECTION ( 'NONE',  ( 0.0000000000000000000, 0.0000000000000000000, 1.000000000000000000 ) ) ;
#244 = DIRECTION ( 'NONE',  ( 0.0000000000000000000, 1.000000000000000000, 0.0000000000000000000 ) ) ;
#245 = CARTESIAN_POINT ( 'NONE',  ( -5.009326287108706300E-010, -14.99999999650043300, 0.0000000000000000000 ) ) ;
#246 = AXIS2_PLACEMENT_3D ( 'NONE', #245, #244, #243 ) ;
#247 = CIRCLE ( 'NONE', #246, 2.500000000000001300 ) ;
#248 = FACE_OUTER_BOUND ( 'NONE', #104, .T. ) ;
#249 = CARTESIAN_POINT ( 'NONE',  ( -5.009317714864229600E-010, 3.499566521986130500E-009, -7.000000000000000000 ) ) ;
#250 = DIRECTION ( 'NONE',  ( 0.0000000000000000000, 1.000000000000000000, 0.0000000000000000000 ) ) ;
#251 = AXIS2_PLACEMENT_3D ( 'NONE', #219, #1, #2 ) ;
#252 = ADVANCED_BREP_SHAPE_REPRESENTATION ( 'C-30-RK-3215', ( #23, #251 ), #253 ) ;
#253 =( GEOMETRIC_REPRESENTATION_CONTEXT ( 3 ) GLOBAL_UNCERTAINTY_ASSIGNED_CONTEXT ( ( #211 ) ) GLOBAL_UNIT_ASSIGNED_CONTEXT ( ( #214, #213, #212 ) ) REPRESENTATION_CONTEXT ( 'NONE', 'WORKASPACE' ) );
#254 = DIRECTION ( 'NONE',  ( 0.0000000000000000000, 0.0000000000000000000, 1.000000000000000000 ) ) ;
#255 = DIRECTION ( 'NONE',  ( 0.0000000000000000000, 1.000000000000000000, 0.0000000000000000000 ) ) ;
#256 = AXIS2_PLACEMENT_3D ( 'NONE', #258, #255, #254 ) ;
#257 = CIRCLE ( 'NONE', #256, 7.000000000000000000 ) ;
#258 = CARTESIAN_POINT ( 'NONE',  ( -5.009326287108706300E-010, 3.499566521986130500E-009, 0.0000000000000000000 ) ) ;
#259 = DIRECTION ( 'NONE',  ( 0.0000000000000000000, 0.0000000000000000000, -1.000000000000000000 ) ) ;
#260 = DIRECTION ( 'NONE',  ( 0.0000000000000000000, -1.000000000000000000, 0.0000000000000000000 ) ) ;
#261 = AXIS2_PLACEMENT_3D ( 'NONE', #128, #260, #259 ) ;
#262 = CONICAL_SURFACE ( 'NONE', #261, 16.00000000000000000, 0.1973955598498808300 ) ;
#263 = CARTESIAN_POINT ( 'NONE',  ( -5.009326287108706300E-010, -14.99999999650043100, 0.0000000000000000000 ) ) ;
#264 = CONICAL_SURFACE ( 'NONE', #159, 16.00000000000000000, 0.1973955598498808300 ) ;
#265 = FACE_OUTER_BOUND ( 'NONE', #64, .T. ) ;
#266 = DIRECTION ( 'NONE',  ( 0.0000000000000000000, 0.0000000000000000000, 1.000000000000000000 ) ) ;
#267 = DIRECTION ( 'NONE',  ( 0.0000000000000000000, 1.000000000000000000, 0.0000000000000000000 ) ) ;
#268 = AXIS2_PLACEMENT_3D ( 'NONE', #273, #267, #266 ) ;
#269 = CIRCLE ( 'NONE', #268, 16.00000000000000000 ) ;
#270 = DIRECTION ( 'NONE',  ( 0.0000000000000000000, 0.0000000000000000000, 1.000000000000000000 ) ) ;
#271 = DIRECTION ( 'NONE',  ( 0.0000000000000000000, 1.000000000000000000, 0.0000000000000000000 ) ) ;
#272 = AXIS2_PLACEMENT_3D ( 'NONE', #292, #271, #270 ) ;
#273 = CARTESIAN_POINT ( 'NONE',  ( -5.009326287108706300E-010, -14.99999999650043100, 0.0000000000000000000 ) ) ;
#274 = CYLINDRICAL_SURFACE ( 'NONE', #272, 7.000000000000000900 ) ;
#275 = DIRECTION ( 'NONE',  ( 0.0000000000000000000, 1.000000000000000000, 0.0000000000000000000 ) ) ;
#276 = CARTESIAN_POINT ( 'NONE',  ( -5.009326287108706300E-010, 2.412507003500041800, 0.0000000000000000000 ) ) ;
#277 = AXIS2_PLACEMENT_3D ( 'NONE', #276, #275, #230 ) ;
#278 = CYLINDRICAL_SURFACE ( 'NONE', #277, 2.500000000000000400 ) ;
#279 = DIRECTION ( 'NONE',  ( -1.000000000000000000, 0.0000000000000000000, 0.0000000000000000000 ) ) ;
#280 = CARTESIAN_POINT ( 'NONE',  ( -5.009326287108706300E-010, -1.499999996500432900, 11.77029414592216300 ) ) ;
#281 = AXIS2_PLACEMENT_3D ( 'NONE', #280, #279, #197 ) ;
#282 = CIRCLE ( 'NONE', #281, 1.499999999999999600 ) ;
#283 = DIRECTION ( 'NONE',  ( 0.0000000000000000000, 0.0000000000000000000, 1.000000000000000000 ) ) ;
#284 = DIRECTION ( 'NONE',  ( 0.0000000000000000000, 1.000000000000000000, 0.0000000000000000000 ) ) ;
#285 = AXIS2_PLACEMENT_3D ( 'NONE', #121, #284, #283 ) ;
#286 = DIRECTION ( 'NONE',  ( 1.224606353612351200E-016, 0.0000000000000000000, -1.000000000000000000 ) ) ;
#287 = DIRECTION ( 'NONE',  ( 1.000000000000000000, 0.0000000000000000000, 1.224606353822377300E-016 ) ) ;
#288 = CARTESIAN_POINT ( 'NONE',  ( -5.009311873131709300E-010, -1.499999996500432900, -11.77029414592216300 ) ) ;
#289 = AXIS2_PLACEMENT_3D ( 'NONE', #288, #287, #286 ) ;
#290 = CIRCLE ( 'NONE', #289, 1.499999999999999600 ) ;
#291 = CARTESIAN_POINT ( 'NONE',  ( -5.009310972512714700E-010, 3.499566521986130500E-009, -11.77029414592215600 ) ) ;
#292 = CARTESIAN_POINT ( 'NONE',  ( -5.009326287108706300E-010, 2.412507003500041800, 0.0000000000000000000 ) ) ;
#293 = DIRECTION ( 'NONE',  ( 0.0000000000000000000, 0.0000000000000000000, 1.000000000000000000 ) ) ;
#294 = DIRECTION ( 'NONE',  ( 0.0000000000000000000, 1.000000000000000000, 0.0000000000000000000 ) ) ;
#295 = AXIS2_PLACEMENT_3D ( 'NONE', #298, #294, #293 ) ;
#296 = TOROIDAL_SURFACE ( 'NONE', #295, 11.77029414592216300, 1.500000000000000000 ) ;
#297 = FACE_OUTER_BOUND ( 'NONE', #109, .T. ) ;
#298 = CARTESIAN_POINT ( 'NONE',  ( -5.009326287108706300E-010, -1.499999996500432900, 0.0000000000000000000 ) ) ;
#299 = FACE_OUTER_BOUND ( 'NONE', #52, .T. ) ;
#300 = DIRECTION ( 'NONE',  ( 0.0000000000000000000, 1.000000000000000000, 0.0000000000000000000 ) ) ;
#301 = VECTOR ( 'NONE', #300, 1000.000000000000000 ) ;
#302 = CARTESIAN_POINT ( 'NONE',  ( -5.009326287108706300E-010, 2.412507003500041800, 7.000000000000000900 ) ) ;
#303 = LINE ( 'NONE', #302, #301 ) ;
#304 = CARTESIAN_POINT ( 'NONE',  ( -5.009326287108706300E-010, 3.499566521986130500E-009, 7.000000000000000000 ) ) ;
#305 = ORGANIZATION ( 'UNSPECIFIED', 'UNSPECIFIED', '' ) ;
#306 = SHAPE_DEFINITION_REPRESENTATION ( #335, #252 ) ;
#307 = LOCAL_TIME ( 13, 9, 1.000000000000000000, #308 ) ;
#308 = COORDINATED_UNIVERSAL_TIME_OFFSET ( 9, 0, .AHEAD. ) ;
#309 = APPROVAL_PERSON_ORGANIZATION ( #313, #311, #310 ) ;
#310 = APPROVAL_ROLE ( '' ) ;
#311 = APPROVAL ( #312, 'UNSPECIFIED' ) ;
#312 = APPROVAL_STATUS ( 'not_yet_approved' ) ;
#313 = PERSON_AND_ORGANIZATION ( #370, #305 ) ;
#314 = PRODUCT_DEFINITION_FORMATION_WITH_SPECIFIED_SOURCE ( 'ANY', '', #371, .NOT_KNOWN. ) ;
#315 = CC_DESIGN_DATE_AND_TIME_ASSIGNMENT ( #317, #316, ( #334 ) ) ;
#316 = DATE_TIME_ROLE ( 'creation_date' ) ;
#317 = DATE_AND_TIME ( #318, #319 ) ;
#318 = CALENDAR_DATE ( 2009, 29, 6 ) ;
#319 = LOCAL_TIME ( 13, 9, 1.000000000000000000, #320 ) ;
#320 = COORDINATED_UNIVERSAL_TIME_OFFSET ( 9, 0, .AHEAD. ) ;
#321 = CC_DESIGN_PERSON_AND_ORGANIZATION_ASSIGNMENT ( #323, #322, ( #334 ) ) ;
#322 = PERSON_AND_ORGANIZATION_ROLE ( 'creator' ) ;
#323 = PERSON_AND_ORGANIZATION ( #370, #305 ) ;
#324 = CC_DESIGN_APPROVAL ( #332, ( #334 ) ) ;
#325 = APPROVAL_DATE_TIME ( #326, #332 ) ;
#326 = DATE_AND_TIME ( #327, #328 ) ;
#327 = CALENDAR_DATE ( 2009, 29, 6 ) ;
#328 = LOCAL_TIME ( 13, 9, 1.000000000000000000, #329 ) ;
#329 = COORDINATED_UNIVERSAL_TIME_OFFSET ( 9, 0, .AHEAD. ) ;
#330 = APPROVAL_PERSON_ORGANIZATION ( #375, #332, #331 ) ;
#331 = APPROVAL_ROLE ( '' ) ;
#332 = APPROVAL ( #333, 'UNSPECIFIED' ) ;
#333 = APPROVAL_STATUS ( 'not_yet_approved' ) ;
#334 = PRODUCT_DEFINITION ( 'UNKNOWN', '', #314, #376 ) ;
#335 = PRODUCT_DEFINITION_SHAPE ( 'NONE', 'NONE',  #334 ) ;
#336 = PRODUCT_RELATED_PRODUCT_CATEGORY ( 'detail', '', ( #371 ) ) ;
#337 = CC_DESIGN_SECURITY_CLASSIFICATION ( #358, ( #314 ) ) ;
#338 = CC_DESIGN_APPROVAL ( #346, ( #358 ) ) ;
#339 = APPROVAL_DATE_TIME ( #340, #346 ) ;
#340 = DATE_AND_TIME ( #341, #342 ) ;
#341 = CALENDAR_DATE ( 2009, 29, 6 ) ;
#342 = LOCAL_TIME ( 13, 9, 1.000000000000000000, #343 ) ;
#343 = COORDINATED_UNIVERSAL_TIME_OFFSET ( 9, 0, .AHEAD. ) ;
#344 = APPROVAL_PERSON_ORGANIZATION ( #348, #346, #345 ) ;
#345 = APPROVAL_ROLE ( '' ) ;
#346 = APPROVAL ( #347, 'UNSPECIFIED' ) ;
#347 = APPROVAL_STATUS ( 'not_yet_approved' ) ;
#348 = PERSON_AND_ORGANIZATION ( #370, #305 ) ;
#349 = CC_DESIGN_DATE_AND_TIME_ASSIGNMENT ( #351, #350, ( #358 ) ) ;
#350 = DATE_TIME_ROLE ( 'classification_date' ) ;
#351 = DATE_AND_TIME ( #352, #353 ) ;
#352 = CALENDAR_DATE ( 2009, 29, 6 ) ;
#353 = LOCAL_TIME ( 13, 9, 1.000000000000000000, #354 ) ;
#354 = COORDINATED_UNIVERSAL_TIME_OFFSET ( 9, 0, .AHEAD. ) ;
#355 = CC_DESIGN_PERSON_AND_ORGANIZATION_ASSIGNMENT ( #357, #356, ( #358 ) ) ;
#356 = PERSON_AND_ORGANIZATION_ROLE ( 'classification_officer' ) ;
#357 = PERSON_AND_ORGANIZATION ( #370, #305 ) ;
#358 = SECURITY_CLASSIFICATION ( '', '', #359 ) ;
#359 = SECURITY_CLASSIFICATION_LEVEL ( 'unclassified' ) ;
#360 = CC_DESIGN_PERSON_AND_ORGANIZATION_ASSIGNMENT ( #362, #361, ( #314 ) ) ;
#361 = PERSON_AND_ORGANIZATION_ROLE ( 'design_supplier' ) ;
#362 = PERSON_AND_ORGANIZATION ( #370, #305 ) ;
#363 = CC_DESIGN_PERSON_AND_ORGANIZATION_ASSIGNMENT ( #365, #364, ( #314 ) ) ;
#364 = PERSON_AND_ORGANIZATION_ROLE ( 'creator' ) ;
#365 = PERSON_AND_ORGANIZATION ( #370, #305 ) ;
#366 = CC_DESIGN_APPROVAL ( #311, ( #314 ) ) ;
#367 = APPROVAL_DATE_TIME ( #368, #311 ) ;
#368 = DATE_AND_TIME ( #369, #307 ) ;
#369 = CALENDAR_DATE ( 2009, 29, 6 ) ;
#370 = PERSON ( 'UNSPECIFIED', 'UNSPECIFIED', 'UNSPECIFIED', ('UNSPECIFIED'), ('UNSPECIFIED'), ('UNSPECIFIED') ) ;
#371 = PRODUCT ( 'C-30-RK-3215', 'C-30-RK-3215', '', ( #372 ) ) ;
#372 = MECHANICAL_CONTEXT ( 'NONE', #374, 'mechanical' ) ;
#373 = APPLICATION_PROTOCOL_DEFINITION ( 'international standard', 'config_control_design', 1994, #374 ) ;
#374 = APPLICATION_CONTEXT ( 'configuration controlled 3d designs of mechanical parts and assemblies' ) ;
#375 = PERSON_AND_ORGANIZATION ( #370, #305 ) ;
#376 = DESIGN_CONTEXT ( 'detailed design', #378, 'design' ) ;
#377 = APPLICATION_PROTOCOL_DEFINITION ( 'international standard', 'config_control_design', 1994, #378 ) ;
#378 = APPLICATION_CONTEXT ( 'configuration controlled 3d designs of mechanical parts and assemblies' ) ;
#379 = CC_DESIGN_PERSON_AND_ORGANIZATION_ASSIGNMENT ( #381, #380, ( #371 ) ) ;
#380 = PERSON_AND_ORGANIZATION_ROLE ( 'design_owner' ) ;
#381 = PERSON_AND_ORGANIZATION ( #370, #305 ) ;
ENDSEC;
END-ISO-10303-21;
