ISO-10303-21;
HEADER;
FILE_DESCRIPTION (( 'STEP AP203' ),
    '1' );
FILE_NAME ('C-30-RK-3215-gray.STEP',
    '2009-06-29T02:46:54',
    ( '11sw' ),
    ( '^LQ»¢®ïÐ' ),
    'SwSTEP 2.0',
    'SolidWorks 2007',
    '' );
FILE_SCHEMA (( 'CONFIG_CONTROL_DESIGN' ));
ENDSEC;

DATA;
#1 = ORIENTED_EDGE ( 'NONE', *, *, #4, .F. ) ;
#2 = VERTEX_POINT ( 'NONE', #92 ) ;
#3 = EDGE_CURVE ( 'NONE', #2, #41, #114, .T. ) ;
#4 = EDGE_CURVE ( 'NONE', #2, #102, #86, .T. ) ;
#5 = EDGE_LOOP ( 'NONE', ( #20, #88 ) ) ;
#6 = EDGE_LOOP ( 'NONE', ( #108, #107, #105, #104 ) ) ;
#7 = EDGE_CURVE ( 'NONE', #103, #18, #124, .T. ) ;
#8 = ADVANCED_FACE ( 'NONE', ( #125 ), #98, .T. ) ;
#9 = EDGE_LOOP ( 'NONE', ( #13, #79, #14, #45 ) ) ;
#10 = ORIENTED_EDGE ( 'NONE', *, *, #106, .T. ) ;
#11 = ORIENTED_EDGE ( 'NONE', *, *, #127, .T. ) ;
#12 = ADVANCED_FACE ( 'NONE', ( #140 ), #146, .F. ) ;
#13 = ORIENTED_EDGE ( 'NONE', *, *, #33, .T. ) ;
#14 = ORIENTED_EDGE ( 'NONE', *, *, #15, .F. ) ;
#15 = EDGE_CURVE ( 'NONE', #19, #16, #145, .T. ) ;
#16 = VERTEX_POINT ( 'NONE', #155 ) ;
#17 = ORIENTED_EDGE ( 'NONE', *, *, #81, .F. ) ;
#18 = VERTEX_POINT ( 'NONE', #154 ) ;
#19 = VERTEX_POINT ( 'NONE', #147 ) ;
#20 = ORIENTED_EDGE ( 'NONE', *, *, #15, .T. ) ;
#21 = ORIENTED_EDGE ( 'NONE', *, *, #53, .F. ) ;
#22 = EDGE_LOOP ( 'NONE', ( #21, #50 ) ) ;
#23 = EDGE_CURVE ( 'NONE', #78, #35, #137, .T. ) ;
#24 = ORIENTED_EDGE ( 'NONE', *, *, #53, .T. ) ;
#25 = ORIENTED_EDGE ( 'NONE', *, *, #42, .F. ) ;
#26 = ORIENTED_EDGE ( 'NONE', *, *, #118, .T. ) ;
#27 = ORIENTED_EDGE ( 'NONE', *, *, #36, .F. ) ;
#28 = ORIENTED_EDGE ( 'NONE', *, *, #80, .F. ) ;
#29 = EDGE_CURVE ( 'NONE', #66, #19, #150, .T. ) ;
#30 = ORIENTED_EDGE ( 'NONE', *, *, #42, .T. ) ;
#31 = EDGE_LOOP ( 'NONE', ( #28, #30, #43, #58 ) ) ;
#32 = ADVANCED_FACE ( 'NONE', ( #151 ), #99, .T. ) ;
#33 = EDGE_CURVE ( 'NONE', #66, #39, #161, .T. ) ;
#34 = ORIENTED_EDGE ( 'NONE', *, *, #118, .F. ) ;
#35 = VERTEX_POINT ( 'NONE', #156 ) ;
#36 = EDGE_CURVE ( 'NONE', #35, #78, #174, .T. ) ;
#37 = ADVANCED_FACE ( 'NONE', ( #167 ), #164, .T. ) ;
#38 = MANIFOLD_SOLID_BREP ( 'NONE', #49 ) ;
#39 = VERTEX_POINT ( 'NONE', #188 ) ;
#40 = ORIENTED_EDGE ( 'NONE', *, *, #3, .T. ) ;
#41 = VERTEX_POINT ( 'NONE', #199 ) ;
#42 = EDGE_CURVE ( 'NONE', #39, #66, #180, .T. ) ;
#43 = ORIENTED_EDGE ( 'NONE', *, *, #29, .T. ) ;
#44 = EDGE_LOOP ( 'NONE', ( #57, #61 ) ) ;
#45 = ORIENTED_EDGE ( 'NONE', *, *, #29, .F. ) ;
#46 = EDGE_CURVE ( 'NONE', #66, #78, #191, .T. ) ;
#47 = EDGE_LOOP ( 'NONE', ( #70, #63 ) ) ;
#48 = ORIENTED_EDGE ( 'NONE', *, *, #128, .T. ) ;
#49 = CLOSED_SHELL ( 'NONE', ( #75, #115, #110, #8, #32, #56, #109, #54, #12, #55, #37 ) ) ;
#50 = ORIENTED_EDGE ( 'NONE', *, *, #94, .F. ) ;
#51 = EDGE_LOOP ( 'NONE', ( #10, #11 ) ) ;
#52 = EDGE_LOOP ( 'NONE', ( #73, #74, #48, #24 ) ) ;
#53 = EDGE_CURVE ( 'NONE', #126, #41, #227, .T. ) ;
#54 = ADVANCED_FACE ( 'NONE', ( #211, #237 ), #234, .F. ) ;
#55 = ADVANCED_FACE ( 'NONE', ( #235, #176 ), #186, .F. ) ;
#56 = ADVANCED_FACE ( 'NONE', ( #187, #181 ), #196, .F. ) ;
#57 = ORIENTED_EDGE ( 'NONE', *, *, #60, .F. ) ;
#58 = ORIENTED_EDGE ( 'NONE', *, *, #59, .F. ) ;
#59 = EDGE_CURVE ( 'NONE', #16, #19, #215, .T. ) ;
#60 = EDGE_CURVE ( 'NONE', #18, #103, #219, .T. ) ;
#61 = ORIENTED_EDGE ( 'NONE', *, *, #7, .F. ) ;
#62 = ORIENTED_EDGE ( 'NONE', *, *, #46, .T. ) ;
#63 = ORIENTED_EDGE ( 'NONE', *, *, #4, .T. ) ;
#64 = EDGE_LOOP ( 'NONE', ( #65, #25, #26, #69 ) ) ;
#65 = ORIENTED_EDGE ( 'NONE', *, *, #46, .F. ) ;
#66 = VERTEX_POINT ( 'NONE', #231 ) ;
#67 = ORIENTED_EDGE ( 'NONE', *, *, #23, .T. ) ;
#68 = EDGE_CURVE ( 'NONE', #102, #2, #229, .T. ) ;
#69 = ORIENTED_EDGE ( 'NONE', *, *, #36, .T. ) ;
#70 = ORIENTED_EDGE ( 'NONE', *, *, #68, .T. ) ;
#71 = EDGE_LOOP ( 'NONE', ( #27, #72 ) ) ;
#72 = ORIENTED_EDGE ( 'NONE', *, *, #23, .F. ) ;
#73 = ORIENTED_EDGE ( 'NONE', *, *, #3, .F. ) ;
#74 = ORIENTED_EDGE ( 'NONE', *, *, #68, .F. ) ;
#75 = ADVANCED_FACE ( 'NONE', ( #230 ), #226, .T. ) ;
#76 = EDGE_LOOP ( 'NONE', ( #77, #62, #67, #34 ) ) ;
#77 = ORIENTED_EDGE ( 'NONE', *, *, #33, .F. ) ;
#78 = VERTEX_POINT ( 'NONE', #200 ) ;
#79 = ORIENTED_EDGE ( 'NONE', *, *, #80, .T. ) ;
#80 = EDGE_CURVE ( 'NONE', #39, #16, #221, .T. ) ;
#81 = EDGE_CURVE ( 'NONE', #89, #18, #222, .T. ) ;
#82 = DIRECTION ( 'NONE',  ( 0.0000000000000000000, 0.0000000000000000000, 1.000000000000000000 ) ) ;
#83 = DIRECTION ( 'NONE',  ( 0.0000000000000000000, 1.000000000000000000, 0.0000000000000000000 ) ) ;
#84 = CARTESIAN_POINT ( 'NONE',  ( -5.009326287108706300E-010, -14.99999999650043300, 0.0000000000000000000 ) ) ;
#85 = AXIS2_PLACEMENT_3D ( 'NONE', #84, #83, #82 ) ;
#86 = CIRCLE ( 'NONE', #85, 2.500000000000001300 ) ;
#87 = CARTESIAN_POINT ( 'NONE',  ( -5.009326287108706300E-010, 3.499566521986130500E-009, 0.0000000000000000000 ) ) ;
#88 = ORIENTED_EDGE ( 'NONE', *, *, #59, .T. ) ;
#89 = VERTEX_POINT ( 'NONE', #259 ) ;
#90 = ORIENTED_EDGE ( 'NONE', *, *, #91, .T. ) ;
#91 = EDGE_CURVE ( 'NONE', #120, #103, #284, .T. ) ;
#92 = CARTESIAN_POINT ( 'NONE',  ( -5.009323225592821800E-010, -14.99999999650043300, -2.500000000000001800 ) ) ;
#93 = ORIENTED_EDGE ( 'NONE', *, *, #7, .T. ) ;
#94 = EDGE_CURVE ( 'NONE', #41, #126, #333, .T. ) ;
#95 = DIRECTION ( 'NONE',  ( 0.0000000000000000000, 0.0000000000000000000, 1.000000000000000000 ) ) ;
#96 = DIRECTION ( 'NONE',  ( 0.0000000000000000000, 1.000000000000000000, 0.0000000000000000000 ) ) ;
#97 = AXIS2_PLACEMENT_3D ( 'NONE', #100, #96, #95 ) ;
#98 = TOROIDAL_SURFACE ( 'NONE', #97, 11.77029414592216300, 1.500000000000000000 ) ;
#99 = TOROIDAL_SURFACE ( 'NONE', #175, 11.77029414592216300, 1.500000000000000000 ) ;
#100 = CARTESIAN_POINT ( 'NONE',  ( -5.009326287108706300E-010, -1.499999996500432900, 0.0000000000000000000 ) ) ;
#101 = ORIENTED_EDGE ( 'NONE', *, *, #94, .T. ) ;
#102 = VERTEX_POINT ( 'NONE', #302 ) ;
#103 = VERTEX_POINT ( 'NONE', #338 ) ;
#104 = ORIENTED_EDGE ( 'NONE', *, *, #60, .T. ) ;
#105 = ORIENTED_EDGE ( 'NONE', *, *, #81, .T. ) ;
#106 = EDGE_CURVE ( 'NONE', #89, #120, #258, .T. ) ;
#107 = ORIENTED_EDGE ( 'NONE', *, *, #106, .F. ) ;
#108 = ORIENTED_EDGE ( 'NONE', *, *, #91, .F. ) ;
#109 = ADVANCED_FACE ( 'NONE', ( #286 ), #246, .F. ) ;
#110 = ADVANCED_FACE ( 'NONE', ( #309 ), #308, .F. ) ;
#111 = DIRECTION ( 'NONE',  ( 0.0000000000000000000, 1.000000000000000000, 0.0000000000000000000 ) ) ;
#112 = VECTOR ( 'NONE', #111, 1000.000000000000000 ) ;
#113 = CARTESIAN_POINT ( 'NONE',  ( -5.009323225592821800E-010, 2.412507003500041800, -2.500000000000000400 ) ) ;
#114 = LINE ( 'NONE', #113, #112 ) ;
#115 = ADVANCED_FACE ( 'NONE', ( #264 ), #265, .F. ) ;
#116 = EDGE_LOOP ( 'NONE', ( #1, #40, #101, #117 ) ) ;
#117 = ORIENTED_EDGE ( 'NONE', *, *, #128, .F. ) ;
#118 = EDGE_CURVE ( 'NONE', #39, #35, #291, .T. ) ;
#119 = ORIENTED_EDGE ( 'NONE', *, *, #127, .F. ) ;
#120 = VERTEX_POINT ( 'NONE', #287 ) ;
#121 = DIRECTION ( 'NONE',  ( 0.0000000000000000000, 0.0000000000000000000, 1.000000000000000000 ) ) ;
#122 = DIRECTION ( 'NONE',  ( 0.0000000000000000000, 1.000000000000000000, 0.0000000000000000000 ) ) ;
#123 = AXIS2_PLACEMENT_3D ( 'NONE', #87, #122, #121 ) ;
#124 = CIRCLE ( 'NONE', #123, 7.000000000000000000 ) ;
#125 = FACE_OUTER_BOUND ( 'NONE', #9, .T. ) ;
#126 = VERTEX_POINT ( 'NONE', #313 ) ;
#127 = EDGE_CURVE ( 'NONE', #120, #89, #343, .T. ) ;
#128 = EDGE_CURVE ( 'NONE', #102, #126, #344, .T. ) ;
#129 = EDGE_LOOP ( 'NONE', ( #119, #90, #93, #17 ) ) ;
#130 = DIRECTION ( 'NONE',  ( 0.0000000000000000000, 1.000000000000000000, 0.0000000000000000000 ) ) ;
#131 = DIRECTION ( 'NONE',  ( 0.0000000000000000000, 0.0000000000000000000, -1.000000000000000000 ) ) ;
#132 = DIRECTION ( 'NONE',  ( 0.0000000000000000000, 0.0000000000000000000, 1.000000000000000000 ) ) ;
#133 = DIRECTION ( 'NONE',  ( -1.000000000000000000, 0.0000000000000000000, 0.0000000000000000000 ) ) ;
#134 = AXIS2_PLACEMENT_3D ( 'NONE', #144, #133, #132 ) ;
#135 = AXIS2_PLACEMENT_3D ( 'NONE', #136, #130, #139 ) ;
#136 = CARTESIAN_POINT ( 'NONE',  ( -5.009326287108706300E-010, 2.412507003500041800, 0.0000000000000000000 ) ) ;
#137 = CIRCLE ( 'NONE', #143, 16.00000000000000000 ) ;
#138 = CARTESIAN_POINT ( 'NONE',  ( -5.009326287108706300E-010, 3.499566521986130500E-009, 0.0000000000000000000 ) ) ;
#139 = DIRECTION ( 'NONE',  ( 0.0000000000000000000, 0.0000000000000000000, 1.000000000000000000 ) ) ;
#140 = FACE_OUTER_BOUND ( 'NONE', #52, .T. ) ;
#141 = DIRECTION ( 'NONE',  ( 0.0000000000000000000, 1.000000000000000000, 0.0000000000000000000 ) ) ;
#142 = CARTESIAN_POINT ( 'NONE',  ( -5.009326287108706300E-010, -14.99999999650043100, 0.0000000000000000000 ) ) ;
#143 = AXIS2_PLACEMENT_3D ( 'NONE', #142, #141, #152 ) ;
#144 = CARTESIAN_POINT ( 'NONE',  ( -5.009326287108706300E-010, -1.499999996500432900, 11.77029414592216300 ) ) ;
#145 = CIRCLE ( 'NONE', #153, 11.77029414592215600 ) ;
#146 = CYLINDRICAL_SURFACE ( 'NONE', #135, 2.500000000000000400 ) ;
#147 = CARTESIAN_POINT ( 'NONE',  ( -5.009326287108706300E-010, 3.499566521986130500E-009, 11.77029414592215600 ) ) ;
#148 = DIRECTION ( 'NONE',  ( 0.0000000000000000000, 0.0000000000000000000, 1.000000000000000000 ) ) ;
#149 = DIRECTION ( 'NONE',  ( 0.0000000000000000000, 1.000000000000000000, 0.0000000000000000000 ) ) ;
#150 = CIRCLE ( 'NONE', #134, 1.499999999999999600 ) ;
#151 = FACE_OUTER_BOUND ( 'NONE', #31, .T. ) ;
#152 = DIRECTION ( 'NONE',  ( 0.0000000000000000000, 0.0000000000000000000, 1.000000000000000000 ) ) ;
#153 = AXIS2_PLACEMENT_3D ( 'NONE', #138, #149, #148 ) ;
#154 = CARTESIAN_POINT ( 'NONE',  ( -5.009326287108706300E-010, 3.499566521986130500E-009, 7.000000000000000000 ) ) ;
#155 = CARTESIAN_POINT ( 'NONE',  ( -5.009310972512714700E-010, 3.499566521986130500E-009, -11.77029414592215600 ) ) ;
#156 = CARTESIAN_POINT ( 'NONE',  ( -5.009326287108706300E-010, -14.99999999650043100, -16.00000000000000000 ) ) ;
#157 = DIRECTION ( 'NONE',  ( 0.0000000000000000000, 0.0000000000000000000, 1.000000000000000000 ) ) ;
#158 = DIRECTION ( 'NONE',  ( 0.0000000000000000000, 1.000000000000000000, 0.0000000000000000000 ) ) ;
#159 = CARTESIAN_POINT ( 'NONE',  ( -5.009326287108706300E-010, -1.205825793793165300, 0.0000000000000000000 ) ) ;
#160 = AXIS2_PLACEMENT_3D ( 'NONE', #159, #158, #157 ) ;
#161 = CIRCLE ( 'NONE', #160, 13.24116515945854600 ) ;
#162 = DIRECTION ( 'NONE',  ( 0.0000000000000000000, -1.000000000000000000, 0.0000000000000000000 ) ) ;
#163 = AXIS2_PLACEMENT_3D ( 'NONE', #165, #162, #131 ) ;
#164 = CONICAL_SURFACE ( 'NONE', #163, 16.00000000000000000, 0.1973955598498808300 ) ;
#165 = CARTESIAN_POINT ( 'NONE',  ( -5.009326287108706300E-010, -14.99999999650043100, 0.0000000000000000000 ) ) ;
#166 = CARTESIAN_POINT ( 'NONE',  ( -5.009326287108706300E-010, -14.99999999650043100, 0.0000000000000000000 ) ) ;
#167 = FACE_OUTER_BOUND ( 'NONE', #64, .T. ) ;
#168 = CARTESIAN_POINT ( 'NONE',  ( -5.009326287108706300E-010, -1.499999996500432900, 0.0000000000000000000 ) ) ;
#169 = DIRECTION ( 'NONE',  ( 0.0000000000000000000, 0.0000000000000000000, 1.000000000000000000 ) ) ;
#170 = DIRECTION ( 'NONE',  ( 0.0000000000000000000, 1.000000000000000000, 0.0000000000000000000 ) ) ;
#171 = DIRECTION ( 'NONE',  ( 0.0000000000000000000, 0.0000000000000000000, 1.000000000000000000 ) ) ;
#172 = DIRECTION ( 'NONE',  ( 0.0000000000000000000, 1.000000000000000000, 0.0000000000000000000 ) ) ;
#173 = AXIS2_PLACEMENT_3D ( 'NONE', #166, #172, #171 ) ;
#174 = CIRCLE ( 'NONE', #173, 16.00000000000000000 ) ;
#175 = AXIS2_PLACEMENT_3D ( 'NONE', #168, #170, #169 ) ;
#176 = FACE_BOUND ( 'NONE', #47, .T. ) ;
#177 = DIRECTION ( 'NONE',  ( 0.0000000000000000000, 0.0000000000000000000, -1.000000000000000000 ) ) ;
#178 = DIRECTION ( 'NONE',  ( 0.0000000000000000000, -1.000000000000000000, 0.0000000000000000000 ) ) ;
#179 = AXIS2_PLACEMENT_3D ( 'NONE', #236, #178, #177 ) ;
#180 = CIRCLE ( 'NONE', #198, 13.24116515945854600 ) ;
#181 = FACE_OUTER_BOUND ( 'NONE', #5, .T. ) ;
#182 = DIRECTION ( 'NONE',  ( 0.0000000000000000000, 0.0000000000000000000, 1.000000000000000000 ) ) ;
#183 = DIRECTION ( 'NONE',  ( 0.0000000000000000000, 1.000000000000000000, 0.0000000000000000000 ) ) ;
#184 = CARTESIAN_POINT ( 'NONE',  ( 2.499999999499068700, -14.99999999650043100, 0.0000000000000000000 ) ) ;
#185 = AXIS2_PLACEMENT_3D ( 'NONE', #184, #183, #182 ) ;
#186 = PLANE ( 'NONE',  #185 ) ;
#187 = FACE_BOUND ( 'NONE', #44, .T. ) ;
#188 = CARTESIAN_POINT ( 'NONE',  ( -5.009310071893720000E-010, -1.205825793793165300, -13.24116515945854600 ) ) ;
#189 = VECTOR ( 'NONE', #233, 999.9999999999998900 ) ;
#190 = CARTESIAN_POINT ( 'NONE',  ( -5.009306693407045200E-010, -14.99999999650043100, 16.00000000000000000 ) ) ;
#191 = LINE ( 'NONE', #190, #189 ) ;
#192 = DIRECTION ( 'NONE',  ( 0.0000000000000000000, 0.0000000000000000000, -1.000000000000000000 ) ) ;
#193 = DIRECTION ( 'NONE',  ( 0.0000000000000000000, -1.000000000000000000, 0.0000000000000000000 ) ) ;
#194 = CARTESIAN_POINT ( 'NONE',  ( 11.77029414542122300, 3.499566521986130500E-009, 0.0000000000000000000 ) ) ;
#195 = AXIS2_PLACEMENT_3D ( 'NONE', #194, #193, #192 ) ;
#196 = PLANE ( 'NONE',  #195 ) ;
#197 = CARTESIAN_POINT ( 'NONE',  ( -5.009326287108706300E-010, 3.499566521986130500E-009, 0.0000000000000000000 ) ) ;
#198 = AXIS2_PLACEMENT_3D ( 'NONE', #212, #206, #205 ) ;
#199 = CARTESIAN_POINT ( 'NONE',  ( -5.009323225592821800E-010, -4.999999996500434000, -2.499999999999999600 ) ) ;
#200 = CARTESIAN_POINT ( 'NONE',  ( -5.009306693407045200E-010, -14.99999999650043100, 16.00000000000000000 ) ) ;
#201 = CARTESIAN_POINT ( 'NONE',  ( -5.009326287108706300E-010, -14.99999999650043100, 0.0000000000000000000 ) ) ;
#202 = DIRECTION ( 'NONE',  ( 0.0000000000000000000, 0.0000000000000000000, 1.000000000000000000 ) ) ;
#203 = DIRECTION ( 'NONE',  ( 0.0000000000000000000, 1.000000000000000000, 0.0000000000000000000 ) ) ;
#204 = CARTESIAN_POINT ( 'NONE',  ( -5.009326287108706300E-010, -14.99999999650043300, 0.0000000000000000000 ) ) ;
#205 = DIRECTION ( 'NONE',  ( 0.0000000000000000000, 0.0000000000000000000, 1.000000000000000000 ) ) ;
#206 = DIRECTION ( 'NONE',  ( 0.0000000000000000000, 1.000000000000000000, 0.0000000000000000000 ) ) ;
#207 = DIRECTION ( 'NONE',  ( 0.0000000000000000000, 0.0000000000000000000, 1.000000000000000000 ) ) ;
#208 = DIRECTION ( 'NONE',  ( 0.0000000000000000000, 1.000000000000000000, 0.0000000000000000000 ) ) ;
#209 = CARTESIAN_POINT ( 'NONE',  ( -5.009326287108706300E-010, -4.999999996500434000, 0.0000000000000000000 ) ) ;
#210 = AXIS2_PLACEMENT_3D ( 'NONE', #209, #208, #207 ) ;
#211 = FACE_BOUND ( 'NONE', #22, .T. ) ;
#212 = CARTESIAN_POINT ( 'NONE',  ( -5.009326287108706300E-010, -1.205825793793165300, 0.0000000000000000000 ) ) ;
#213 = DIRECTION ( 'NONE',  ( 0.0000000000000000000, 1.000000000000000000, 0.0000000000000000000 ) ) ;
#214 = AXIS2_PLACEMENT_3D ( 'NONE', #197, #213, #220 ) ;
#215 = CIRCLE ( 'NONE', #214, 11.77029414592215600 ) ;
#216 = CARTESIAN_POINT ( 'NONE',  ( -5.009326287108706300E-010, 3.499566521986130500E-009, 0.0000000000000000000 ) ) ;
#217 = DIRECTION ( 'NONE',  ( 0.0000000000000000000, 1.000000000000000000, 0.0000000000000000000 ) ) ;
#218 = AXIS2_PLACEMENT_3D ( 'NONE', #216, #217, #232 ) ;
#219 = CIRCLE ( 'NONE', #218, 7.000000000000000000 ) ;
#220 = DIRECTION ( 'NONE',  ( 0.0000000000000000000, 0.0000000000000000000, 1.000000000000000000 ) ) ;
#221 = CIRCLE ( 'NONE', #244, 1.499999999999999600 ) ;
#222 = LINE ( 'NONE', #240, #239 ) ;
#223 = DIRECTION ( 'NONE',  ( 0.0000000000000000000, 0.0000000000000000000, -1.000000000000000000 ) ) ;
#224 = DIRECTION ( 'NONE',  ( 0.0000000000000000000, -1.000000000000000000, 0.0000000000000000000 ) ) ;
#225 = AXIS2_PLACEMENT_3D ( 'NONE', #201, #224, #223 ) ;
#226 = CONICAL_SURFACE ( 'NONE', #225, 16.00000000000000000, 0.1973955598498808300 ) ;
#227 = CIRCLE ( 'NONE', #210, 2.499999999999999600 ) ;
#228 = AXIS2_PLACEMENT_3D ( 'NONE', #204, #203, #202 ) ;
#229 = CIRCLE ( 'NONE', #228, 2.500000000000001300 ) ;
#230 = FACE_OUTER_BOUND ( 'NONE', #76, .T. ) ;
#231 = CARTESIAN_POINT ( 'NONE',  ( -5.009326287108706300E-010, -1.205825793793165300, 13.24116515945854600 ) ) ;
#232 = DIRECTION ( 'NONE',  ( 0.0000000000000000000, 0.0000000000000000000, 1.000000000000000000 ) ) ;
#233 = DIRECTION ( 'NONE',  ( 2.401650651773082500E-017, -0.9805806756909202200, 0.1961161351381841000 ) ) ;
#234 = PLANE ( 'NONE',  #179 ) ;
#235 = FACE_OUTER_BOUND ( 'NONE', #71, .T. ) ;
#236 = CARTESIAN_POINT ( 'NONE',  ( 6.999999999499068300, -4.999999996500434000, 0.0000000000000000000 ) ) ;
#237 = FACE_OUTER_BOUND ( 'NONE', #51, .T. ) ;
#238 = DIRECTION ( 'NONE',  ( 0.0000000000000000000, 1.000000000000000000, 0.0000000000000000000 ) ) ;
#239 = VECTOR ( 'NONE', #238, 1000.000000000000000 ) ;
#240 = CARTESIAN_POINT ( 'NONE',  ( -5.009326287108706300E-010, 2.412507003500041800, 7.000000000000000900 ) ) ;
#241 = DIRECTION ( 'NONE',  ( 1.224606353612351200E-016, 0.0000000000000000000, -1.000000000000000000 ) ) ;
#242 = DIRECTION ( 'NONE',  ( 1.000000000000000000, 0.0000000000000000000, 1.224606353822377300E-016 ) ) ;
#243 = CARTESIAN_POINT ( 'NONE',  ( -5.009311873131709300E-010, -1.499999996500432900, -11.77029414592216300 ) ) ;
#244 = AXIS2_PLACEMENT_3D ( 'NONE', #243, #242, #241 ) ;
#245 = AXIS2_PLACEMENT_3D ( 'NONE', #347, #346, #345 ) ;
#246 = CYLINDRICAL_SURFACE ( 'NONE', #245, 7.000000000000000900 ) ;
#247 = PRODUCT_DEFINITION_SHAPE ( 'NONE', 'NONE',  #296 ) ;
#248 = PRODUCT_RELATED_PRODUCT_CATEGORY ( 'detail', '', ( #378 ) ) ;
#249 = CC_DESIGN_SECURITY_CLASSIFICATION ( #353, ( #372 ) ) ;
#250 =( NAMED_UNIT ( * ) PLANE_ANGLE_UNIT ( ) SI_UNIT ( $, .RADIAN. ) );
#251 =( LENGTH_UNIT ( ) NAMED_UNIT ( * ) SI_UNIT ( .MILLI., .METRE. ) );
#252 = AXIS2_PLACEMENT_3D ( 'NONE', #312, #335, #334 ) ;
#253 = CARTESIAN_POINT ( 'NONE',  ( 0.0000000000000000000, 0.0000000000000000000, 0.0000000000000000000 ) ) ;
#254 = DIRECTION ( 'NONE',  ( 0.0000000000000000000, 1.000000000000000000, 0.0000000000000000000 ) ) ;
#255 = VECTOR ( 'NONE', #254, 1000.000000000000000 ) ;
#256 = CARTESIAN_POINT ( 'NONE',  ( -5.009326287108706300E-010, 2.412507003500041800, 2.500000000000000400 ) ) ;
#257 = AXIS2_PLACEMENT_3D ( 'NONE', #285, #315, #314 ) ;
#258 = CIRCLE ( 'NONE', #257, 7.000000000000000900 ) ;
#259 = CARTESIAN_POINT ( 'NONE',  ( -5.009326287108706300E-010, -4.999999996500434000, 7.000000000000000900 ) ) ;
#260 = DIRECTION ( 'NONE',  ( 0.0000000000000000000, 0.0000000000000000000, 1.000000000000000000 ) ) ;
#261 = DIRECTION ( 'NONE',  ( 0.0000000000000000000, 1.000000000000000000, 0.0000000000000000000 ) ) ;
#262 = AXIS2_PLACEMENT_3D ( 'NONE', #263, #261, #260 ) ;
#263 = CARTESIAN_POINT ( 'NONE',  ( -5.009326287108706300E-010, 2.412507003500041800, 0.0000000000000000000 ) ) ;
#264 = FACE_OUTER_BOUND ( 'NONE', #116, .T. ) ;
#265 = CYLINDRICAL_SURFACE ( 'NONE', #376, 2.500000000000000400 ) ;
#266 = CC_DESIGN_APPROVAL ( #274, ( #353 ) ) ;
#267 = APPROVAL_DATE_TIME ( #268, #274 ) ;
#268 = DATE_AND_TIME ( #269, #270 ) ;
#269 = CALENDAR_DATE ( 2009, 29, 6 ) ;
#270 = LOCAL_TIME ( 11, 46, 54.00000000000000000, #271 ) ;
#271 = COORDINATED_UNIVERSAL_TIME_OFFSET ( 9, 0, .AHEAD. ) ;
#272 = APPROVAL_PERSON_ORGANIZATION ( #276, #274, #273 ) ;
#273 = APPROVAL_ROLE ( '' ) ;
#274 = APPROVAL ( #275, 'UNSPECIFIED' ) ;
#275 = APPROVAL_STATUS ( 'not_yet_approved' ) ;
#276 = PERSON_AND_ORGANIZATION ( #377, #306 ) ;
#277 = CC_DESIGN_DATE_AND_TIME_ASSIGNMENT ( #348, #278, ( #353 ) ) ;
#278 = DATE_TIME_ROLE ( 'classification_date' ) ;
#279 = CALENDAR_DATE ( 2009, 29, 6 ) ;
#280 = LOCAL_TIME ( 11, 46, 54.00000000000000000, #349 ) ;
#281 = CARTESIAN_POINT ( 'NONE',  ( -5.009317714864229600E-010, 2.412507003500041800, -7.000000000000000900 ) ) ;
#282 = SHAPE_DEFINITION_REPRESENTATION ( #247, #283 ) ;
#283 = ADVANCED_BREP_SHAPE_REPRESENTATION ( 'C-30-RK-3215-gray', ( #38, #304 ), #337 ) ;
#284 = LINE ( 'NONE', #281, #332 ) ;
#285 = CARTESIAN_POINT ( 'NONE',  ( -5.009326287108706300E-010, -4.999999996500434000, 0.0000000000000000000 ) ) ;
#286 = FACE_OUTER_BOUND ( 'NONE', #6, .T. ) ;
#287 = CARTESIAN_POINT ( 'NONE',  ( -5.009317714864229600E-010, -4.999999996500434000, -7.000000000000000900 ) ) ;
#288 = DIRECTION ( 'NONE',  ( 0.0000000000000000000, -0.9805806756909202200, -0.1961161351381841000 ) ) ;
#289 = VECTOR ( 'NONE', #288, 999.9999999999998900 ) ;
#290 = CARTESIAN_POINT ( 'NONE',  ( -5.009326287108706300E-010, -14.99999999650043100, -16.00000000000000000 ) ) ;
#291 = LINE ( 'NONE', #290, #289 ) ;
#292 = APPROVAL_ROLE ( '' ) ;
#293 = APPROVAL ( #294, 'UNSPECIFIED' ) ;
#294 = APPROVAL_STATUS ( 'not_yet_approved' ) ;
#295 = PERSON_AND_ORGANIZATION ( #377, #306 ) ;
#296 = PRODUCT_DEFINITION ( 'UNKNOWN', '', #372, #297 ) ;
#297 = DESIGN_CONTEXT ( 'detailed design', #299, 'design' ) ;
#298 = APPLICATION_PROTOCOL_DEFINITION ( 'international standard', 'config_control_design', 1994, #299 ) ;
#299 = APPLICATION_CONTEXT ( 'configuration controlled 3d designs of mechanical parts and assemblies' ) ;
#300 = CC_DESIGN_PERSON_AND_ORGANIZATION_ASSIGNMENT ( #305, #301, ( #378 ) ) ;
#301 = PERSON_AND_ORGANIZATION_ROLE ( 'design_owner' ) ;
#302 = CARTESIAN_POINT ( 'NONE',  ( -5.009326287108706300E-010, -14.99999999650043300, 2.500000000000001300 ) ) ;
#303 = DIRECTION ( 'NONE',  ( 0.0000000000000000000, 0.0000000000000000000, 1.000000000000000000 ) ) ;
#304 = AXIS2_PLACEMENT_3D ( 'NONE', #253, #303, #307 ) ;
#305 = PERSON_AND_ORGANIZATION ( #377, #306 ) ;
#306 = ORGANIZATION ( 'UNSPECIFIED', 'UNSPECIFIED', '' ) ;
#307 = DIRECTION ( 'NONE',  ( 1.000000000000000000, 0.0000000000000000000, 0.0000000000000000000 ) ) ;
#308 = CYLINDRICAL_SURFACE ( 'NONE', #262, 7.000000000000000900 ) ;
#309 = FACE_OUTER_BOUND ( 'NONE', #129, .T. ) ;
#310 = UNCERTAINTY_MEASURE_WITH_UNIT (LENGTH_MEASURE( 1.000000000000000100E-005 ), #251, 'distance_accuracy_value', 'NONE');
#311 =( NAMED_UNIT ( * ) SI_UNIT ( $, .STERADIAN. ) SOLID_ANGLE_UNIT ( ) );
#312 = CARTESIAN_POINT ( 'NONE',  ( -5.009326287108706300E-010, -4.999999996500434000, 0.0000000000000000000 ) ) ;
#313 = CARTESIAN_POINT ( 'NONE',  ( -5.009326287108706300E-010, -4.999999996500434000, 2.499999999999999600 ) ) ;
#314 = DIRECTION ( 'NONE',  ( 0.0000000000000000000, 0.0000000000000000000, 1.000000000000000000 ) ) ;
#315 = DIRECTION ( 'NONE',  ( 0.0000000000000000000, 1.000000000000000000, 0.0000000000000000000 ) ) ;
#316 = CC_DESIGN_DATE_AND_TIME_ASSIGNMENT ( #318, #317, ( #296 ) ) ;
#317 = DATE_TIME_ROLE ( 'creation_date' ) ;
#318 = DATE_AND_TIME ( #319, #320 ) ;
#319 = CALENDAR_DATE ( 2009, 29, 6 ) ;
#320 = LOCAL_TIME ( 11, 46, 54.00000000000000000, #321 ) ;
#321 = COORDINATED_UNIVERSAL_TIME_OFFSET ( 9, 0, .AHEAD. ) ;
#322 = CC_DESIGN_PERSON_AND_ORGANIZATION_ASSIGNMENT ( #324, #323, ( #296 ) ) ;
#323 = PERSON_AND_ORGANIZATION_ROLE ( 'creator' ) ;
#324 = PERSON_AND_ORGANIZATION ( #377, #306 ) ;
#325 = CC_DESIGN_APPROVAL ( #293, ( #296 ) ) ;
#326 = APPROVAL_DATE_TIME ( #327, #293 ) ;
#327 = DATE_AND_TIME ( #328, #329 ) ;
#328 = CALENDAR_DATE ( 2009, 29, 6 ) ;
#329 = LOCAL_TIME ( 11, 46, 54.00000000000000000, #330 ) ;
#330 = COORDINATED_UNIVERSAL_TIME_OFFSET ( 9, 0, .AHEAD. ) ;
#331 = APPROVAL_PERSON_ORGANIZATION ( #295, #293, #292 ) ;
#332 = VECTOR ( 'NONE', #336, 1000.000000000000000 ) ;
#333 = CIRCLE ( 'NONE', #252, 2.499999999999999600 ) ;
#334 = DIRECTION ( 'NONE',  ( 0.0000000000000000000, 0.0000000000000000000, 1.000000000000000000 ) ) ;
#335 = DIRECTION ( 'NONE',  ( 0.0000000000000000000, 1.000000000000000000, 0.0000000000000000000 ) ) ;
#336 = DIRECTION ( 'NONE',  ( 0.0000000000000000000, 1.000000000000000000, 0.0000000000000000000 ) ) ;
#337 =( GEOMETRIC_REPRESENTATION_CONTEXT ( 3 ) GLOBAL_UNCERTAINTY_ASSIGNED_CONTEXT ( ( #310 ) ) GLOBAL_UNIT_ASSIGNED_CONTEXT ( ( #251, #250, #311 ) ) REPRESENTATION_CONTEXT ( 'NONE', 'WORKASPACE' ) );
#338 = CARTESIAN_POINT ( 'NONE',  ( -5.009317714864229600E-010, 3.499566521986130500E-009, -7.000000000000000000 ) ) ;
#339 = DIRECTION ( 'NONE',  ( 0.0000000000000000000, 0.0000000000000000000, 1.000000000000000000 ) ) ;
#340 = DIRECTION ( 'NONE',  ( 0.0000000000000000000, 1.000000000000000000, 0.0000000000000000000 ) ) ;
#341 = CARTESIAN_POINT ( 'NONE',  ( -5.009326287108706300E-010, -4.999999996500434000, 0.0000000000000000000 ) ) ;
#342 = AXIS2_PLACEMENT_3D ( 'NONE', #341, #340, #339 ) ;
#343 = CIRCLE ( 'NONE', #342, 7.000000000000000900 ) ;
#344 = LINE ( 'NONE', #256, #255 ) ;
#345 = DIRECTION ( 'NONE',  ( 0.0000000000000000000, 0.0000000000000000000, 1.000000000000000000 ) ) ;
#346 = DIRECTION ( 'NONE',  ( 0.0000000000000000000, 1.000000000000000000, 0.0000000000000000000 ) ) ;
#347 = CARTESIAN_POINT ( 'NONE',  ( -5.009326287108706300E-010, 2.412507003500041800, 0.0000000000000000000 ) ) ;
#348 = DATE_AND_TIME ( #279, #280 ) ;
#349 = COORDINATED_UNIVERSAL_TIME_OFFSET ( 9, 0, .AHEAD. ) ;
#350 = CC_DESIGN_PERSON_AND_ORGANIZATION_ASSIGNMENT ( #352, #351, ( #353 ) ) ;
#351 = PERSON_AND_ORGANIZATION_ROLE ( 'classification_officer' ) ;
#352 = PERSON_AND_ORGANIZATION ( #377, #306 ) ;
#353 = SECURITY_CLASSIFICATION ( '', '', #354 ) ;
#354 = SECURITY_CLASSIFICATION_LEVEL ( 'unclassified' ) ;
#355 = CC_DESIGN_PERSON_AND_ORGANIZATION_ASSIGNMENT ( #357, #356, ( #372 ) ) ;
#356 = PERSON_AND_ORGANIZATION_ROLE ( 'design_supplier' ) ;
#357 = PERSON_AND_ORGANIZATION ( #377, #306 ) ;
#358 = CC_DESIGN_PERSON_AND_ORGANIZATION_ASSIGNMENT ( #360, #359, ( #372 ) ) ;
#359 = PERSON_AND_ORGANIZATION_ROLE ( 'creator' ) ;
#360 = PERSON_AND_ORGANIZATION ( #377, #306 ) ;
#361 = CC_DESIGN_APPROVAL ( #369, ( #372 ) ) ;
#362 = APPROVAL_DATE_TIME ( #363, #369 ) ;
#363 = DATE_AND_TIME ( #364, #365 ) ;
#364 = CALENDAR_DATE ( 2009, 29, 6 ) ;
#365 = LOCAL_TIME ( 11, 46, 54.00000000000000000, #366 ) ;
#366 = COORDINATED_UNIVERSAL_TIME_OFFSET ( 9, 0, .AHEAD. ) ;
#367 = APPROVAL_PERSON_ORGANIZATION ( #371, #369, #368 ) ;
#368 = APPROVAL_ROLE ( '' ) ;
#369 = APPROVAL ( #370, 'UNSPECIFIED' ) ;
#370 = APPROVAL_STATUS ( 'not_yet_approved' ) ;
#371 = PERSON_AND_ORGANIZATION ( #377, #306 ) ;
#372 = PRODUCT_DEFINITION_FORMATION_WITH_SPECIFIED_SOURCE ( 'ANY', '', #378, .NOT_KNOWN. ) ;
#373 = DIRECTION ( 'NONE',  ( 0.0000000000000000000, 0.0000000000000000000, 1.000000000000000000 ) ) ;
#374 = DIRECTION ( 'NONE',  ( 0.0000000000000000000, 1.000000000000000000, 0.0000000000000000000 ) ) ;
#375 = CARTESIAN_POINT ( 'NONE',  ( -5.009326287108706300E-010, 2.412507003500041800, 0.0000000000000000000 ) ) ;
#376 = AXIS2_PLACEMENT_3D ( 'NONE', #375, #374, #373 ) ;
#377 = PERSON ( 'UNSPECIFIED', 'UNSPECIFIED', 'UNSPECIFIED', ('UNSPECIFIED'), ('UNSPECIFIED'), ('UNSPECIFIED') ) ;
#378 = PRODUCT ( 'C-30-RK-3215-gray', 'C-30-RK-3215-gray', '', ( #379 ) ) ;
#379 = MECHANICAL_CONTEXT ( 'NONE', #381, 'mechanical' ) ;
#380 = APPLICATION_PROTOCOL_DEFINITION ( 'international standard', 'config_control_design', 1994, #381 ) ;
#381 = APPLICATION_CONTEXT ( 'configuration controlled 3d designs of mechanical parts and assemblies' ) ;
ENDSEC;
END-ISO-10303-21;
