ISO-10303-21;
HEADER;
FILE_DESCRIPTION (( 'STEP AP203' ),
    '1' );
FILE_NAME ('C-30-RK-3215.STEP',
    '2009-06-26T07:54:25',
    ( '11sw' ),
    ( '^LQ»¢®ïÐ' ),
    'SwSTEP 2.0',
    'SolidWorks 2007',
    '' );
FILE_SCHEMA (( 'CONFIG_CONTROL_DESIGN' ));
ENDSEC;

DATA;
#1 = ORIENTED_EDGE ( 'NONE', *, *, #2, .F. ) ;
#2 = EDGE_CURVE ( 'NONE', #38, #11, #220, .T. ) ;
#3 = ORIENTED_EDGE ( 'NONE', *, *, #22, .F. ) ;
#4 = ORIENTED_EDGE ( 'NONE', *, *, #12, .T. ) ;
#5 = ORIENTED_EDGE ( 'NONE', *, *, #242, .T. ) ;
#6 = ORIENTED_EDGE ( 'NONE', *, *, #56, .T. ) ;
#7 = ADVANCED_FACE ( 'NONE', ( #221 ), #214, .T. ) ;
#8 = EDGE_LOOP ( 'NONE', ( #9, #15, #16, #68 ) ) ;
#9 = ORIENTED_EDGE ( 'NONE', *, *, #35, .F. ) ;
#10 = EDGE_LOOP ( 'NONE', ( #225, #227 ) ) ;
#11 = VERTEX_POINT ( 'NONE', #210 ) ;
#12 = EDGE_CURVE ( 'NONE', #66, #38, #209, .T. ) ;
#13 = ORIENTED_EDGE ( 'NONE', *, *, #2, .T. ) ;
#14 = ADVANCED_FACE ( 'NONE', ( #204 ), #203, .T. ) ;
#15 = ORIENTED_EDGE ( 'NONE', *, *, #12, .F. ) ;
#16 = ORIENTED_EDGE ( 'NONE', *, *, #42, .T. ) ;
#17 = ORIENTED_EDGE ( 'NONE', *, *, #25, .F. ) ;
#18 = EDGE_LOOP ( 'NONE', ( #20, #21, #24, #1 ) ) ;
#19 = EDGE_CURVE ( 'NONE', #28, #29, #198, .T. ) ;
#20 = ORIENTED_EDGE ( 'NONE', *, *, #36, .T. ) ;
#21 = ORIENTED_EDGE ( 'NONE', *, *, #22, .T. ) ;
#22 = EDGE_CURVE ( 'NONE', #66, #23, #193, .T. ) ;
#23 = VERTEX_POINT ( 'NONE', #188 ) ;
#24 = ORIENTED_EDGE ( 'NONE', *, *, #246, .F. ) ;
#25 = EDGE_CURVE ( 'NONE', #60, #29, #187, .T. ) ;
#26 = ADVANCED_FACE ( 'NONE', ( #183 ), #181, .T. ) ;
#27 = ORIENTED_EDGE ( 'NONE', *, *, #19, .T. ) ;
#28 = VERTEX_POINT ( 'NONE', #177 ) ;
#29 = VERTEX_POINT ( 'NONE', #176 ) ;
#30 = ORIENTED_EDGE ( 'NONE', *, *, #45, .F. ) ;
#31 = VERTEX_POINT ( 'NONE', #175 ) ;
#32 = EDGE_LOOP ( 'NONE', ( #58, #54, #50, #30 ) ) ;
#33 = VERTEX_POINT ( 'NONE', #174 ) ;
#34 = ORIENTED_EDGE ( 'NONE', *, *, #42, .F. ) ;
#35 = EDGE_CURVE ( 'NONE', #38, #65, #173, .T. ) ;
#36 = EDGE_CURVE ( 'NONE', #38, #66, #169, .T. ) ;
#37 = ORIENTED_EDGE ( 'NONE', *, *, #36, .F. ) ;
#38 = VERTEX_POINT ( 'NONE', #164 ) ;
#39 = ORIENTED_EDGE ( 'NONE', *, *, #40, .T. ) ;
#40 = EDGE_CURVE ( 'NONE', #65, #61, #162, .T. ) ;
#41 = MANIFOLD_SOLID_BREP ( 'NONE', #67 ) ;
#42 = EDGE_CURVE ( 'NONE', #66, #61, #163, .T. ) ;
#43 = EDGE_CURVE ( 'NONE', #31, #28, #154, .T. ) ;
#44 = ADVANCED_FACE ( 'NONE', ( #150 ), #148, .F. ) ;
#45 = EDGE_CURVE ( 'NONE', #59, #49, #149, .T. ) ;
#46 = EDGE_CURVE ( 'NONE', #33, #55, #140, .T. ) ;
#47 = ADVANCED_FACE ( 'NONE', ( #134 ), #135, .F. ) ;
#48 = EDGE_CURVE ( 'NONE', #55, #49, #129, .T. ) ;
#49 = VERTEX_POINT ( 'NONE', #125 ) ;
#50 = ORIENTED_EDGE ( 'NONE', *, *, #48, .T. ) ;
#51 = ORIENTED_EDGE ( 'NONE', *, *, #52, .F. ) ;
#52 = EDGE_CURVE ( 'NONE', #31, #60, #124, .T. ) ;
#53 = ORIENTED_EDGE ( 'NONE', *, *, #43, .T. ) ;
#54 = ORIENTED_EDGE ( 'NONE', *, *, #46, .T. ) ;
#55 = VERTEX_POINT ( 'NONE', #119 ) ;
#56 = EDGE_CURVE ( 'NONE', #33, #59, #118, .T. ) ;
#57 = EDGE_LOOP ( 'NONE', ( #51, #53, #27, #17 ) ) ;
#58 = ORIENTED_EDGE ( 'NONE', *, *, #56, .F. ) ;
#59 = VERTEX_POINT ( 'NONE', #113 ) ;
#60 = VERTEX_POINT ( 'NONE', #112 ) ;
#61 = VERTEX_POINT ( 'NONE', #111 ) ;
#62 = ADVANCED_FACE ( 'NONE', ( #110 ), #107, .T. ) ;
#63 = EDGE_LOOP ( 'NONE', ( #37, #64, #39, #34 ) ) ;
#64 = ORIENTED_EDGE ( 'NONE', *, *, #35, .T. ) ;
#65 = VERTEX_POINT ( 'NONE', #108 ) ;
#66 = VERTEX_POINT ( 'NONE', #103 ) ;
#67 = CLOSED_SHELL ( 'NONE', ( #62, #44, #47, #26, #14, #224, #230, #251, #238, #245, #7 ) ) ;
#68 = ORIENTED_EDGE ( 'NONE', *, *, #258, .T. ) ;
#69 = DIRECTION ( 'NONE',  ( 0.0000000000000000000, 0.0000000000000000000, 1.000000000000000000 ) ) ;
#70 = DIRECTION ( 'NONE',  ( 0.0000000000000000000, 1.000000000000000000, 0.0000000000000000000 ) ) ;
#71 = AXIS2_PLACEMENT_3D ( 'NONE', #76, #70, #69 ) ;
#72 = CIRCLE ( 'NONE', #71, 2.500000000000001300 ) ;
#73 = DIRECTION ( 'NONE',  ( 0.0000000000000000000, 0.0000000000000000000, 1.000000000000000000 ) ) ;
#74 = DIRECTION ( 'NONE',  ( 0.0000000000000000000, 1.000000000000000000, 0.0000000000000000000 ) ) ;
#75 = AXIS2_PLACEMENT_3D ( 'NONE', #83, #74, #73 ) ;
#76 = CARTESIAN_POINT ( 'NONE',  ( -5.009326287108706300E-010, -14.99999999650043300, 0.0000000000000000000 ) ) ;
#77 = CYLINDRICAL_SURFACE ( 'NONE', #75, 2.500000000000000400 ) ;
#78 = FACE_OUTER_BOUND ( 'NONE', #239, .T. ) ;
#79 = DIRECTION ( 'NONE',  ( 0.0000000000000000000, 0.0000000000000000000, 1.000000000000000000 ) ) ;
#80 = DIRECTION ( 'NONE',  ( 0.0000000000000000000, 1.000000000000000000, 0.0000000000000000000 ) ) ;
#81 = CARTESIAN_POINT ( 'NONE',  ( -5.009326287108706300E-010, 2.412507003500041800, 0.0000000000000000000 ) ) ;
#82 = AXIS2_PLACEMENT_3D ( 'NONE', #81, #80, #79 ) ;
#83 = CARTESIAN_POINT ( 'NONE',  ( -5.009326287108706300E-010, 2.412507003500041800, 0.0000000000000000000 ) ) ;
#84 = CYLINDRICAL_SURFACE ( 'NONE', #82, 7.000000000000000900 ) ;
#85 = FACE_OUTER_BOUND ( 'NONE', #231, .T. ) ;
#86 = DIRECTION ( 'NONE',  ( 0.0000000000000000000, 0.0000000000000000000, 1.000000000000000000 ) ) ;
#87 = DIRECTION ( 'NONE',  ( 0.0000000000000000000, 1.000000000000000000, 0.0000000000000000000 ) ) ;
#88 = CARTESIAN_POINT ( 'NONE',  ( -5.009326287108706300E-010, 3.499566521986130500E-009, 0.0000000000000000000 ) ) ;
#89 = AXIS2_PLACEMENT_3D ( 'NONE', #88, #87, #86 ) ;
#90 = CIRCLE ( 'NONE', #89, 7.000000000000000000 ) ;
#91 = DIRECTION ( 'NONE',  ( 0.0000000000000000000, 0.0000000000000000000, -1.000000000000000000 ) ) ;
#92 = DIRECTION ( 'NONE',  ( 0.0000000000000000000, -1.000000000000000000, 0.0000000000000000000 ) ) ;
#93 = CARTESIAN_POINT ( 'NONE',  ( 11.77029414542122300, 3.499566521986130500E-009, 0.0000000000000000000 ) ) ;
#94 = AXIS2_PLACEMENT_3D ( 'NONE', #93, #92, #91 ) ;
#95 = PLANE ( 'NONE',  #94 ) ;
#96 = FACE_OUTER_BOUND ( 'NONE', #247, .T. ) ;
#97 = FACE_BOUND ( 'NONE', #10, .T. ) ;
#98 = DIRECTION ( 'NONE',  ( 0.0000000000000000000, 0.0000000000000000000, 1.000000000000000000 ) ) ;
#99 = DIRECTION ( 'NONE',  ( 0.0000000000000000000, 1.000000000000000000, 0.0000000000000000000 ) ) ;
#100 = CARTESIAN_POINT ( 'NONE',  ( -5.009326287108706300E-010, 3.499566521986130500E-009, 0.0000000000000000000 ) ) ;
#101 = AXIS2_PLACEMENT_3D ( 'NONE', #100, #99, #98 ) ;
#102 = CIRCLE ( 'NONE', #101, 11.77029414592215600 ) ;
#103 = CARTESIAN_POINT ( 'NONE',  ( -5.009310071893720000E-010, -1.205825793793165300, -13.24116515945854600 ) ) ;
#104 = DIRECTION ( 'NONE',  ( 0.0000000000000000000, 0.0000000000000000000, -1.000000000000000000 ) ) ;
#105 = DIRECTION ( 'NONE',  ( 0.0000000000000000000, -1.000000000000000000, 0.0000000000000000000 ) ) ;
#106 = AXIS2_PLACEMENT_3D ( 'NONE', #109, #105, #104 ) ;
#107 = CONICAL_SURFACE ( 'NONE', #106, 16.00000000000000000, 0.1973955598498808300 ) ;
#108 = CARTESIAN_POINT ( 'NONE',  ( -5.009306693407045200E-010, -14.99999999650043100, 16.00000000000000000 ) ) ;
#109 = CARTESIAN_POINT ( 'NONE',  ( -5.009326287108706300E-010, -14.99999999650043100, 0.0000000000000000000 ) ) ;
#110 = FACE_OUTER_BOUND ( 'NONE', #63, .T. ) ;
#111 = CARTESIAN_POINT ( 'NONE',  ( -5.009326287108706300E-010, -14.99999999650043100, -16.00000000000000000 ) ) ;
#112 = CARTESIAN_POINT ( 'NONE',  ( -5.009326287108706300E-010, -4.999999996500434000, 7.000000000000000900 ) ) ;
#113 = CARTESIAN_POINT ( 'NONE',  ( -5.009326287108706300E-010, -14.99999999650043300, 2.500000000000001300 ) ) ;
#114 = DIRECTION ( 'NONE',  ( 0.0000000000000000000, 0.0000000000000000000, 1.000000000000000000 ) ) ;
#115 = DIRECTION ( 'NONE',  ( 0.0000000000000000000, 1.000000000000000000, 0.0000000000000000000 ) ) ;
#116 = CARTESIAN_POINT ( 'NONE',  ( -5.009326287108706300E-010, -14.99999999650043300, 0.0000000000000000000 ) ) ;
#117 = AXIS2_PLACEMENT_3D ( 'NONE', #116, #115, #114 ) ;
#118 = CIRCLE ( 'NONE', #117, 2.500000000000001300 ) ;
#119 = CARTESIAN_POINT ( 'NONE',  ( -5.009323225592821800E-010, -4.999999996500434000, -2.499999999999999600 ) ) ;
#120 = DIRECTION ( 'NONE',  ( 0.0000000000000000000, 0.0000000000000000000, 1.000000000000000000 ) ) ;
#121 = DIRECTION ( 'NONE',  ( 0.0000000000000000000, 1.000000000000000000, 0.0000000000000000000 ) ) ;
#122 = CARTESIAN_POINT ( 'NONE',  ( -5.009326287108706300E-010, -4.999999996500434000, 0.0000000000000000000 ) ) ;
#123 = AXIS2_PLACEMENT_3D ( 'NONE', #122, #121, #120 ) ;
#124 = CIRCLE ( 'NONE', #123, 7.000000000000000900 ) ;
#125 = CARTESIAN_POINT ( 'NONE',  ( -5.009326287108706300E-010, -4.999999996500434000, 2.499999999999999600 ) ) ;
#126 = DIRECTION ( 'NONE',  ( 0.0000000000000000000, 0.0000000000000000000, 1.000000000000000000 ) ) ;
#127 = DIRECTION ( 'NONE',  ( 0.0000000000000000000, 1.000000000000000000, 0.0000000000000000000 ) ) ;
#128 = AXIS2_PLACEMENT_3D ( 'NONE', #133, #127, #126 ) ;
#129 = CIRCLE ( 'NONE', #128, 2.499999999999999600 ) ;
#130 = DIRECTION ( 'NONE',  ( 0.0000000000000000000, 0.0000000000000000000, 1.000000000000000000 ) ) ;
#131 = DIRECTION ( 'NONE',  ( 0.0000000000000000000, 1.000000000000000000, 0.0000000000000000000 ) ) ;
#132 = AXIS2_PLACEMENT_3D ( 'NONE', #139, #131, #130 ) ;
#133 = CARTESIAN_POINT ( 'NONE',  ( -5.009326287108706300E-010, -4.999999996500434000, 0.0000000000000000000 ) ) ;
#134 = FACE_OUTER_BOUND ( 'NONE', #57, .T. ) ;
#135 = CYLINDRICAL_SURFACE ( 'NONE', #132, 7.000000000000000900 ) ;
#136 = DIRECTION ( 'NONE',  ( 0.0000000000000000000, 1.000000000000000000, 0.0000000000000000000 ) ) ;
#137 = VECTOR ( 'NONE', #136, 1000.000000000000000 ) ;
#138 = CARTESIAN_POINT ( 'NONE',  ( -5.009323225592821800E-010, 2.412507003500041800, -2.500000000000000400 ) ) ;
#139 = CARTESIAN_POINT ( 'NONE',  ( -5.009326287108706300E-010, 2.412507003500041800, 0.0000000000000000000 ) ) ;
#140 = LINE ( 'NONE', #138, #137 ) ;
#141 = DIRECTION ( 'NONE',  ( 0.0000000000000000000, 1.000000000000000000, 0.0000000000000000000 ) ) ;
#142 = VECTOR ( 'NONE', #141, 1000.000000000000000 ) ;
#143 = CARTESIAN_POINT ( 'NONE',  ( -5.009326287108706300E-010, 2.412507003500041800, 2.500000000000000400 ) ) ;
#144 = DIRECTION ( 'NONE',  ( 0.0000000000000000000, 0.0000000000000000000, 1.000000000000000000 ) ) ;
#145 = DIRECTION ( 'NONE',  ( 0.0000000000000000000, 1.000000000000000000, 0.0000000000000000000 ) ) ;
#146 = CARTESIAN_POINT ( 'NONE',  ( -5.009326287108706300E-010, 2.412507003500041800, 0.0000000000000000000 ) ) ;
#147 = AXIS2_PLACEMENT_3D ( 'NONE', #146, #145, #144 ) ;
#148 = CYLINDRICAL_SURFACE ( 'NONE', #147, 2.500000000000000400 ) ;
#149 = LINE ( 'NONE', #143, #142 ) ;
#150 = FACE_OUTER_BOUND ( 'NONE', #32, .T. ) ;
#151 = DIRECTION ( 'NONE',  ( 0.0000000000000000000, 1.000000000000000000, 0.0000000000000000000 ) ) ;
#152 = VECTOR ( 'NONE', #151, 1000.000000000000000 ) ;
#153 = CARTESIAN_POINT ( 'NONE',  ( -5.009317714864229600E-010, 2.412507003500041800, -7.000000000000000900 ) ) ;
#154 = LINE ( 'NONE', #153, #152 ) ;
#155 = DIRECTION ( 'NONE',  ( 0.0000000000000000000, -0.9805806756909202200, -0.1961161351381841000 ) ) ;
#156 = VECTOR ( 'NONE', #155, 999.9999999999998900 ) ;
#157 = CARTESIAN_POINT ( 'NONE',  ( -5.009326287108706300E-010, -14.99999999650043100, -16.00000000000000000 ) ) ;
#158 = DIRECTION ( 'NONE',  ( 0.0000000000000000000, 0.0000000000000000000, 1.000000000000000000 ) ) ;
#159 = DIRECTION ( 'NONE',  ( 0.0000000000000000000, 1.000000000000000000, 0.0000000000000000000 ) ) ;
#160 = CARTESIAN_POINT ( 'NONE',  ( -5.009326287108706300E-010, -14.99999999650043100, 0.0000000000000000000 ) ) ;
#161 = AXIS2_PLACEMENT_3D ( 'NONE', #160, #159, #158 ) ;
#162 = CIRCLE ( 'NONE', #161, 16.00000000000000000 ) ;
#163 = LINE ( 'NONE', #157, #156 ) ;
#164 = CARTESIAN_POINT ( 'NONE',  ( -5.009326287108706300E-010, -1.205825793793165300, 13.24116515945854600 ) ) ;
#165 = DIRECTION ( 'NONE',  ( 0.0000000000000000000, 0.0000000000000000000, 1.000000000000000000 ) ) ;
#166 = DIRECTION ( 'NONE',  ( 0.0000000000000000000, 1.000000000000000000, 0.0000000000000000000 ) ) ;
#167 = CARTESIAN_POINT ( 'NONE',  ( -5.009326287108706300E-010, -1.205825793793165300, 0.0000000000000000000 ) ) ;
#168 = AXIS2_PLACEMENT_3D ( 'NONE', #167, #166, #165 ) ;
#169 = CIRCLE ( 'NONE', #168, 13.24116515945854600 ) ;
#170 = DIRECTION ( 'NONE',  ( 2.401650651773082500E-017, -0.9805806756909202200, 0.1961161351381841000 ) ) ;
#171 = VECTOR ( 'NONE', #170, 999.9999999999998900 ) ;
#172 = CARTESIAN_POINT ( 'NONE',  ( -5.009306693407045200E-010, -14.99999999650043100, 16.00000000000000000 ) ) ;
#173 = LINE ( 'NONE', #172, #171 ) ;
#174 = CARTESIAN_POINT ( 'NONE',  ( -5.009323225592821800E-010, -14.99999999650043300, -2.500000000000001300 ) ) ;
#175 = CARTESIAN_POINT ( 'NONE',  ( -5.009317714864229600E-010, -4.999999996500434000, -7.000000000000000900 ) ) ;
#176 = CARTESIAN_POINT ( 'NONE',  ( -5.009326287108706300E-010, 3.499566521986130500E-009, 7.000000000000000000 ) ) ;
#177 = CARTESIAN_POINT ( 'NONE',  ( -5.009317714864229600E-010, 3.499566521986130500E-009, -7.000000000000000000 ) ) ;
#178 = DIRECTION ( 'NONE',  ( 0.0000000000000000000, 0.0000000000000000000, 1.000000000000000000 ) ) ;
#179 = DIRECTION ( 'NONE',  ( 0.0000000000000000000, 1.000000000000000000, 0.0000000000000000000 ) ) ;
#180 = AXIS2_PLACEMENT_3D ( 'NONE', #182, #179, #178 ) ;
#181 = TOROIDAL_SURFACE ( 'NONE', #180, 11.77029414592216300, 1.500000000000000000 ) ;
#182 = CARTESIAN_POINT ( 'NONE',  ( -5.009326287108706300E-010, -1.499999996500432900, 0.0000000000000000000 ) ) ;
#183 = FACE_OUTER_BOUND ( 'NONE', #18, .T. ) ;
#184 = DIRECTION ( 'NONE',  ( 0.0000000000000000000, 1.000000000000000000, 0.0000000000000000000 ) ) ;
#185 = VECTOR ( 'NONE', #184, 1000.000000000000000 ) ;
#186 = CARTESIAN_POINT ( 'NONE',  ( -5.009326287108706300E-010, 2.412507003500041800, 7.000000000000000900 ) ) ;
#187 = LINE ( 'NONE', #186, #185 ) ;
#188 = CARTESIAN_POINT ( 'NONE',  ( -5.009310972512714700E-010, 3.499566521986130500E-009, -11.77029414592215600 ) ) ;
#189 = DIRECTION ( 'NONE',  ( 1.224606353612351200E-016, 0.0000000000000000000, -1.000000000000000000 ) ) ;
#190 = DIRECTION ( 'NONE',  ( 1.000000000000000000, 0.0000000000000000000, 1.224606353822377300E-016 ) ) ;
#191 = CARTESIAN_POINT ( 'NONE',  ( -5.009311873131709300E-010, -1.499999996500432900, -11.77029414592216300 ) ) ;
#192 = AXIS2_PLACEMENT_3D ( 'NONE', #191, #190, #189 ) ;
#193 = CIRCLE ( 'NONE', #192, 1.499999999999999600 ) ;
#194 = DIRECTION ( 'NONE',  ( 0.0000000000000000000, 0.0000000000000000000, 1.000000000000000000 ) ) ;
#195 = DIRECTION ( 'NONE',  ( 0.0000000000000000000, 1.000000000000000000, 0.0000000000000000000 ) ) ;
#196 = CARTESIAN_POINT ( 'NONE',  ( -5.009326287108706300E-010, 3.499566521986130500E-009, 0.0000000000000000000 ) ) ;
#197 = AXIS2_PLACEMENT_3D ( 'NONE', #196, #195, #194 ) ;
#198 = CIRCLE ( 'NONE', #197, 7.000000000000000000 ) ;
#199 = DIRECTION ( 'NONE',  ( 0.0000000000000000000, 0.0000000000000000000, 1.000000000000000000 ) ) ;
#200 = DIRECTION ( 'NONE',  ( 0.0000000000000000000, 1.000000000000000000, 0.0000000000000000000 ) ) ;
#201 = CARTESIAN_POINT ( 'NONE',  ( -5.009326287108706300E-010, -1.499999996500432900, 0.0000000000000000000 ) ) ;
#202 = AXIS2_PLACEMENT_3D ( 'NONE', #201, #200, #199 ) ;
#203 = TOROIDAL_SURFACE ( 'NONE', #202, 11.77029414592216300, 1.500000000000000000 ) ;
#204 = FACE_OUTER_BOUND ( 'NONE', #255, .T. ) ;
#205 = DIRECTION ( 'NONE',  ( 0.0000000000000000000, 0.0000000000000000000, 1.000000000000000000 ) ) ;
#206 = DIRECTION ( 'NONE',  ( 0.0000000000000000000, 1.000000000000000000, 0.0000000000000000000 ) ) ;
#207 = CARTESIAN_POINT ( 'NONE',  ( -5.009326287108706300E-010, -1.205825793793165300, 0.0000000000000000000 ) ) ;
#208 = AXIS2_PLACEMENT_3D ( 'NONE', #207, #206, #205 ) ;
#209 = CIRCLE ( 'NONE', #208, 13.24116515945854600 ) ;
#210 = CARTESIAN_POINT ( 'NONE',  ( -5.009326287108706300E-010, 3.499566521986130500E-009, 11.77029414592215600 ) ) ;
#211 = DIRECTION ( 'NONE',  ( 0.0000000000000000000, 0.0000000000000000000, -1.000000000000000000 ) ) ;
#212 = DIRECTION ( 'NONE',  ( 0.0000000000000000000, -1.000000000000000000, 0.0000000000000000000 ) ) ;
#213 = AXIS2_PLACEMENT_3D ( 'NONE', #215, #212, #211 ) ;
#214 = CONICAL_SURFACE ( 'NONE', #213, 16.00000000000000000, 0.1973955598498808300 ) ;
#215 = CARTESIAN_POINT ( 'NONE',  ( -5.009326287108706300E-010, -14.99999999650043100, 0.0000000000000000000 ) ) ;
#216 = DIRECTION ( 'NONE',  ( 0.0000000000000000000, 0.0000000000000000000, 1.000000000000000000 ) ) ;
#217 = DIRECTION ( 'NONE',  ( -1.000000000000000000, 0.0000000000000000000, 0.0000000000000000000 ) ) ;
#218 = CARTESIAN_POINT ( 'NONE',  ( -5.009326287108706300E-010, -1.499999996500432900, 11.77029414592216300 ) ) ;
#219 = AXIS2_PLACEMENT_3D ( 'NONE', #218, #217, #216 ) ;
#220 = CIRCLE ( 'NONE', #219, 1.499999999999999600 ) ;
#221 = FACE_OUTER_BOUND ( 'NONE', #8, .T. ) ;
#222 = ORIENTED_EDGE ( 'NONE', *, *, #223, .F. ) ;
#223 = EDGE_CURVE ( 'NONE', #23, #11, #102, .T. ) ;
#224 = ADVANCED_FACE ( 'NONE', ( #97, #96 ), #95, .F. ) ;
#225 = ORIENTED_EDGE ( 'NONE', *, *, #226, .F. ) ;
#226 = EDGE_CURVE ( 'NONE', #29, #28, #90, .T. ) ;
#227 = ORIENTED_EDGE ( 'NONE', *, *, #19, .F. ) ;
#228 = ORIENTED_EDGE ( 'NONE', *, *, #246, .T. ) ;
#229 = ORIENTED_EDGE ( 'NONE', *, *, #223, .T. ) ;
#230 = ADVANCED_FACE ( 'NONE', ( #85 ), #84, .F. ) ;
#231 = EDGE_LOOP ( 'NONE', ( #232, #233, #249, #250 ) ) ;
#232 = ORIENTED_EDGE ( 'NONE', *, *, #43, .F. ) ;
#233 = ORIENTED_EDGE ( 'NONE', *, *, #248, .F. ) ;
#234 = ORIENTED_EDGE ( 'NONE', *, *, #48, .F. ) ;
#235 = EDGE_LOOP ( 'NONE', ( #236, #237 ) ) ;
#236 = ORIENTED_EDGE ( 'NONE', *, *, #248, .T. ) ;
#237 = ORIENTED_EDGE ( 'NONE', *, *, #52, .T. ) ;
#238 = ADVANCED_FACE ( 'NONE', ( #78 ), #77, .F. ) ;
#239 = EDGE_LOOP ( 'NONE', ( #240, #241, #243, #244 ) ) ;
#240 = ORIENTED_EDGE ( 'NONE', *, *, #46, .F. ) ;
#241 = ORIENTED_EDGE ( 'NONE', *, *, #242, .F. ) ;
#242 = EDGE_CURVE ( 'NONE', #59, #33, #72, .T. ) ;
#243 = ORIENTED_EDGE ( 'NONE', *, *, #45, .T. ) ;
#244 = ORIENTED_EDGE ( 'NONE', *, *, #254, .T. ) ;
#245 = ADVANCED_FACE ( 'NONE', ( #365, #376 ), #366, .F. ) ;
#246 = EDGE_CURVE ( 'NONE', #11, #23, #361, .T. ) ;
#247 = EDGE_LOOP ( 'NONE', ( #228, #229 ) ) ;
#248 = EDGE_CURVE ( 'NONE', #60, #31, #355, .T. ) ;
#249 = ORIENTED_EDGE ( 'NONE', *, *, #25, .T. ) ;
#250 = ORIENTED_EDGE ( 'NONE', *, *, #226, .T. ) ;
#251 = ADVANCED_FACE ( 'NONE', ( #356, #379 ), #378, .F. ) ;
#252 = EDGE_LOOP ( 'NONE', ( #253, #234 ) ) ;
#253 = ORIENTED_EDGE ( 'NONE', *, *, #254, .F. ) ;
#254 = EDGE_CURVE ( 'NONE', #49, #55, #372, .T. ) ;
#255 = EDGE_LOOP ( 'NONE', ( #3, #4, #13, #222 ) ) ;
#256 = EDGE_LOOP ( 'NONE', ( #257, #259 ) ) ;
#257 = ORIENTED_EDGE ( 'NONE', *, *, #258, .F. ) ;
#258 = EDGE_CURVE ( 'NONE', #61, #65, #367, .T. ) ;
#259 = ORIENTED_EDGE ( 'NONE', *, *, #40, .F. ) ;
#260 = EDGE_LOOP ( 'NONE', ( #5, #6 ) ) ;
#261 = DIRECTION ( 'NONE',  ( 1.000000000000000000, 0.0000000000000000000, 0.0000000000000000000 ) ) ;
#262 = DIRECTION ( 'NONE',  ( 0.0000000000000000000, 0.0000000000000000000, 1.000000000000000000 ) ) ;
#263 = AXIS2_PLACEMENT_3D ( 'NONE', #271, #262, #261 ) ;
#264 = SHAPE_DEFINITION_REPRESENTATION ( #276, #265 ) ;
#265 = ADVANCED_BREP_SHAPE_REPRESENTATION ( 'C-30-RK-3215', ( #41, #263 ), #266 ) ;
#266 =( GEOMETRIC_REPRESENTATION_CONTEXT ( 3 ) GLOBAL_UNCERTAINTY_ASSIGNED_CONTEXT ( ( #267 ) ) GLOBAL_UNIT_ASSIGNED_CONTEXT ( ( #270, #269, #268 ) ) REPRESENTATION_CONTEXT ( 'NONE', 'WORKASPACE' ) );
#267 = UNCERTAINTY_MEASURE_WITH_UNIT (LENGTH_MEASURE( 1.000000000000000100E-005 ), #270, 'distance_accuracy_value', 'NONE');
#268 =( NAMED_UNIT ( * ) SI_UNIT ( $, .STERADIAN. ) SOLID_ANGLE_UNIT ( ) );
#269 =( NAMED_UNIT ( * ) PLANE_ANGLE_UNIT ( ) SI_UNIT ( $, .RADIAN. ) );
#270 =( LENGTH_UNIT ( ) NAMED_UNIT ( * ) SI_UNIT ( .MILLI., .METRE. ) );
#271 = CARTESIAN_POINT ( 'NONE',  ( 0.0000000000000000000, 0.0000000000000000000, 0.0000000000000000000 ) ) ;
#272 = DIRECTION ( 'NONE',  ( 0.0000000000000000000, 0.0000000000000000000, 1.000000000000000000 ) ) ;
#273 = DIRECTION ( 'NONE',  ( 0.0000000000000000000, 1.000000000000000000, 0.0000000000000000000 ) ) ;
#274 = CARTESIAN_POINT ( 'NONE',  ( -5.009326287108706300E-010, -14.99999999650043100, 0.0000000000000000000 ) ) ;
#275 = AXIS2_PLACEMENT_3D ( 'NONE', #274, #273, #272 ) ;
#276 = PRODUCT_DEFINITION_SHAPE ( 'NONE', 'NONE',  #339 ) ;
#277 = PRODUCT_RELATED_PRODUCT_CATEGORY ( 'detail', '', ( #348 ) ) ;
#278 = CC_DESIGN_SECURITY_CLASSIFICATION ( #299, ( #318 ) ) ;
#279 = CC_DESIGN_APPROVAL ( #287, ( #299 ) ) ;
#280 = APPROVAL_DATE_TIME ( #281, #287 ) ;
#281 = DATE_AND_TIME ( #282, #283 ) ;
#282 = CALENDAR_DATE ( 2009, 26, 6 ) ;
#283 = LOCAL_TIME ( 16, 54, 25.00000000000000000, #284 ) ;
#284 = COORDINATED_UNIVERSAL_TIME_OFFSET ( 9, 0, .AHEAD. ) ;
#285 = APPROVAL_PERSON_ORGANIZATION ( #289, #287, #286 ) ;
#286 = APPROVAL_ROLE ( '' ) ;
#287 = APPROVAL ( #288, 'UNSPECIFIED' ) ;
#288 = APPROVAL_STATUS ( 'not_yet_approved' ) ;
#289 = PERSON_AND_ORGANIZATION ( #347, #346 ) ;
#290 = CC_DESIGN_DATE_AND_TIME_ASSIGNMENT ( #292, #291, ( #299 ) ) ;
#291 = DATE_TIME_ROLE ( 'classification_date' ) ;
#292 = DATE_AND_TIME ( #293, #294 ) ;
#293 = CALENDAR_DATE ( 2009, 26, 6 ) ;
#294 = LOCAL_TIME ( 16, 54, 25.00000000000000000, #295 ) ;
#295 = COORDINATED_UNIVERSAL_TIME_OFFSET ( 9, 0, .AHEAD. ) ;
#296 = CC_DESIGN_PERSON_AND_ORGANIZATION_ASSIGNMENT ( #298, #297, ( #299 ) ) ;
#297 = PERSON_AND_ORGANIZATION_ROLE ( 'classification_officer' ) ;
#298 = PERSON_AND_ORGANIZATION ( #347, #346 ) ;
#299 = SECURITY_CLASSIFICATION ( '', '', #300 ) ;
#300 = SECURITY_CLASSIFICATION_LEVEL ( 'unclassified' ) ;
#301 = CC_DESIGN_PERSON_AND_ORGANIZATION_ASSIGNMENT ( #303, #302, ( #318 ) ) ;
#302 = PERSON_AND_ORGANIZATION_ROLE ( 'design_supplier' ) ;
#303 = PERSON_AND_ORGANIZATION ( #347, #346 ) ;
#304 = CC_DESIGN_PERSON_AND_ORGANIZATION_ASSIGNMENT ( #306, #305, ( #318 ) ) ;
#305 = PERSON_AND_ORGANIZATION_ROLE ( 'creator' ) ;
#306 = PERSON_AND_ORGANIZATION ( #347, #346 ) ;
#307 = CC_DESIGN_APPROVAL ( #315, ( #318 ) ) ;
#308 = APPROVAL_DATE_TIME ( #309, #315 ) ;
#309 = DATE_AND_TIME ( #310, #311 ) ;
#310 = CALENDAR_DATE ( 2009, 26, 6 ) ;
#311 = LOCAL_TIME ( 16, 54, 25.00000000000000000, #312 ) ;
#312 = COORDINATED_UNIVERSAL_TIME_OFFSET ( 9, 0, .AHEAD. ) ;
#313 = APPROVAL_PERSON_ORGANIZATION ( #317, #315, #314 ) ;
#314 = APPROVAL_ROLE ( '' ) ;
#315 = APPROVAL ( #316, 'UNSPECIFIED' ) ;
#316 = APPROVAL_STATUS ( 'not_yet_approved' ) ;
#317 = PERSON_AND_ORGANIZATION ( #347, #346 ) ;
#318 = PRODUCT_DEFINITION_FORMATION_WITH_SPECIFIED_SOURCE ( 'ANY', '', #348, .NOT_KNOWN. ) ;
#319 = CC_DESIGN_DATE_AND_TIME_ASSIGNMENT ( #321, #320, ( #339 ) ) ;
#320 = DATE_TIME_ROLE ( 'creation_date' ) ;
#321 = DATE_AND_TIME ( #322, #323 ) ;
#322 = CALENDAR_DATE ( 2009, 26, 6 ) ;
#323 = LOCAL_TIME ( 16, 54, 25.00000000000000000, #324 ) ;
#324 = COORDINATED_UNIVERSAL_TIME_OFFSET ( 9, 0, .AHEAD. ) ;
#325 = CC_DESIGN_PERSON_AND_ORGANIZATION_ASSIGNMENT ( #327, #326, ( #339 ) ) ;
#326 = PERSON_AND_ORGANIZATION_ROLE ( 'creator' ) ;
#327 = PERSON_AND_ORGANIZATION ( #347, #346 ) ;
#328 = CC_DESIGN_APPROVAL ( #336, ( #339 ) ) ;
#329 = APPROVAL_DATE_TIME ( #330, #336 ) ;
#330 = DATE_AND_TIME ( #331, #332 ) ;
#331 = CALENDAR_DATE ( 2009, 26, 6 ) ;
#332 = LOCAL_TIME ( 16, 54, 25.00000000000000000, #333 ) ;
#333 = COORDINATED_UNIVERSAL_TIME_OFFSET ( 9, 0, .AHEAD. ) ;
#334 = APPROVAL_PERSON_ORGANIZATION ( #338, #336, #335 ) ;
#335 = APPROVAL_ROLE ( '' ) ;
#336 = APPROVAL ( #337, 'UNSPECIFIED' ) ;
#337 = APPROVAL_STATUS ( 'not_yet_approved' ) ;
#338 = PERSON_AND_ORGANIZATION ( #347, #346 ) ;
#339 = PRODUCT_DEFINITION ( 'UNKNOWN', '', #318, #340 ) ;
#340 = DESIGN_CONTEXT ( 'detailed design', #342, 'design' ) ;
#341 = APPLICATION_PROTOCOL_DEFINITION ( 'international standard', 'config_control_design', 1994, #342 ) ;
#342 = APPLICATION_CONTEXT ( 'configuration controlled 3d designs of mechanical parts and assemblies' ) ;
#343 = CC_DESIGN_PERSON_AND_ORGANIZATION_ASSIGNMENT ( #345, #344, ( #348 ) ) ;
#344 = PERSON_AND_ORGANIZATION_ROLE ( 'design_owner' ) ;
#345 = PERSON_AND_ORGANIZATION ( #347, #346 ) ;
#346 = ORGANIZATION ( 'UNSPECIFIED', 'UNSPECIFIED', '' ) ;
#347 = PERSON ( 'UNSPECIFIED', 'UNSPECIFIED', 'UNSPECIFIED', ('UNSPECIFIED'), ('UNSPECIFIED'), ('UNSPECIFIED') ) ;
#348 = PRODUCT ( 'C-30-RK-3215', 'C-30-RK-3215', '', ( #349 ) ) ;
#349 = MECHANICAL_CONTEXT ( 'NONE', #351, 'mechanical' ) ;
#350 = APPLICATION_PROTOCOL_DEFINITION ( 'international standard', 'config_control_design', 1994, #351 ) ;
#351 = APPLICATION_CONTEXT ( 'configuration controlled 3d designs of mechanical parts and assemblies' ) ;
#352 = DIRECTION ( 'NONE',  ( 0.0000000000000000000, 1.000000000000000000, 0.0000000000000000000 ) ) ;
#353 = CARTESIAN_POINT ( 'NONE',  ( -5.009326287108706300E-010, -4.999999996500434000, 0.0000000000000000000 ) ) ;
#354 = AXIS2_PLACEMENT_3D ( 'NONE', #353, #352, #380 ) ;
#355 = CIRCLE ( 'NONE', #354, 7.000000000000000900 ) ;
#356 = FACE_BOUND ( 'NONE', #252, .T. ) ;
#357 = DIRECTION ( 'NONE',  ( 0.0000000000000000000, 0.0000000000000000000, 1.000000000000000000 ) ) ;
#358 = DIRECTION ( 'NONE',  ( 0.0000000000000000000, 1.000000000000000000, 0.0000000000000000000 ) ) ;
#359 = CARTESIAN_POINT ( 'NONE',  ( -5.009326287108706300E-010, 3.499566521986130500E-009, 0.0000000000000000000 ) ) ;
#360 = AXIS2_PLACEMENT_3D ( 'NONE', #359, #358, #357 ) ;
#361 = CIRCLE ( 'NONE', #360, 11.77029414592215600 ) ;
#362 = DIRECTION ( 'NONE',  ( 0.0000000000000000000, 0.0000000000000000000, 1.000000000000000000 ) ) ;
#363 = DIRECTION ( 'NONE',  ( 0.0000000000000000000, 1.000000000000000000, 0.0000000000000000000 ) ) ;
#364 = CARTESIAN_POINT ( 'NONE',  ( 2.499999999499068700, -14.99999999650043100, 0.0000000000000000000 ) ) ;
#365 = FACE_OUTER_BOUND ( 'NONE', #256, .T. ) ;
#366 = PLANE ( 'NONE',  #381 ) ;
#367 = CIRCLE ( 'NONE', #275, 16.00000000000000000 ) ;
#368 = DIRECTION ( 'NONE',  ( 0.0000000000000000000, 0.0000000000000000000, 1.000000000000000000 ) ) ;
#369 = DIRECTION ( 'NONE',  ( 0.0000000000000000000, 1.000000000000000000, 0.0000000000000000000 ) ) ;
#370 = CARTESIAN_POINT ( 'NONE',  ( -5.009326287108706300E-010, -4.999999996500434000, 0.0000000000000000000 ) ) ;
#371 = AXIS2_PLACEMENT_3D ( 'NONE', #370, #369, #368 ) ;
#372 = CIRCLE ( 'NONE', #371, 2.499999999999999600 ) ;
#373 = DIRECTION ( 'NONE',  ( 0.0000000000000000000, 0.0000000000000000000, -1.000000000000000000 ) ) ;
#374 = DIRECTION ( 'NONE',  ( 0.0000000000000000000, -1.000000000000000000, 0.0000000000000000000 ) ) ;
#375 = CARTESIAN_POINT ( 'NONE',  ( 6.999999999499068300, -4.999999996500434000, 0.0000000000000000000 ) ) ;
#376 = FACE_BOUND ( 'NONE', #260, .T. ) ;
#377 = AXIS2_PLACEMENT_3D ( 'NONE', #375, #374, #373 ) ;
#378 = PLANE ( 'NONE',  #377 ) ;
#379 = FACE_OUTER_BOUND ( 'NONE', #235, .T. ) ;
#380 = DIRECTION ( 'NONE',  ( 0.0000000000000000000, 0.0000000000000000000, 1.000000000000000000 ) ) ;
#381 = AXIS2_PLACEMENT_3D ( 'NONE', #364, #363, #362 ) ;
ENDSEC;
END-ISO-10303-21;
