ISO-10303-21;
HEADER;
FILE_DESCRIPTION (( 'STEP AP203' ),
    '1' );
FILE_NAME ('C-30-RK-30-ÃÞÌ«ÙÄ.STEP',
    '2009-06-29T02:10:12',
    ( '11sw' ),
    ( '^LQ»¢®ïÐ' ),
    'SwSTEP 2.0',
    'SolidWorks 2007',
    '' );
FILE_SCHEMA (( 'CONFIG_CONTROL_DESIGN' ));
ENDSEC;

DATA;
#1 = CARTESIAN_POINT ( 'NONE',  ( -5.009326287108706300E-010, -9.999999996500433100, 0.0000000000000000000 ) ) ;
#2 = DIRECTION ( 'NONE',  ( 0.0000000000000000000, 1.000000000000000000, 0.0000000000000000000 ) ) ;
#3 = AXIS2_PLACEMENT_3D ( 'NONE', #1, #2, #4 ) ;
#4 = DIRECTION ( 'NONE',  ( 0.0000000000000000000, 0.0000000000000000000, 1.000000000000000000 ) ) ;
#5 = CIRCLE ( 'NONE', #3, 2.000000000000000000 ) ;
#6 = CARTESIAN_POINT ( 'NONE',  ( -5.009323837895998700E-010, -9.999999996500433100, -2.000000000000000000 ) ) ;
#7 = DIRECTION ( 'NONE',  ( 0.0000000000000000000, 1.000000000000000000, 0.0000000000000000000 ) ) ;
#8 = VECTOR ( 'NONE', #7, 1000.000000000000000 ) ;
#9 = CARTESIAN_POINT ( 'NONE',  ( -5.009323837895998700E-010, 2.412507003500041800, -2.000000000000000400 ) ) ;
#10 = LINE ( 'NONE', #9, #8 ) ;
#11 = CARTESIAN_POINT ( 'NONE',  ( -5.009326287108706300E-010, -18.99999999650043500, 2.000000000000000900 ) ) ;
#12 = CARTESIAN_POINT ( 'NONE',  ( -5.009323837895998700E-010, -18.99999999650043500, -2.000000000000000900 ) ) ;
#13 = DIRECTION ( 'NONE',  ( 0.0000000000000000000, 0.0000000000000000000, 1.000000000000000000 ) ) ;
#14 = DIRECTION ( 'NONE',  ( 0.0000000000000000000, 1.000000000000000000, 0.0000000000000000000 ) ) ;
#15 = AXIS2_PLACEMENT_3D ( 'NONE', #22, #14, #13 ) ;
#16 = CIRCLE ( 'NONE', #15, 2.000000000000000900 ) ;
#17 = DIRECTION ( 'NONE',  ( 0.0000000000000000000, 0.0000000000000000000, 1.000000000000000000 ) ) ;
#18 = DIRECTION ( 'NONE',  ( 0.0000000000000000000, 1.000000000000000000, 0.0000000000000000000 ) ) ;
#19 = CARTESIAN_POINT ( 'NONE',  ( -5.009326287108706300E-010, 2.412507003500041800, 0.0000000000000000000 ) ) ;
#20 = AXIS2_PLACEMENT_3D ( 'NONE', #19, #18, #17 ) ;
#21 = CYLINDRICAL_SURFACE ( 'NONE', #20, 2.000000000000000400 ) ;
#22 = CARTESIAN_POINT ( 'NONE',  ( -5.009326287108706300E-010, -18.99999999650043500, 0.0000000000000000000 ) ) ;
#23 = FACE_OUTER_BOUND ( 'NONE', #114, .T. ) ;
#24 = DIRECTION ( 'NONE',  ( 0.0000000000000000000, -0.9877629653290690400, -0.1559625734730108200 ) ) ;
#25 = VECTOR ( 'NONE', #24, 1000.000000000000000 ) ;
#26 = CARTESIAN_POINT ( 'NONE',  ( -5.009326287108706300E-010, -18.99999999650043500, -15.00000000000000000 ) ) ;
#27 = DIRECTION ( 'NONE',  ( 0.0000000000000000000, 0.0000000000000000000, 1.000000000000000000 ) ) ;
#28 = DIRECTION ( 'NONE',  ( 0.0000000000000000000, 1.000000000000000000, 0.0000000000000000000 ) ) ;
#29 = CARTESIAN_POINT ( 'NONE',  ( -5.009326287108706300E-010, -0.9999999965004337000, 0.0000000000000000000 ) ) ;
#30 = AXIS2_PLACEMENT_3D ( 'NONE', #29, #28, #27 ) ;
#31 = LINE ( 'NONE', #26, #25 ) ;
#32 = TOROIDAL_SURFACE ( 'NONE', #30, 11.14550610201729900, 1.000000000000000000 ) ;
#33 = FACE_OUTER_BOUND ( 'NONE', #111, .T. ) ;
#34 = DIRECTION ( 'NONE',  ( 0.0000000000000000000, 1.000000000000000000, 0.0000000000000000000 ) ) ;
#35 = VECTOR ( 'NONE', #34, 1000.000000000000000 ) ;
#36 = CARTESIAN_POINT ( 'NONE',  ( -5.009326287108706300E-010, 2.412507003500041800, 7.000000000000000900 ) ) ;
#37 = LINE ( 'NONE', #36, #35 ) ;
#38 = CARTESIAN_POINT ( 'NONE',  ( -5.009326287108706300E-010, 3.499566521986130500E-009, 7.000000000000000000 ) ) ;
#39 = DIRECTION ( 'NONE',  ( 0.0000000000000000000, 0.0000000000000000000, 1.000000000000000000 ) ) ;
#40 = DIRECTION ( 'NONE',  ( 0.0000000000000000000, 1.000000000000000000, 0.0000000000000000000 ) ) ;
#41 = CARTESIAN_POINT ( 'NONE',  ( -5.009326287108706300E-010, 3.499566521986130500E-009, 0.0000000000000000000 ) ) ;
#42 = AXIS2_PLACEMENT_3D ( 'NONE', #41, #40, #39 ) ;
#43 = CIRCLE ( 'NONE', #42, 7.000000000000000000 ) ;
#44 = CARTESIAN_POINT ( 'NONE',  ( -5.009317714864229600E-010, 3.499566521986130500E-009, -7.000000000000000000 ) ) ;
#45 = DIRECTION ( 'NONE',  ( 0.0000000000000000000, 1.000000000000000000, 0.0000000000000000000 ) ) ;
#46 = VECTOR ( 'NONE', #45, 1000.000000000000000 ) ;
#47 = CARTESIAN_POINT ( 'NONE',  ( -5.009317714864229600E-010, 2.412507003500041800, -7.000000000000000900 ) ) ;
#48 = LINE ( 'NONE', #47, #46 ) ;
#49 = CARTESIAN_POINT ( 'NONE',  ( -5.009326287108706300E-010, -9.999999996500433100, 7.000000000000000900 ) ) ;
#50 = CARTESIAN_POINT ( 'NONE',  ( -5.009317714864229600E-010, -9.999999996500433100, -7.000000000000000900 ) ) ;
#51 = DIRECTION ( 'NONE',  ( 0.0000000000000000000, 0.0000000000000000000, 1.000000000000000000 ) ) ;
#52 = DIRECTION ( 'NONE',  ( 0.0000000000000000000, 1.000000000000000000, 0.0000000000000000000 ) ) ;
#53 = CARTESIAN_POINT ( 'NONE',  ( -5.009326287108706300E-010, -9.999999996500433100, 0.0000000000000000000 ) ) ;
#54 = AXIS2_PLACEMENT_3D ( 'NONE', #53, #52, #51 ) ;
#55 = CIRCLE ( 'NONE', #54, 7.000000000000000900 ) ;
#56 = DIRECTION ( 'NONE',  ( 0.0000000000000000000, 0.0000000000000000000, 1.000000000000000000 ) ) ;
#57 = DIRECTION ( 'NONE',  ( 0.0000000000000000000, 1.000000000000000000, 0.0000000000000000000 ) ) ;
#58 = AXIS2_PLACEMENT_3D ( 'NONE', #63, #57, #56 ) ;
#59 = CIRCLE ( 'NONE', #58, 12.13326906734636900 ) ;
#60 = DIRECTION ( 'NONE',  ( 0.0000000000000000000, 0.0000000000000000000, 1.000000000000000000 ) ) ;
#61 = DIRECTION ( 'NONE',  ( 0.0000000000000000000, 1.000000000000000000, 0.0000000000000000000 ) ) ;
#62 = AXIS2_PLACEMENT_3D ( 'NONE', #71, #61, #60 ) ;
#63 = CARTESIAN_POINT ( 'NONE',  ( -5.009326287108706300E-010, -0.8440374230274287900, 0.0000000000000000000 ) ) ;
#64 = TOROIDAL_SURFACE ( 'NONE', #62, 11.14550610201729900, 1.000000000000000000 ) ;
#65 = FACE_OUTER_BOUND ( 'NONE', #94, .T. ) ;
#66 = DIRECTION ( 'NONE',  ( 0.0000000000000000000, 0.0000000000000000000, 1.000000000000000000 ) ) ;
#67 = DIRECTION ( 'NONE',  ( -1.000000000000000000, 0.0000000000000000000, 0.0000000000000000000 ) ) ;
#68 = CARTESIAN_POINT ( 'NONE',  ( -5.009326287108706300E-010, -0.9999999965004337000, 11.14550610201729900 ) ) ;
#69 = AXIS2_PLACEMENT_3D ( 'NONE', #68, #67, #66 ) ;
#70 = CIRCLE ( 'NONE', #69, 0.9999999999999991100 ) ;
#71 = CARTESIAN_POINT ( 'NONE',  ( -5.009326287108706300E-010, -0.9999999965004337000, 0.0000000000000000000 ) ) ;
#72 = CARTESIAN_POINT ( 'NONE',  ( -5.009326287108706300E-010, 3.499566521986130500E-009, 11.14550610201729200 ) ) ;
#73 = DIRECTION ( 'NONE',  ( 0.0000000000000000000, 0.0000000000000000000, 1.000000000000000000 ) ) ;
#74 = DIRECTION ( 'NONE',  ( 0.0000000000000000000, 1.000000000000000000, 0.0000000000000000000 ) ) ;
#75 = CARTESIAN_POINT ( 'NONE',  ( -5.009326287108706300E-010, 3.499566521986130500E-009, 0.0000000000000000000 ) ) ;
#76 = AXIS2_PLACEMENT_3D ( 'NONE', #75, #74, #73 ) ;
#77 = CIRCLE ( 'NONE', #76, 11.14550610201729200 ) ;
#78 = CARTESIAN_POINT ( 'NONE',  ( -5.009312033440715100E-010, 3.499566521986130500E-009, -11.14550610201729200 ) ) ;
#79 = DIRECTION ( 'NONE',  ( 1.224606353612351900E-016, 0.0000000000000000000, -1.000000000000000000 ) ) ;
#80 = DIRECTION ( 'NONE',  ( 1.000000000000000000, 0.0000000000000000000, 1.224606353822377300E-016 ) ) ;
#81 = CARTESIAN_POINT ( 'NONE',  ( -5.009312638251117400E-010, -0.9999999965004337000, -11.14550610201729900 ) ) ;
#82 = AXIS2_PLACEMENT_3D ( 'NONE', #81, #80, #79 ) ;
#83 = CIRCLE ( 'NONE', #82, 0.9999999999999991100 ) ;
#84 = ORIENTED_EDGE ( 'NONE', *, *, #133, .T. ) ;
#85 = ORIENTED_EDGE ( 'NONE', *, *, #86, .T. ) ;
#86 = EDGE_CURVE ( 'NONE', #135, #87, #83, .T. ) ;
#87 = VERTEX_POINT ( 'NONE', #78 ) ;
#88 = ORIENTED_EDGE ( 'NONE', *, *, #89, .F. ) ;
#89 = EDGE_CURVE ( 'NONE', #90, #87, #77, .T. ) ;
#90 = VERTEX_POINT ( 'NONE', #72 ) ;
#91 = ORIENTED_EDGE ( 'NONE', *, *, #92, .F. ) ;
#92 = EDGE_CURVE ( 'NONE', #134, #90, #70, .T. ) ;
#93 = ADVANCED_FACE ( 'NONE', ( #65 ), #64, .T. ) ;
#94 = EDGE_LOOP ( 'NONE', ( #95, #96, #189, #188 ) ) ;
#95 = ORIENTED_EDGE ( 'NONE', *, *, #86, .F. ) ;
#96 = ORIENTED_EDGE ( 'NONE', *, *, #97, .T. ) ;
#97 = EDGE_CURVE ( 'NONE', #135, #134, #59, .T. ) ;
#98 = ORIENTED_EDGE ( 'NONE', *, *, #99, .F. ) ;
#99 = EDGE_CURVE ( 'NONE', #100, #101, #55, .T. ) ;
#100 = VERTEX_POINT ( 'NONE', #50 ) ;
#101 = VERTEX_POINT ( 'NONE', #49 ) ;
#102 = ORIENTED_EDGE ( 'NONE', *, *, #103, .T. ) ;
#103 = EDGE_CURVE ( 'NONE', #100, #104, #48, .T. ) ;
#104 = VERTEX_POINT ( 'NONE', #44 ) ;
#105 = ORIENTED_EDGE ( 'NONE', *, *, #106, .T. ) ;
#106 = EDGE_CURVE ( 'NONE', #104, #107, #43, .T. ) ;
#107 = VERTEX_POINT ( 'NONE', #38 ) ;
#108 = ORIENTED_EDGE ( 'NONE', *, *, #109, .F. ) ;
#109 = EDGE_CURVE ( 'NONE', #101, #107, #37, .T. ) ;
#110 = ADVANCED_FACE ( 'NONE', ( #33 ), #32, .T. ) ;
#111 = EDGE_LOOP ( 'NONE', ( #84, #85, #88, #91 ) ) ;
#112 = EDGE_CURVE ( 'NONE', #135, #141, #31, .T. ) ;
#113 = ADVANCED_FACE ( 'NONE', ( #23 ), #21, .F. ) ;
#114 = EDGE_LOOP ( 'NONE', ( #115, #119, #122, #125 ) ) ;
#115 = ORIENTED_EDGE ( 'NONE', *, *, #116, .F. ) ;
#116 = EDGE_CURVE ( 'NONE', #117, #118, #16, .T. ) ;
#117 = VERTEX_POINT ( 'NONE', #12 ) ;
#118 = VERTEX_POINT ( 'NONE', #11 ) ;
#119 = ORIENTED_EDGE ( 'NONE', *, *, #120, .T. ) ;
#120 = EDGE_CURVE ( 'NONE', #117, #121, #10, .T. ) ;
#121 = VERTEX_POINT ( 'NONE', #6 ) ;
#122 = ORIENTED_EDGE ( 'NONE', *, *, #123, .T. ) ;
#123 = EDGE_CURVE ( 'NONE', #121, #124, #5, .T. ) ;
#124 = VERTEX_POINT ( 'NONE', #193 ) ;
#125 = ORIENTED_EDGE ( 'NONE', *, *, #126, .F. ) ;
#126 = EDGE_CURVE ( 'NONE', #118, #124, #242, .T. ) ;
#127 = ADVANCED_FACE ( 'NONE', ( #238 ), #237, .F. ) ;
#128 = EDGE_LOOP ( 'NONE', ( #98, #102, #105, #108 ) ) ;
#129 = MANIFOLD_SOLID_BREP ( 'NONE', #173 ) ;
#130 = ADVANCED_FACE ( 'NONE', ( #220 ), #219, .T. ) ;
#131 = EDGE_LOOP ( 'NONE', ( #132, #136, #139, #142 ) ) ;
#132 = ORIENTED_EDGE ( 'NONE', *, *, #133, .F. ) ;
#133 = EDGE_CURVE ( 'NONE', #134, #135, #214, .T. ) ;
#134 = VERTEX_POINT ( 'NONE', #210 ) ;
#135 = VERTEX_POINT ( 'NONE', #209 ) ;
#136 = ORIENTED_EDGE ( 'NONE', *, *, #137, .T. ) ;
#137 = EDGE_CURVE ( 'NONE', #134, #138, #208, .T. ) ;
#138 = VERTEX_POINT ( 'NONE', #204 ) ;
#139 = ORIENTED_EDGE ( 'NONE', *, *, #140, .T. ) ;
#140 = EDGE_CURVE ( 'NONE', #138, #141, #203, .T. ) ;
#141 = VERTEX_POINT ( 'NONE', #198 ) ;
#142 = ORIENTED_EDGE ( 'NONE', *, *, #112, .F. ) ;
#143 = ORIENTED_EDGE ( 'NONE', *, *, #182, .T. ) ;
#144 = ADVANCED_FACE ( 'NONE', ( #197, #196 ), #195, .F. ) ;
#145 = EDGE_LOOP ( 'NONE', ( #146, #148 ) ) ;
#146 = ORIENTED_EDGE ( 'NONE', *, *, #147, .F. ) ;
#147 = EDGE_CURVE ( 'NONE', #124, #121, #233, .T. ) ;
#148 = ORIENTED_EDGE ( 'NONE', *, *, #123, .F. ) ;
#149 = EDGE_LOOP ( 'NONE', ( #150, #151 ) ) ;
#150 = ORIENTED_EDGE ( 'NONE', *, *, #177, .T. ) ;
#151 = ORIENTED_EDGE ( 'NONE', *, *, #99, .T. ) ;
#152 = ADVANCED_FACE ( 'NONE', ( #228 ), #227, .F. ) ;
#153 = EDGE_LOOP ( 'NONE', ( #154, #155, #157, #158 ) ) ;
#154 = ORIENTED_EDGE ( 'NONE', *, *, #120, .F. ) ;
#155 = ORIENTED_EDGE ( 'NONE', *, *, #156, .F. ) ;
#156 = EDGE_CURVE ( 'NONE', #118, #117, #226, .T. ) ;
#157 = ORIENTED_EDGE ( 'NONE', *, *, #126, .T. ) ;
#158 = ORIENTED_EDGE ( 'NONE', *, *, #147, .T. ) ;
#159 = ADVANCED_FACE ( 'NONE', ( #373, #372 ), #371, .F. ) ;
#160 = EDGE_LOOP ( 'NONE', ( #161, #163 ) ) ;
#161 = ORIENTED_EDGE ( 'NONE', *, *, #162, .F. ) ;
#162 = EDGE_CURVE ( 'NONE', #141, #138, #366, .T. ) ;
#163 = ORIENTED_EDGE ( 'NONE', *, *, #140, .F. ) ;
#164 = EDGE_LOOP ( 'NONE', ( #165, #166 ) ) ;
#165 = ORIENTED_EDGE ( 'NONE', *, *, #156, .T. ) ;
#166 = ORIENTED_EDGE ( 'NONE', *, *, #116, .T. ) ;
#167 = ADVANCED_FACE ( 'NONE', ( #361 ), #360, .T. ) ;
#168 = EDGE_LOOP ( 'NONE', ( #169, #170, #171, #172 ) ) ;
#169 = ORIENTED_EDGE ( 'NONE', *, *, #137, .F. ) ;
#170 = ORIENTED_EDGE ( 'NONE', *, *, #97, .F. ) ;
#171 = ORIENTED_EDGE ( 'NONE', *, *, #112, .T. ) ;
#172 = ORIENTED_EDGE ( 'NONE', *, *, #162, .T. ) ;
#173 = CLOSED_SHELL ( 'NONE', ( #130, #113, #127, #110, #93, #187, #179, #144, #152, #159, #167 ) ) ;
#174 = ORIENTED_EDGE ( 'NONE', *, *, #190, .T. ) ;
#175 = EDGE_LOOP ( 'NONE', ( #180, #176, #178, #143 ) ) ;
#176 = ORIENTED_EDGE ( 'NONE', *, *, #177, .F. ) ;
#177 = EDGE_CURVE ( 'NONE', #101, #100, #359, .T. ) ;
#178 = ORIENTED_EDGE ( 'NONE', *, *, #109, .T. ) ;
#179 = ADVANCED_FACE ( 'NONE', ( #350 ), #349, .F. ) ;
#180 = ORIENTED_EDGE ( 'NONE', *, *, #103, .F. ) ;
#181 = ORIENTED_EDGE ( 'NONE', *, *, #182, .F. ) ;
#182 = EDGE_CURVE ( 'NONE', #107, #104, #344, .T. ) ;
#183 = EDGE_LOOP ( 'NONE', ( #185, #174 ) ) ;
#184 = ORIENTED_EDGE ( 'NONE', *, *, #106, .F. ) ;
#185 = ORIENTED_EDGE ( 'NONE', *, *, #89, .T. ) ;
#186 = EDGE_LOOP ( 'NONE', ( #181, #184 ) ) ;
#187 = ADVANCED_FACE ( 'NONE', ( #339, #338 ), #337, .F. ) ;
#188 = ORIENTED_EDGE ( 'NONE', *, *, #190, .F. ) ;
#189 = ORIENTED_EDGE ( 'NONE', *, *, #92, .T. ) ;
#190 = EDGE_CURVE ( 'NONE', #87, #90, #332, .T. ) ;
#191 = PRODUCT_DEFINITION_SHAPE ( 'NONE', 'NONE',  #304 ) ;
#192 = PRODUCT_RELATED_PRODUCT_CATEGORY ( 'detail', '', ( #313 ) ) ;
#193 = CARTESIAN_POINT ( 'NONE',  ( -5.009326287108706300E-010, -9.999999996500433100, 2.000000000000000000 ) ) ;
#194 = AXIS2_PLACEMENT_3D ( 'NONE', #236, #235, #234 ) ;
#195 = PLANE ( 'NONE',  #194 ) ;
#196 = FACE_OUTER_BOUND ( 'NONE', #149, .T. ) ;
#197 = FACE_BOUND ( 'NONE', #145, .T. ) ;
#198 = CARTESIAN_POINT ( 'NONE',  ( -5.009326287108706300E-010, -18.99999999650043500, -15.00000000000000000 ) ) ;
#199 = DIRECTION ( 'NONE',  ( 0.0000000000000000000, 0.0000000000000000000, 1.000000000000000000 ) ) ;
#200 = DIRECTION ( 'NONE',  ( 0.0000000000000000000, 1.000000000000000000, 0.0000000000000000000 ) ) ;
#201 = CARTESIAN_POINT ( 'NONE',  ( -5.009326287108706300E-010, -18.99999999650043500, 0.0000000000000000000 ) ) ;
#202 = AXIS2_PLACEMENT_3D ( 'NONE', #201, #200, #199 ) ;
#203 = CIRCLE ( 'NONE', #202, 15.00000000000000000 ) ;
#204 = CARTESIAN_POINT ( 'NONE',  ( -5.009307918013399000E-010, -18.99999999650043500, 15.00000000000000000 ) ) ;
#205 = DIRECTION ( 'NONE',  ( 1.909927584335383800E-017, -0.9877629653290690400, 0.1559625734730108200 ) ) ;
#206 = VECTOR ( 'NONE', #205, 1000.000000000000000 ) ;
#207 = CARTESIAN_POINT ( 'NONE',  ( -5.009307918013399000E-010, -18.99999999650043500, 15.00000000000000000 ) ) ;
#208 = LINE ( 'NONE', #207, #206 ) ;
#209 = CARTESIAN_POINT ( 'NONE',  ( -5.009311428630313900E-010, -0.8440374230274287900, -12.13326906734636900 ) ) ;
#210 = CARTESIAN_POINT ( 'NONE',  ( -5.009326287108706300E-010, -0.8440374230274287900, 12.13326906734636900 ) ) ;
#211 = DIRECTION ( 'NONE',  ( 0.0000000000000000000, 0.0000000000000000000, 1.000000000000000000 ) ) ;
#212 = DIRECTION ( 'NONE',  ( 0.0000000000000000000, 1.000000000000000000, 0.0000000000000000000 ) ) ;
#213 = AXIS2_PLACEMENT_3D ( 'NONE', #218, #212, #211 ) ;
#214 = CIRCLE ( 'NONE', #213, 12.13326906734636900 ) ;
#215 = DIRECTION ( 'NONE',  ( 0.0000000000000000000, 0.0000000000000000000, -1.000000000000000000 ) ) ;
#216 = DIRECTION ( 'NONE',  ( 0.0000000000000000000, -1.000000000000000000, 0.0000000000000000000 ) ) ;
#217 = AXIS2_PLACEMENT_3D ( 'NONE', #225, #216, #215 ) ;
#218 = CARTESIAN_POINT ( 'NONE',  ( -5.009326287108706300E-010, -0.8440374230274287900, 0.0000000000000000000 ) ) ;
#219 = CONICAL_SURFACE ( 'NONE', #217, 15.00000000000000000, 0.1566018769820152800 ) ;
#220 = FACE_OUTER_BOUND ( 'NONE', #131, .T. ) ;
#221 = DIRECTION ( 'NONE',  ( 0.0000000000000000000, 0.0000000000000000000, 1.000000000000000000 ) ) ;
#222 = DIRECTION ( 'NONE',  ( 0.0000000000000000000, 1.000000000000000000, 0.0000000000000000000 ) ) ;
#223 = CARTESIAN_POINT ( 'NONE',  ( -5.009326287108706300E-010, 2.412507003500041800, 0.0000000000000000000 ) ) ;
#224 = AXIS2_PLACEMENT_3D ( 'NONE', #223, #222, #221 ) ;
#225 = CARTESIAN_POINT ( 'NONE',  ( -5.009326287108706300E-010, -18.99999999650043500, 0.0000000000000000000 ) ) ;
#226 = CIRCLE ( 'NONE', #377, 2.000000000000000900 ) ;
#227 = CYLINDRICAL_SURFACE ( 'NONE', #381, 2.000000000000000400 ) ;
#228 = FACE_OUTER_BOUND ( 'NONE', #153, .T. ) ;
#229 = DIRECTION ( 'NONE',  ( 0.0000000000000000000, 0.0000000000000000000, 1.000000000000000000 ) ) ;
#230 = DIRECTION ( 'NONE',  ( 0.0000000000000000000, 1.000000000000000000, 0.0000000000000000000 ) ) ;
#231 = CARTESIAN_POINT ( 'NONE',  ( -5.009326287108706300E-010, -9.999999996500433100, 0.0000000000000000000 ) ) ;
#232 = AXIS2_PLACEMENT_3D ( 'NONE', #231, #230, #229 ) ;
#233 = CIRCLE ( 'NONE', #232, 2.000000000000000000 ) ;
#234 = DIRECTION ( 'NONE',  ( 0.0000000000000000000, 0.0000000000000000000, -1.000000000000000000 ) ) ;
#235 = DIRECTION ( 'NONE',  ( 0.0000000000000000000, -1.000000000000000000, 0.0000000000000000000 ) ) ;
#236 = CARTESIAN_POINT ( 'NONE',  ( 6.999999999499068300, -9.999999996500433100, 0.0000000000000000000 ) ) ;
#237 = CYLINDRICAL_SURFACE ( 'NONE', #224, 7.000000000000000900 ) ;
#238 = FACE_OUTER_BOUND ( 'NONE', #128, .T. ) ;
#239 = DIRECTION ( 'NONE',  ( 0.0000000000000000000, 1.000000000000000000, 0.0000000000000000000 ) ) ;
#240 = VECTOR ( 'NONE', #239, 1000.000000000000000 ) ;
#241 = CARTESIAN_POINT ( 'NONE',  ( -5.009326287108706300E-010, 2.412507003500041800, 2.000000000000000400 ) ) ;
#242 = LINE ( 'NONE', #241, #240 ) ;
#243 = CC_DESIGN_SECURITY_CLASSIFICATION ( #264, ( #283 ) ) ;
#244 = CC_DESIGN_APPROVAL ( #252, ( #264 ) ) ;
#245 = APPROVAL_DATE_TIME ( #246, #252 ) ;
#246 = DATE_AND_TIME ( #247, #248 ) ;
#247 = CALENDAR_DATE ( 2009, 29, 6 ) ;
#248 = LOCAL_TIME ( 11, 10, 12.00000000000000000, #249 ) ;
#249 = COORDINATED_UNIVERSAL_TIME_OFFSET ( 9, 0, .AHEAD. ) ;
#250 = APPROVAL_PERSON_ORGANIZATION ( #254, #252, #251 ) ;
#251 = APPROVAL_ROLE ( '' ) ;
#252 = APPROVAL ( #253, 'UNSPECIFIED' ) ;
#253 = APPROVAL_STATUS ( 'not_yet_approved' ) ;
#254 = PERSON_AND_ORGANIZATION ( #312, #311 ) ;
#255 = CC_DESIGN_DATE_AND_TIME_ASSIGNMENT ( #257, #256, ( #264 ) ) ;
#256 = DATE_TIME_ROLE ( 'classification_date' ) ;
#257 = DATE_AND_TIME ( #258, #259 ) ;
#258 = CALENDAR_DATE ( 2009, 29, 6 ) ;
#259 = LOCAL_TIME ( 11, 10, 12.00000000000000000, #260 ) ;
#260 = COORDINATED_UNIVERSAL_TIME_OFFSET ( 9, 0, .AHEAD. ) ;
#261 = CC_DESIGN_PERSON_AND_ORGANIZATION_ASSIGNMENT ( #263, #262, ( #264 ) ) ;
#262 = PERSON_AND_ORGANIZATION_ROLE ( 'classification_officer' ) ;
#263 = PERSON_AND_ORGANIZATION ( #312, #311 ) ;
#264 = SECURITY_CLASSIFICATION ( '', '', #265 ) ;
#265 = SECURITY_CLASSIFICATION_LEVEL ( 'unclassified' ) ;
#266 = CC_DESIGN_PERSON_AND_ORGANIZATION_ASSIGNMENT ( #268, #267, ( #283 ) ) ;
#267 = PERSON_AND_ORGANIZATION_ROLE ( 'design_supplier' ) ;
#268 = PERSON_AND_ORGANIZATION ( #312, #311 ) ;
#269 = CC_DESIGN_PERSON_AND_ORGANIZATION_ASSIGNMENT ( #271, #270, ( #283 ) ) ;
#270 = PERSON_AND_ORGANIZATION_ROLE ( 'creator' ) ;
#271 = PERSON_AND_ORGANIZATION ( #312, #311 ) ;
#272 = CC_DESIGN_APPROVAL ( #280, ( #283 ) ) ;
#273 = APPROVAL_DATE_TIME ( #274, #280 ) ;
#274 = DATE_AND_TIME ( #275, #276 ) ;
#275 = CALENDAR_DATE ( 2009, 29, 6 ) ;
#276 = LOCAL_TIME ( 11, 10, 12.00000000000000000, #277 ) ;
#277 = COORDINATED_UNIVERSAL_TIME_OFFSET ( 9, 0, .AHEAD. ) ;
#278 = APPROVAL_PERSON_ORGANIZATION ( #282, #280, #279 ) ;
#279 = APPROVAL_ROLE ( '' ) ;
#280 = APPROVAL ( #281, 'UNSPECIFIED' ) ;
#281 = APPROVAL_STATUS ( 'not_yet_approved' ) ;
#282 = PERSON_AND_ORGANIZATION ( #312, #311 ) ;
#283 = PRODUCT_DEFINITION_FORMATION_WITH_SPECIFIED_SOURCE ( 'ANY', '', #313, .NOT_KNOWN. ) ;
#284 = CC_DESIGN_DATE_AND_TIME_ASSIGNMENT ( #286, #285, ( #304 ) ) ;
#285 = DATE_TIME_ROLE ( 'creation_date' ) ;
#286 = DATE_AND_TIME ( #287, #288 ) ;
#287 = CALENDAR_DATE ( 2009, 29, 6 ) ;
#288 = LOCAL_TIME ( 11, 10, 12.00000000000000000, #289 ) ;
#289 = COORDINATED_UNIVERSAL_TIME_OFFSET ( 9, 0, .AHEAD. ) ;
#290 = CC_DESIGN_PERSON_AND_ORGANIZATION_ASSIGNMENT ( #292, #291, ( #304 ) ) ;
#291 = PERSON_AND_ORGANIZATION_ROLE ( 'creator' ) ;
#292 = PERSON_AND_ORGANIZATION ( #312, #311 ) ;
#293 = CC_DESIGN_APPROVAL ( #301, ( #304 ) ) ;
#294 = APPROVAL_DATE_TIME ( #295, #301 ) ;
#295 = DATE_AND_TIME ( #296, #297 ) ;
#296 = CALENDAR_DATE ( 2009, 29, 6 ) ;
#297 = LOCAL_TIME ( 11, 10, 12.00000000000000000, #298 ) ;
#298 = COORDINATED_UNIVERSAL_TIME_OFFSET ( 9, 0, .AHEAD. ) ;
#299 = APPROVAL_PERSON_ORGANIZATION ( #303, #301, #300 ) ;
#300 = APPROVAL_ROLE ( '' ) ;
#301 = APPROVAL ( #302, 'UNSPECIFIED' ) ;
#302 = APPROVAL_STATUS ( 'not_yet_approved' ) ;
#303 = PERSON_AND_ORGANIZATION ( #312, #311 ) ;
#304 = PRODUCT_DEFINITION ( 'UNKNOWN', '', #283, #305 ) ;
#305 = DESIGN_CONTEXT ( 'detailed design', #307, 'design' ) ;
#306 = APPLICATION_PROTOCOL_DEFINITION ( 'international standard', 'config_control_design', 1994, #307 ) ;
#307 = APPLICATION_CONTEXT ( 'configuration controlled 3d designs of mechanical parts and assemblies' ) ;
#308 = CC_DESIGN_PERSON_AND_ORGANIZATION_ASSIGNMENT ( #310, #309, ( #313 ) ) ;
#309 = PERSON_AND_ORGANIZATION_ROLE ( 'design_owner' ) ;
#310 = PERSON_AND_ORGANIZATION ( #312, #311 ) ;
#311 = ORGANIZATION ( 'UNSPECIFIED', 'UNSPECIFIED', '' ) ;
#312 = PERSON ( 'UNSPECIFIED', 'UNSPECIFIED', 'UNSPECIFIED', ('UNSPECIFIED'), ('UNSPECIFIED'), ('UNSPECIFIED') ) ;
#313 = PRODUCT ( 'C-30-RK-30-ÃÞÌ«ÙÄ', 'C-30-RK-30-ÃÞÌ«ÙÄ', '', ( #314 ) ) ;
#314 = MECHANICAL_CONTEXT ( 'NONE', #316, 'mechanical' ) ;
#315 = APPLICATION_PROTOCOL_DEFINITION ( 'international standard', 'config_control_design', 1994, #316 ) ;
#316 = APPLICATION_CONTEXT ( 'configuration controlled 3d designs of mechanical parts and assemblies' ) ;
#317 = DIRECTION ( 'NONE',  ( 1.000000000000000000, 0.0000000000000000000, 0.0000000000000000000 ) ) ;
#318 = DIRECTION ( 'NONE',  ( 0.0000000000000000000, 0.0000000000000000000, 1.000000000000000000 ) ) ;
#319 = AXIS2_PLACEMENT_3D ( 'NONE', #327, #318, #317 ) ;
#320 = SHAPE_DEFINITION_REPRESENTATION ( #191, #321 ) ;
#321 = ADVANCED_BREP_SHAPE_REPRESENTATION ( 'C-30-RK-30-ÃÞÌ«ÙÄ', ( #129, #319 ), #322 ) ;
#322 =( GEOMETRIC_REPRESENTATION_CONTEXT ( 3 ) GLOBAL_UNCERTAINTY_ASSIGNED_CONTEXT ( ( #323 ) ) GLOBAL_UNIT_ASSIGNED_CONTEXT ( ( #326, #325, #324 ) ) REPRESENTATION_CONTEXT ( 'NONE', 'WORKASPACE' ) );
#323 = UNCERTAINTY_MEASURE_WITH_UNIT (LENGTH_MEASURE( 1.000000000000000100E-005 ), #326, 'distance_accuracy_value', 'NONE');
#324 =( NAMED_UNIT ( * ) SI_UNIT ( $, .STERADIAN. ) SOLID_ANGLE_UNIT ( ) );
#325 =( NAMED_UNIT ( * ) PLANE_ANGLE_UNIT ( ) SI_UNIT ( $, .RADIAN. ) );
#326 =( LENGTH_UNIT ( ) NAMED_UNIT ( * ) SI_UNIT ( .MILLI., .METRE. ) );
#327 = CARTESIAN_POINT ( 'NONE',  ( 0.0000000000000000000, 0.0000000000000000000, 0.0000000000000000000 ) ) ;
#328 = DIRECTION ( 'NONE',  ( 0.0000000000000000000, 0.0000000000000000000, 1.000000000000000000 ) ) ;
#329 = DIRECTION ( 'NONE',  ( 0.0000000000000000000, 1.000000000000000000, 0.0000000000000000000 ) ) ;
#330 = CARTESIAN_POINT ( 'NONE',  ( -5.009326287108706300E-010, 3.499566521986130500E-009, 0.0000000000000000000 ) ) ;
#331 = AXIS2_PLACEMENT_3D ( 'NONE', #330, #329, #328 ) ;
#332 = CIRCLE ( 'NONE', #331, 11.14550610201729200 ) ;
#333 = DIRECTION ( 'NONE',  ( 0.0000000000000000000, 0.0000000000000000000, -1.000000000000000000 ) ) ;
#334 = DIRECTION ( 'NONE',  ( 0.0000000000000000000, -1.000000000000000000, 0.0000000000000000000 ) ) ;
#335 = CARTESIAN_POINT ( 'NONE',  ( 11.14550610151635900, 3.499566432094796200E-009, 0.0000000000000000000 ) ) ;
#336 = AXIS2_PLACEMENT_3D ( 'NONE', #335, #334, #333 ) ;
#337 = PLANE ( 'NONE',  #336 ) ;
#338 = FACE_OUTER_BOUND ( 'NONE', #183, .T. ) ;
#339 = FACE_BOUND ( 'NONE', #186, .T. ) ;
#340 = DIRECTION ( 'NONE',  ( 0.0000000000000000000, 0.0000000000000000000, 1.000000000000000000 ) ) ;
#341 = DIRECTION ( 'NONE',  ( 0.0000000000000000000, 1.000000000000000000, 0.0000000000000000000 ) ) ;
#342 = CARTESIAN_POINT ( 'NONE',  ( -5.009326287108706300E-010, 3.499566521986130500E-009, 0.0000000000000000000 ) ) ;
#343 = AXIS2_PLACEMENT_3D ( 'NONE', #342, #341, #340 ) ;
#344 = CIRCLE ( 'NONE', #343, 7.000000000000000000 ) ;
#345 = DIRECTION ( 'NONE',  ( 0.0000000000000000000, 0.0000000000000000000, 1.000000000000000000 ) ) ;
#346 = DIRECTION ( 'NONE',  ( 0.0000000000000000000, 1.000000000000000000, 0.0000000000000000000 ) ) ;
#347 = CARTESIAN_POINT ( 'NONE',  ( -5.009326287108706300E-010, 2.412507003500041800, 0.0000000000000000000 ) ) ;
#348 = AXIS2_PLACEMENT_3D ( 'NONE', #347, #346, #345 ) ;
#349 = CYLINDRICAL_SURFACE ( 'NONE', #348, 7.000000000000000900 ) ;
#350 = FACE_OUTER_BOUND ( 'NONE', #175, .T. ) ;
#351 = DIRECTION ( 'NONE',  ( 0.0000000000000000000, 0.0000000000000000000, 1.000000000000000000 ) ) ;
#352 = DIRECTION ( 'NONE',  ( 0.0000000000000000000, 1.000000000000000000, 0.0000000000000000000 ) ) ;
#353 = CARTESIAN_POINT ( 'NONE',  ( -5.009326287108706300E-010, -9.999999996500433100, 0.0000000000000000000 ) ) ;
#354 = AXIS2_PLACEMENT_3D ( 'NONE', #353, #352, #351 ) ;
#355 = DIRECTION ( 'NONE',  ( 0.0000000000000000000, 0.0000000000000000000, -1.000000000000000000 ) ) ;
#356 = DIRECTION ( 'NONE',  ( 0.0000000000000000000, -1.000000000000000000, 0.0000000000000000000 ) ) ;
#357 = CARTESIAN_POINT ( 'NONE',  ( -5.009326287108706300E-010, -18.99999999650043500, 0.0000000000000000000 ) ) ;
#358 = AXIS2_PLACEMENT_3D ( 'NONE', #357, #356, #355 ) ;
#359 = CIRCLE ( 'NONE', #354, 7.000000000000000900 ) ;
#360 = CONICAL_SURFACE ( 'NONE', #358, 15.00000000000000000, 0.1566018769820152800 ) ;
#361 = FACE_OUTER_BOUND ( 'NONE', #168, .T. ) ;
#362 = DIRECTION ( 'NONE',  ( 0.0000000000000000000, 0.0000000000000000000, 1.000000000000000000 ) ) ;
#363 = DIRECTION ( 'NONE',  ( 0.0000000000000000000, 1.000000000000000000, 0.0000000000000000000 ) ) ;
#364 = CARTESIAN_POINT ( 'NONE',  ( -5.009326287108706300E-010, -18.99999999650043500, 0.0000000000000000000 ) ) ;
#365 = AXIS2_PLACEMENT_3D ( 'NONE', #364, #363, #362 ) ;
#366 = CIRCLE ( 'NONE', #365, 15.00000000000000000 ) ;
#367 = DIRECTION ( 'NONE',  ( 0.0000000000000000000, 0.0000000000000000000, 1.000000000000000000 ) ) ;
#368 = DIRECTION ( 'NONE',  ( 0.0000000000000000000, 1.000000000000000000, 0.0000000000000000000 ) ) ;
#369 = CARTESIAN_POINT ( 'NONE',  ( 1.999999999499068300, -18.99999999650043500, 0.0000000000000000000 ) ) ;
#370 = AXIS2_PLACEMENT_3D ( 'NONE', #369, #368, #367 ) ;
#371 = PLANE ( 'NONE',  #370 ) ;
#372 = FACE_BOUND ( 'NONE', #164, .T. ) ;
#373 = FACE_OUTER_BOUND ( 'NONE', #160, .T. ) ;
#374 = DIRECTION ( 'NONE',  ( 0.0000000000000000000, 0.0000000000000000000, 1.000000000000000000 ) ) ;
#375 = DIRECTION ( 'NONE',  ( 0.0000000000000000000, 1.000000000000000000, 0.0000000000000000000 ) ) ;
#376 = CARTESIAN_POINT ( 'NONE',  ( -5.009326287108706300E-010, -18.99999999650043500, 0.0000000000000000000 ) ) ;
#377 = AXIS2_PLACEMENT_3D ( 'NONE', #376, #375, #374 ) ;
#378 = DIRECTION ( 'NONE',  ( 0.0000000000000000000, 0.0000000000000000000, 1.000000000000000000 ) ) ;
#379 = DIRECTION ( 'NONE',  ( 0.0000000000000000000, 1.000000000000000000, 0.0000000000000000000 ) ) ;
#380 = CARTESIAN_POINT ( 'NONE',  ( -5.009326287108706300E-010, 2.412507003500041800, 0.0000000000000000000 ) ) ;
#381 = AXIS2_PLACEMENT_3D ( 'NONE', #380, #379, #378 ) ;
ENDSEC;
END-ISO-10303-21;
