ISO-10303-21;
HEADER;
FILE_DESCRIPTION (( 'STEP AP203' ),
    '1' );
FILE_NAME ('C-30-RK-30-gray.STEP',
    '2009-06-29T02:09:04',
    ( '11sw' ),
    ( '^LQ»¢®ïÐ' ),
    'SwSTEP 2.0',
    'SolidWorks 2007',
    '' );
FILE_SCHEMA (( 'CONFIG_CONTROL_DESIGN' ));
ENDSEC;

DATA;
#1 = ORIENTED_EDGE ( 'NONE', *, *, #108, .T. ) ;
#2 = EDGE_LOOP ( 'NONE', ( #23, #40, #30, #34 ) ) ;
#3 = ORIENTED_EDGE ( 'NONE', *, *, #29, .T. ) ;
#4 = EDGE_LOOP ( 'NONE', ( #63, #21 ) ) ;
#5 = EDGE_LOOP ( 'NONE', ( #3, #15 ) ) ;
#6 = ORIENTED_EDGE ( 'NONE', *, *, #28, .T. ) ;
#7 = ORIENTED_EDGE ( 'NONE', *, *, #58, .T. ) ;
#8 = ORIENTED_EDGE ( 'NONE', *, *, #109, .F. ) ;
#9 = ORIENTED_EDGE ( 'NONE', *, *, #73, .F. ) ;
#10 = ADVANCED_FACE ( 'NONE', ( #123 ), #137, .T. ) ;
#11 = EDGE_CURVE ( 'NONE', #86, #95, #126, .T. ) ;
#12 = EDGE_LOOP ( 'NONE', ( #8, #42, #1, #25 ) ) ;
#13 = ORIENTED_EDGE ( 'NONE', *, *, #82, .F. ) ;
#14 = ORIENTED_EDGE ( 'NONE', *, *, #89, .F. ) ;
#15 = ORIENTED_EDGE ( 'NONE', *, *, #104, .T. ) ;
#16 = ORIENTED_EDGE ( 'NONE', *, *, #59, .F. ) ;
#17 = EDGE_LOOP ( 'NONE', ( #20, #14 ) ) ;
#18 = EDGE_CURVE ( 'NONE', #106, #80, #130, .T. ) ;
#19 = EDGE_LOOP ( 'NONE', ( #114, #70 ) ) ;
#20 = ORIENTED_EDGE ( 'NONE', *, *, #11, .F. ) ;
#21 = ORIENTED_EDGE ( 'NONE', *, *, #118, .F. ) ;
#22 = ORIENTED_EDGE ( 'NONE', *, *, #112, .T. ) ;
#23 = ORIENTED_EDGE ( 'NONE', *, *, #92, .F. ) ;
#24 = ADVANCED_FACE ( 'NONE', ( #131, #141 ), #158, .F. ) ;
#25 = ORIENTED_EDGE ( 'NONE', *, *, #18, .T. ) ;
#26 = EDGE_CURVE ( 'NONE', #91, #93, #152, .T. ) ;
#27 = ORIENTED_EDGE ( 'NONE', *, *, #32, .T. ) ;
#28 = EDGE_CURVE ( 'NONE', #56, #61, #148, .T. ) ;
#29 = EDGE_CURVE ( 'NONE', #78, #105, #45, .T. ) ;
#30 = ORIENTED_EDGE ( 'NONE', *, *, #84, .T. ) ;
#31 = CLOSED_SHELL ( 'NONE', ( #97, #87, #47, #115, #68, #62, #71, #36, #69, #24, #10 ) ) ;
#32 = EDGE_CURVE ( 'NONE', #93, #66, #163, .T. ) ;
#33 = EDGE_LOOP ( 'NONE', ( #38, #22 ) ) ;
#34 = ORIENTED_EDGE ( 'NONE', *, *, #11, .T. ) ;
#35 = ORIENTED_EDGE ( 'NONE', *, *, #32, .F. ) ;
#36 = ADVANCED_FACE ( 'NONE', ( #169, #171 ), #170, .F. ) ;
#37 = ORIENTED_EDGE ( 'NONE', *, *, #26, .T. ) ;
#38 = ORIENTED_EDGE ( 'NONE', *, *, #73, .T. ) ;
#39 = EDGE_LOOP ( 'NONE', ( #41, #13 ) ) ;
#40 = ORIENTED_EDGE ( 'NONE', *, *, #26, .F. ) ;
#41 = ORIENTED_EDGE ( 'NONE', *, *, #18, .F. ) ;
#42 = ORIENTED_EDGE ( 'NONE', *, *, #29, .F. ) ;
#43 = DIRECTION ( 'NONE',  ( 0.0000000000000000000, 1.000000000000000000, 0.0000000000000000000 ) ) ;
#44 = CARTESIAN_POINT ( 'NONE',  ( -5.009326287108706300E-010, -18.99999999650043500, 0.0000000000000000000 ) ) ;
#45 = CIRCLE ( 'NONE', #48, 2.000000000000000900 ) ;
#46 = EDGE_LOOP ( 'NONE', ( #111, #76, #60, #57 ) ) ;
#47 = ADVANCED_FACE ( 'NONE', ( #168 ), #54, .F. ) ;
#48 = AXIS2_PLACEMENT_3D ( 'NONE', #44, #43, #49 ) ;
#49 = DIRECTION ( 'NONE',  ( 0.0000000000000000000, 0.0000000000000000000, 1.000000000000000000 ) ) ;
#50 = CARTESIAN_POINT ( 'NONE',  ( -5.009326287108706300E-010, 2.412507003500041800, 0.0000000000000000000 ) ) ;
#51 = DIRECTION ( 'NONE',  ( 0.0000000000000000000, 0.0000000000000000000, 1.000000000000000000 ) ) ;
#52 = DIRECTION ( 'NONE',  ( 0.0000000000000000000, 1.000000000000000000, 0.0000000000000000000 ) ) ;
#53 = AXIS2_PLACEMENT_3D ( 'NONE', #50, #52, #51 ) ;
#54 = CYLINDRICAL_SURFACE ( 'NONE', #53, 7.000000000000000900 ) ;
#55 = VERTEX_POINT ( 'NONE', #263 ) ;
#56 = VERTEX_POINT ( 'NONE', #335 ) ;
#57 = ORIENTED_EDGE ( 'NONE', *, *, #58, .F. ) ;
#58 = EDGE_CURVE ( 'NONE', #113, #56, #314, .T. ) ;
#59 = EDGE_CURVE ( 'NONE', #110, #61, #318, .T. ) ;
#60 = ORIENTED_EDGE ( 'NONE', *, *, #118, .T. ) ;
#61 = VERTEX_POINT ( 'NONE', #313 ) ;
#62 = ADVANCED_FACE ( 'NONE', ( #337, #336 ), #269, .F. ) ;
#63 = ORIENTED_EDGE ( 'NONE', *, *, #28, .F. ) ;
#64 = ORIENTED_EDGE ( 'NONE', *, *, #65, .F. ) ;
#65 = EDGE_CURVE ( 'NONE', #55, #66, #229, .T. ) ;
#66 = VERTEX_POINT ( 'NONE', #225 ) ;
#67 = EDGE_LOOP ( 'NONE', ( #16, #9, #7, #6 ) ) ;
#68 = ADVANCED_FACE ( 'NONE', ( #224 ), #248, .T. ) ;
#69 = ADVANCED_FACE ( 'NONE', ( #244 ), #243, .F. ) ;
#70 = ORIENTED_EDGE ( 'NONE', *, *, #65, .T. ) ;
#71 = ADVANCED_FACE ( 'NONE', ( #238 ), #235, .F. ) ;
#72 = EDGE_LOOP ( 'NONE', ( #74, #37, #27, #64 ) ) ;
#73 = EDGE_CURVE ( 'NONE', #113, #110, #236, .T. ) ;
#74 = ORIENTED_EDGE ( 'NONE', *, *, #120, .F. ) ;
#75 = EDGE_CURVE ( 'NONE', #66, #55, #288, .T. ) ;
#76 = ORIENTED_EDGE ( 'NONE', *, *, #59, .T. ) ;
#77 = ORIENTED_EDGE ( 'NONE', *, *, #75, .F. ) ;
#78 = VERTEX_POINT ( 'NONE', #283 ) ;
#79 = ORIENTED_EDGE ( 'NONE', *, *, #109, .T. ) ;
#80 = VERTEX_POINT ( 'NONE', #282 ) ;
#81 = ORIENTED_EDGE ( 'NONE', *, *, #82, .T. ) ;
#82 = EDGE_CURVE ( 'NONE', #80, #106, #281, .T. ) ;
#83 = ORIENTED_EDGE ( 'NONE', *, *, #84, .F. ) ;
#84 = EDGE_CURVE ( 'NONE', #91, #86, #276, .T. ) ;
#85 = EDGE_LOOP ( 'NONE', ( #88, #79, #81, #107 ) ) ;
#86 = VERTEX_POINT ( 'NONE', #270 ) ;
#87 = ADVANCED_FACE ( 'NONE', ( #272 ), #271, .F. ) ;
#88 = ORIENTED_EDGE ( 'NONE', *, *, #104, .F. ) ;
#89 = EDGE_CURVE ( 'NONE', #95, #86, #193, .T. ) ;
#90 = ORIENTED_EDGE ( 'NONE', *, *, #89, .T. ) ;
#91 = VERTEX_POINT ( 'NONE', #188 ) ;
#92 = EDGE_CURVE ( 'NONE', #93, #95, #187, .T. ) ;
#93 = VERTEX_POINT ( 'NONE', #183 ) ;
#94 = EDGE_CURVE ( 'NONE', #93, #91, #182, .T. ) ;
#95 = VERTEX_POINT ( 'NONE', #221 ) ;
#96 = ORIENTED_EDGE ( 'NONE', *, *, #92, .T. ) ;
#97 = ADVANCED_FACE ( 'NONE', ( #220 ), #219, .T. ) ;
#98 = MANIFOLD_SOLID_BREP ( 'NONE', #31 ) ;
#99 = CC_DESIGN_PERSON_AND_ORGANIZATION_ASSIGNMENT ( #101, #100, ( #306 ) ) ;
#100 = PERSON_AND_ORGANIZATION_ROLE ( 'creator' ) ;
#101 = PERSON_AND_ORGANIZATION ( #174, #312 ) ;
#102 = ORIENTED_EDGE ( 'NONE', *, *, #94, .F. ) ;
#103 = EDGE_LOOP ( 'NONE', ( #102, #96, #90, #83 ) ) ;
#104 = EDGE_CURVE ( 'NONE', #105, #78, #213, .T. ) ;
#105 = VERTEX_POINT ( 'NONE', #209 ) ;
#106 = VERTEX_POINT ( 'NONE', #208 ) ;
#107 = ORIENTED_EDGE ( 'NONE', *, *, #108, .F. ) ;
#108 = EDGE_CURVE ( 'NONE', #78, #106, #207, .T. ) ;
#109 = EDGE_CURVE ( 'NONE', #105, #80, #203, .T. ) ;
#110 = VERTEX_POINT ( 'NONE', #199 ) ;
#111 = ORIENTED_EDGE ( 'NONE', *, *, #112, .F. ) ;
#112 = EDGE_CURVE ( 'NONE', #110, #113, #334, .T. ) ;
#113 = VERTEX_POINT ( 'NONE', #330 ) ;
#114 = ORIENTED_EDGE ( 'NONE', *, *, #75, .T. ) ;
#115 = ADVANCED_FACE ( 'NONE', ( #329 ), #328, .T. ) ;
#116 = ORIENTED_EDGE ( 'NONE', *, *, #94, .T. ) ;
#117 = EDGE_LOOP ( 'NONE', ( #116, #119, #77, #35 ) ) ;
#118 = EDGE_CURVE ( 'NONE', #61, #56, #323, .T. ) ;
#119 = ORIENTED_EDGE ( 'NONE', *, *, #120, .T. ) ;
#120 = EDGE_CURVE ( 'NONE', #91, #55, #259, .T. ) ;
#121 = DIRECTION ( 'NONE',  ( 0.0000000000000000000, 0.0000000000000000000, 1.000000000000000000 ) ) ;
#122 = DIRECTION ( 'NONE',  ( 0.0000000000000000000, 1.000000000000000000, 0.0000000000000000000 ) ) ;
#123 = FACE_OUTER_BOUND ( 'NONE', #2, .T. ) ;
#124 = CARTESIAN_POINT ( 'NONE',  ( -5.009326287108706300E-010, -18.99999999650043500, 0.0000000000000000000 ) ) ;
#125 = AXIS2_PLACEMENT_3D ( 'NONE', #124, #122, #121 ) ;
#126 = CIRCLE ( 'NONE', #125, 15.00000000000000000 ) ;
#127 = DIRECTION ( 'NONE',  ( 0.0000000000000000000, 1.000000000000000000, 0.0000000000000000000 ) ) ;
#128 = CARTESIAN_POINT ( 'NONE',  ( -5.009326287108706300E-010, -9.999999996500433100, 0.0000000000000000000 ) ) ;
#129 = AXIS2_PLACEMENT_3D ( 'NONE', #128, #127, #142 ) ;
#130 = CIRCLE ( 'NONE', #129, 2.000000000000000000 ) ;
#131 = FACE_OUTER_BOUND ( 'NONE', #17, .T. ) ;
#132 = CC_DESIGN_DATE_AND_TIME_ASSIGNMENT ( #143, #133, ( #306 ) ) ;
#133 = DATE_TIME_ROLE ( 'creation_date' ) ;
#134 = CALENDAR_DATE ( 2009, 29, 6 ) ;
#135 = LOCAL_TIME ( 11, 9, 4.000000000000000000, #144 ) ;
#136 = DIRECTION ( 'NONE',  ( 0.0000000000000000000, -1.000000000000000000, 0.0000000000000000000 ) ) ;
#137 = CONICAL_SURFACE ( 'NONE', #139, 15.00000000000000000, 0.1566018769820152800 ) ;
#138 = DIRECTION ( 'NONE',  ( 0.0000000000000000000, 0.0000000000000000000, -1.000000000000000000 ) ) ;
#139 = AXIS2_PLACEMENT_3D ( 'NONE', #140, #136, #138 ) ;
#140 = CARTESIAN_POINT ( 'NONE',  ( -5.009326287108706300E-010, -18.99999999650043500, 0.0000000000000000000 ) ) ;
#141 = FACE_BOUND ( 'NONE', #5, .T. ) ;
#142 = DIRECTION ( 'NONE',  ( 0.0000000000000000000, 0.0000000000000000000, 1.000000000000000000 ) ) ;
#143 = DATE_AND_TIME ( #134, #135 ) ;
#144 = COORDINATED_UNIVERSAL_TIME_OFFSET ( 9, 0, .AHEAD. ) ;
#145 = DIRECTION ( 'NONE',  ( 0.0000000000000000000, 0.0000000000000000000, 1.000000000000000000 ) ) ;
#146 = DIRECTION ( 'NONE',  ( 0.0000000000000000000, 1.000000000000000000, 0.0000000000000000000 ) ) ;
#147 = AXIS2_PLACEMENT_3D ( 'NONE', #153, #146, #145 ) ;
#148 = CIRCLE ( 'NONE', #147, 7.000000000000000000 ) ;
#149 = DIRECTION ( 'NONE',  ( 0.0000000000000000000, 0.0000000000000000000, 1.000000000000000000 ) ) ;
#150 = DIRECTION ( 'NONE',  ( 0.0000000000000000000, 1.000000000000000000, 0.0000000000000000000 ) ) ;
#151 = AXIS2_PLACEMENT_3D ( 'NONE', #159, #150, #149 ) ;
#152 = CIRCLE ( 'NONE', #151, 12.13326906734636900 ) ;
#153 = CARTESIAN_POINT ( 'NONE',  ( -5.009326287108706300E-010, 3.499566521986130500E-009, 0.0000000000000000000 ) ) ;
#154 = DIRECTION ( 'NONE',  ( 0.0000000000000000000, 0.0000000000000000000, 1.000000000000000000 ) ) ;
#155 = DIRECTION ( 'NONE',  ( 0.0000000000000000000, 1.000000000000000000, 0.0000000000000000000 ) ) ;
#156 = CARTESIAN_POINT ( 'NONE',  ( 1.999999999499068300, -18.99999999650043500, 0.0000000000000000000 ) ) ;
#157 = AXIS2_PLACEMENT_3D ( 'NONE', #156, #155, #154 ) ;
#158 = PLANE ( 'NONE',  #157 ) ;
#159 = CARTESIAN_POINT ( 'NONE',  ( -5.009326287108706300E-010, -0.8440374230274287900, 0.0000000000000000000 ) ) ;
#160 = DIRECTION ( 'NONE',  ( 0.0000000000000000000, 0.0000000000000000000, 1.000000000000000000 ) ) ;
#161 = DIRECTION ( 'NONE',  ( -1.000000000000000000, 0.0000000000000000000, 0.0000000000000000000 ) ) ;
#162 = AXIS2_PLACEMENT_3D ( 'NONE', #172, #161, #160 ) ;
#163 = CIRCLE ( 'NONE', #162, 0.9999999999999991100 ) ;
#164 = DIRECTION ( 'NONE',  ( 0.0000000000000000000, 0.0000000000000000000, -1.000000000000000000 ) ) ;
#165 = DIRECTION ( 'NONE',  ( 0.0000000000000000000, -1.000000000000000000, 0.0000000000000000000 ) ) ;
#166 = CARTESIAN_POINT ( 'NONE',  ( 6.999999999499068300, -9.999999996500433100, 0.0000000000000000000 ) ) ;
#167 = AXIS2_PLACEMENT_3D ( 'NONE', #166, #165, #164 ) ;
#168 = FACE_OUTER_BOUND ( 'NONE', #46, .T. ) ;
#169 = FACE_BOUND ( 'NONE', #39, .T. ) ;
#170 = PLANE ( 'NONE',  #167 ) ;
#171 = FACE_OUTER_BOUND ( 'NONE', #33, .T. ) ;
#172 = CARTESIAN_POINT ( 'NONE',  ( -5.009326287108706300E-010, -0.9999999965004337000, 11.14550610201729900 ) ) ;
#173 = PERSON_AND_ORGANIZATION ( #174, #312 ) ;
#174 = PERSON ( 'UNSPECIFIED', 'UNSPECIFIED', 'UNSPECIFIED', ('UNSPECIFIED'), ('UNSPECIFIED'), ('UNSPECIFIED') ) ;
#175 = PRODUCT ( 'C-30-RK-30-gray', 'C-30-RK-30-gray', '', ( #176 ) ) ;
#176 = MECHANICAL_CONTEXT ( 'NONE', #178, 'mechanical' ) ;
#177 = APPLICATION_PROTOCOL_DEFINITION ( 'international standard', 'config_control_design', 1994, #178 ) ;
#178 = APPLICATION_CONTEXT ( 'configuration controlled 3d designs of mechanical parts and assemblies' ) ;
#179 = DIRECTION ( 'NONE',  ( 0.0000000000000000000, 1.000000000000000000, 0.0000000000000000000 ) ) ;
#180 = CARTESIAN_POINT ( 'NONE',  ( -5.009326287108706300E-010, -0.8440374230274287900, 0.0000000000000000000 ) ) ;
#181 = AXIS2_PLACEMENT_3D ( 'NONE', #180, #179, #222 ) ;
#182 = CIRCLE ( 'NONE', #181, 12.13326906734636900 ) ;
#183 = CARTESIAN_POINT ( 'NONE',  ( -5.009326287108706300E-010, -0.8440374230274287900, 12.13326906734636900 ) ) ;
#184 = DIRECTION ( 'NONE',  ( 1.909927584335383800E-017, -0.9877629653290690400, 0.1559625734730108200 ) ) ;
#185 = VECTOR ( 'NONE', #184, 1000.000000000000000 ) ;
#186 = CARTESIAN_POINT ( 'NONE',  ( -5.009307918013399000E-010, -18.99999999650043500, 15.00000000000000000 ) ) ;
#187 = LINE ( 'NONE', #186, #185 ) ;
#188 = CARTESIAN_POINT ( 'NONE',  ( -5.009311428630313900E-010, -0.8440374230274287900, -12.13326906734636900 ) ) ;
#189 = DIRECTION ( 'NONE',  ( 0.0000000000000000000, 0.0000000000000000000, 1.000000000000000000 ) ) ;
#190 = DIRECTION ( 'NONE',  ( 0.0000000000000000000, 1.000000000000000000, 0.0000000000000000000 ) ) ;
#191 = CARTESIAN_POINT ( 'NONE',  ( -5.009326287108706300E-010, -18.99999999650043500, 0.0000000000000000000 ) ) ;
#192 = AXIS2_PLACEMENT_3D ( 'NONE', #191, #190, #189 ) ;
#193 = CIRCLE ( 'NONE', #192, 15.00000000000000000 ) ;
#194 = DIRECTION ( 'NONE',  ( 0.0000000000000000000, 0.0000000000000000000, 1.000000000000000000 ) ) ;
#195 = DIRECTION ( 'NONE',  ( 0.0000000000000000000, 1.000000000000000000, 0.0000000000000000000 ) ) ;
#196 = CARTESIAN_POINT ( 'NONE',  ( -5.009326287108706300E-010, 2.412507003500041800, 0.0000000000000000000 ) ) ;
#197 = AXIS2_PLACEMENT_3D ( 'NONE', #196, #195, #194 ) ;
#198 = CARTESIAN_POINT ( 'NONE',  ( -5.009326287108706300E-010, -9.999999996500433100, 0.0000000000000000000 ) ) ;
#199 = CARTESIAN_POINT ( 'NONE',  ( -5.009317714864229600E-010, -9.999999996500433100, -7.000000000000000900 ) ) ;
#200 = DIRECTION ( 'NONE',  ( 0.0000000000000000000, 1.000000000000000000, 0.0000000000000000000 ) ) ;
#201 = VECTOR ( 'NONE', #200, 1000.000000000000000 ) ;
#202 = CARTESIAN_POINT ( 'NONE',  ( -5.009323837895998700E-010, 2.412507003500041800, -2.000000000000000400 ) ) ;
#203 = LINE ( 'NONE', #202, #201 ) ;
#204 = DIRECTION ( 'NONE',  ( 0.0000000000000000000, 1.000000000000000000, 0.0000000000000000000 ) ) ;
#205 = VECTOR ( 'NONE', #204, 1000.000000000000000 ) ;
#206 = CARTESIAN_POINT ( 'NONE',  ( -5.009326287108706300E-010, 2.412507003500041800, 2.000000000000000400 ) ) ;
#207 = LINE ( 'NONE', #206, #205 ) ;
#208 = CARTESIAN_POINT ( 'NONE',  ( -5.009326287108706300E-010, -9.999999996500433100, 2.000000000000000000 ) ) ;
#209 = CARTESIAN_POINT ( 'NONE',  ( -5.009323837895998700E-010, -18.99999999650043500, -2.000000000000000900 ) ) ;
#210 = DIRECTION ( 'NONE',  ( 0.0000000000000000000, 0.0000000000000000000, 1.000000000000000000 ) ) ;
#211 = DIRECTION ( 'NONE',  ( 0.0000000000000000000, 1.000000000000000000, 0.0000000000000000000 ) ) ;
#212 = AXIS2_PLACEMENT_3D ( 'NONE', #218, #211, #210 ) ;
#213 = CIRCLE ( 'NONE', #212, 2.000000000000000900 ) ;
#214 = DIRECTION ( 'NONE',  ( 0.0000000000000000000, 0.0000000000000000000, -1.000000000000000000 ) ) ;
#215 = DIRECTION ( 'NONE',  ( 0.0000000000000000000, -1.000000000000000000, 0.0000000000000000000 ) ) ;
#216 = CARTESIAN_POINT ( 'NONE',  ( -5.009326287108706300E-010, -18.99999999650043500, 0.0000000000000000000 ) ) ;
#217 = AXIS2_PLACEMENT_3D ( 'NONE', #216, #215, #214 ) ;
#218 = CARTESIAN_POINT ( 'NONE',  ( -5.009326287108706300E-010, -18.99999999650043500, 0.0000000000000000000 ) ) ;
#219 = CONICAL_SURFACE ( 'NONE', #217, 15.00000000000000000, 0.1566018769820152800 ) ;
#220 = FACE_OUTER_BOUND ( 'NONE', #103, .T. ) ;
#221 = CARTESIAN_POINT ( 'NONE',  ( -5.009307918013399000E-010, -18.99999999650043500, 15.00000000000000000 ) ) ;
#222 = DIRECTION ( 'NONE',  ( 0.0000000000000000000, 0.0000000000000000000, 1.000000000000000000 ) ) ;
#223 = CARTESIAN_POINT ( 'NONE',  ( -5.009326287108706300E-010, -0.9999999965004337000, 0.0000000000000000000 ) ) ;
#224 = FACE_OUTER_BOUND ( 'NONE', #72, .T. ) ;
#225 = CARTESIAN_POINT ( 'NONE',  ( -5.009326287108706300E-010, 3.499566521986130500E-009, 11.14550610201729200 ) ) ;
#226 = DIRECTION ( 'NONE',  ( 0.0000000000000000000, 0.0000000000000000000, 1.000000000000000000 ) ) ;
#227 = DIRECTION ( 'NONE',  ( 0.0000000000000000000, 1.000000000000000000, 0.0000000000000000000 ) ) ;
#228 = AXIS2_PLACEMENT_3D ( 'NONE', #264, #227, #226 ) ;
#229 = CIRCLE ( 'NONE', #228, 11.14550610201729200 ) ;
#230 = DIRECTION ( 'NONE',  ( 1.000000000000000000, 0.0000000000000000000, 0.0000000000000000000 ) ) ;
#231 = DIRECTION ( 'NONE',  ( 0.0000000000000000000, 0.0000000000000000000, 1.000000000000000000 ) ) ;
#232 = AXIS2_PLACEMENT_3D ( 'NONE', #254, #231, #230 ) ;
#233 = ADVANCED_BREP_SHAPE_REPRESENTATION ( 'C-30-RK-30-gray', ( #98, #232 ), #234 ) ;
#234 =( GEOMETRIC_REPRESENTATION_CONTEXT ( 3 ) GLOBAL_UNCERTAINTY_ASSIGNED_CONTEXT ( ( #250 ) ) GLOBAL_UNIT_ASSIGNED_CONTEXT ( ( #253, #252, #251 ) ) REPRESENTATION_CONTEXT ( 'NONE', 'WORKASPACE' ) );
#235 = CYLINDRICAL_SURFACE ( 'NONE', #237, 7.000000000000000900 ) ;
#236 = CIRCLE ( 'NONE', #292, 7.000000000000000900 ) ;
#237 = AXIS2_PLACEMENT_3D ( 'NONE', #242, #294, #293 ) ;
#238 = FACE_OUTER_BOUND ( 'NONE', #67, .T. ) ;
#239 = DIRECTION ( 'NONE',  ( 0.0000000000000000000, 0.0000000000000000000, 1.000000000000000000 ) ) ;
#240 = DIRECTION ( 'NONE',  ( 0.0000000000000000000, 1.000000000000000000, 0.0000000000000000000 ) ) ;
#241 = AXIS2_PLACEMENT_3D ( 'NONE', #249, #240, #239 ) ;
#242 = CARTESIAN_POINT ( 'NONE',  ( -5.009326287108706300E-010, 2.412507003500041800, 0.0000000000000000000 ) ) ;
#243 = CYLINDRICAL_SURFACE ( 'NONE', #241, 2.000000000000000400 ) ;
#244 = FACE_OUTER_BOUND ( 'NONE', #12, .T. ) ;
#245 = DIRECTION ( 'NONE',  ( 0.0000000000000000000, 0.0000000000000000000, 1.000000000000000000 ) ) ;
#246 = DIRECTION ( 'NONE',  ( 0.0000000000000000000, 1.000000000000000000, 0.0000000000000000000 ) ) ;
#247 = AXIS2_PLACEMENT_3D ( 'NONE', #223, #246, #245 ) ;
#248 = TOROIDAL_SURFACE ( 'NONE', #247, 11.14550610201729900, 1.000000000000000000 ) ;
#249 = CARTESIAN_POINT ( 'NONE',  ( -5.009326287108706300E-010, 2.412507003500041800, 0.0000000000000000000 ) ) ;
#250 = UNCERTAINTY_MEASURE_WITH_UNIT (LENGTH_MEASURE( 1.000000000000000100E-005 ), #253, 'distance_accuracy_value', 'NONE');
#251 =( NAMED_UNIT ( * ) SI_UNIT ( $, .STERADIAN. ) SOLID_ANGLE_UNIT ( ) );
#252 =( NAMED_UNIT ( * ) PLANE_ANGLE_UNIT ( ) SI_UNIT ( $, .RADIAN. ) );
#253 =( LENGTH_UNIT ( ) NAMED_UNIT ( * ) SI_UNIT ( .MILLI., .METRE. ) );
#254 = CARTESIAN_POINT ( 'NONE',  ( 0.0000000000000000000, 0.0000000000000000000, 0.0000000000000000000 ) ) ;
#255 = DIRECTION ( 'NONE',  ( 1.224606353612351900E-016, 0.0000000000000000000, -1.000000000000000000 ) ) ;
#256 = DIRECTION ( 'NONE',  ( 1.000000000000000000, 0.0000000000000000000, 1.224606353822377300E-016 ) ) ;
#257 = CARTESIAN_POINT ( 'NONE',  ( -5.009312638251117400E-010, -0.9999999965004337000, -11.14550610201729900 ) ) ;
#258 = AXIS2_PLACEMENT_3D ( 'NONE', #257, #256, #255 ) ;
#259 = CIRCLE ( 'NONE', #258, 0.9999999999999991100 ) ;
#260 = DIRECTION ( 'NONE',  ( 0.0000000000000000000, 0.0000000000000000000, 1.000000000000000000 ) ) ;
#261 = DIRECTION ( 'NONE',  ( 0.0000000000000000000, 1.000000000000000000, 0.0000000000000000000 ) ) ;
#262 = CARTESIAN_POINT ( 'NONE',  ( -5.009326287108706300E-010, 3.499566521986130500E-009, 0.0000000000000000000 ) ) ;
#263 = CARTESIAN_POINT ( 'NONE',  ( -5.009312033440715100E-010, 3.499566521986130500E-009, -11.14550610201729200 ) ) ;
#264 = CARTESIAN_POINT ( 'NONE',  ( -5.009326287108706300E-010, 3.499566521986130500E-009, 0.0000000000000000000 ) ) ;
#265 = DIRECTION ( 'NONE',  ( 0.0000000000000000000, 0.0000000000000000000, -1.000000000000000000 ) ) ;
#266 = DIRECTION ( 'NONE',  ( 0.0000000000000000000, -1.000000000000000000, 0.0000000000000000000 ) ) ;
#267 = CARTESIAN_POINT ( 'NONE',  ( 11.14550610151635900, 3.499566432094796200E-009, 0.0000000000000000000 ) ) ;
#268 = AXIS2_PLACEMENT_3D ( 'NONE', #267, #266, #265 ) ;
#269 = PLANE ( 'NONE',  #268 ) ;
#270 = CARTESIAN_POINT ( 'NONE',  ( -5.009326287108706300E-010, -18.99999999650043500, -15.00000000000000000 ) ) ;
#271 = CYLINDRICAL_SURFACE ( 'NONE', #197, 2.000000000000000400 ) ;
#272 = FACE_OUTER_BOUND ( 'NONE', #85, .T. ) ;
#273 = DIRECTION ( 'NONE',  ( 0.0000000000000000000, -0.9877629653290690400, -0.1559625734730108200 ) ) ;
#274 = VECTOR ( 'NONE', #273, 1000.000000000000000 ) ;
#275 = CARTESIAN_POINT ( 'NONE',  ( -5.009326287108706300E-010, -18.99999999650043500, -15.00000000000000000 ) ) ;
#276 = LINE ( 'NONE', #275, #274 ) ;
#277 = DIRECTION ( 'NONE',  ( 0.0000000000000000000, 0.0000000000000000000, 1.000000000000000000 ) ) ;
#278 = DIRECTION ( 'NONE',  ( 0.0000000000000000000, 1.000000000000000000, 0.0000000000000000000 ) ) ;
#279 = CARTESIAN_POINT ( 'NONE',  ( -5.009326287108706300E-010, -9.999999996500433100, 0.0000000000000000000 ) ) ;
#280 = AXIS2_PLACEMENT_3D ( 'NONE', #279, #278, #277 ) ;
#281 = CIRCLE ( 'NONE', #280, 2.000000000000000000 ) ;
#282 = CARTESIAN_POINT ( 'NONE',  ( -5.009323837895998700E-010, -9.999999996500433100, -2.000000000000000000 ) ) ;
#283 = CARTESIAN_POINT ( 'NONE',  ( -5.009326287108706300E-010, -18.99999999650043500, 2.000000000000000900 ) ) ;
#284 = DIRECTION ( 'NONE',  ( 0.0000000000000000000, 0.0000000000000000000, 1.000000000000000000 ) ) ;
#285 = DIRECTION ( 'NONE',  ( 0.0000000000000000000, 1.000000000000000000, 0.0000000000000000000 ) ) ;
#286 = CARTESIAN_POINT ( 'NONE',  ( -5.009326287108706300E-010, 3.499566521986130500E-009, 0.0000000000000000000 ) ) ;
#287 = AXIS2_PLACEMENT_3D ( 'NONE', #286, #285, #284 ) ;
#288 = CIRCLE ( 'NONE', #287, 11.14550610201729200 ) ;
#289 = DIRECTION ( 'NONE',  ( 0.0000000000000000000, 0.0000000000000000000, 1.000000000000000000 ) ) ;
#290 = DIRECTION ( 'NONE',  ( 0.0000000000000000000, 1.000000000000000000, 0.0000000000000000000 ) ) ;
#291 = CARTESIAN_POINT ( 'NONE',  ( -5.009326287108706300E-010, -9.999999996500433100, 0.0000000000000000000 ) ) ;
#292 = AXIS2_PLACEMENT_3D ( 'NONE', #291, #290, #289 ) ;
#293 = DIRECTION ( 'NONE',  ( 0.0000000000000000000, 0.0000000000000000000, 1.000000000000000000 ) ) ;
#294 = DIRECTION ( 'NONE',  ( 0.0000000000000000000, 1.000000000000000000, 0.0000000000000000000 ) ) ;
#295 = CC_DESIGN_APPROVAL ( #303, ( #306 ) ) ;
#296 = APPROVAL_DATE_TIME ( #297, #303 ) ;
#297 = DATE_AND_TIME ( #298, #299 ) ;
#298 = CALENDAR_DATE ( 2009, 29, 6 ) ;
#299 = LOCAL_TIME ( 11, 9, 4.000000000000000000, #300 ) ;
#300 = COORDINATED_UNIVERSAL_TIME_OFFSET ( 9, 0, .AHEAD. ) ;
#301 = APPROVAL_PERSON_ORGANIZATION ( #305, #303, #302 ) ;
#302 = APPROVAL_ROLE ( '' ) ;
#303 = APPROVAL ( #304, 'UNSPECIFIED' ) ;
#304 = APPROVAL_STATUS ( 'not_yet_approved' ) ;
#305 = PERSON_AND_ORGANIZATION ( #174, #312 ) ;
#306 = PRODUCT_DEFINITION ( 'UNKNOWN', '', #368, #307 ) ;
#307 = DESIGN_CONTEXT ( 'detailed design', #309, 'design' ) ;
#308 = APPLICATION_PROTOCOL_DEFINITION ( 'international standard', 'config_control_design', 1994, #309 ) ;
#309 = APPLICATION_CONTEXT ( 'configuration controlled 3d designs of mechanical parts and assemblies' ) ;
#310 = CC_DESIGN_PERSON_AND_ORGANIZATION_ASSIGNMENT ( #173, #311, ( #175 ) ) ;
#311 = PERSON_AND_ORGANIZATION_ROLE ( 'design_owner' ) ;
#312 = ORGANIZATION ( 'UNSPECIFIED', 'UNSPECIFIED', '' ) ;
#313 = CARTESIAN_POINT ( 'NONE',  ( -5.009317714864229600E-010, 3.499566521986130500E-009, -7.000000000000000000 ) ) ;
#314 = LINE ( 'NONE', #321, #320 ) ;
#315 = DIRECTION ( 'NONE',  ( 0.0000000000000000000, 1.000000000000000000, 0.0000000000000000000 ) ) ;
#316 = VECTOR ( 'NONE', #315, 1000.000000000000000 ) ;
#317 = CARTESIAN_POINT ( 'NONE',  ( -5.009317714864229600E-010, 2.412507003500041800, -7.000000000000000900 ) ) ;
#318 = LINE ( 'NONE', #317, #316 ) ;
#319 = DIRECTION ( 'NONE',  ( 0.0000000000000000000, 1.000000000000000000, 0.0000000000000000000 ) ) ;
#320 = VECTOR ( 'NONE', #319, 1000.000000000000000 ) ;
#321 = CARTESIAN_POINT ( 'NONE',  ( -5.009326287108706300E-010, 2.412507003500041800, 7.000000000000000900 ) ) ;
#322 = AXIS2_PLACEMENT_3D ( 'NONE', #262, #261, #260 ) ;
#323 = CIRCLE ( 'NONE', #322, 7.000000000000000000 ) ;
#324 = DIRECTION ( 'NONE',  ( 0.0000000000000000000, 0.0000000000000000000, 1.000000000000000000 ) ) ;
#325 = DIRECTION ( 'NONE',  ( 0.0000000000000000000, 1.000000000000000000, 0.0000000000000000000 ) ) ;
#326 = CARTESIAN_POINT ( 'NONE',  ( -5.009326287108706300E-010, -0.9999999965004337000, 0.0000000000000000000 ) ) ;
#327 = AXIS2_PLACEMENT_3D ( 'NONE', #326, #325, #324 ) ;
#328 = TOROIDAL_SURFACE ( 'NONE', #327, 11.14550610201729900, 1.000000000000000000 ) ;
#329 = FACE_OUTER_BOUND ( 'NONE', #117, .T. ) ;
#330 = CARTESIAN_POINT ( 'NONE',  ( -5.009326287108706300E-010, -9.999999996500433100, 7.000000000000000900 ) ) ;
#331 = DIRECTION ( 'NONE',  ( 0.0000000000000000000, 0.0000000000000000000, 1.000000000000000000 ) ) ;
#332 = DIRECTION ( 'NONE',  ( 0.0000000000000000000, 1.000000000000000000, 0.0000000000000000000 ) ) ;
#333 = AXIS2_PLACEMENT_3D ( 'NONE', #198, #332, #331 ) ;
#334 = CIRCLE ( 'NONE', #333, 7.000000000000000900 ) ;
#335 = CARTESIAN_POINT ( 'NONE',  ( -5.009326287108706300E-010, 3.499566521986130500E-009, 7.000000000000000000 ) ) ;
#336 = FACE_OUTER_BOUND ( 'NONE', #19, .T. ) ;
#337 = FACE_BOUND ( 'NONE', #4, .T. ) ;
#338 = PRODUCT_RELATED_PRODUCT_CATEGORY ( 'detail', '', ( #175 ) ) ;
#339 = CC_DESIGN_SECURITY_CLASSIFICATION ( #349, ( #368 ) ) ;
#340 = CC_DESIGN_APPROVAL ( #365, ( #349 ) ) ;
#341 = PRODUCT_DEFINITION_SHAPE ( 'NONE', 'NONE',  #306 ) ;
#342 = SHAPE_DEFINITION_REPRESENTATION ( #341, #233 ) ;
#343 = CALENDAR_DATE ( 2009, 29, 6 ) ;
#344 = LOCAL_TIME ( 11, 9, 4.000000000000000000, #345 ) ;
#345 = COORDINATED_UNIVERSAL_TIME_OFFSET ( 9, 0, .AHEAD. ) ;
#346 = CC_DESIGN_PERSON_AND_ORGANIZATION_ASSIGNMENT ( #348, #347, ( #349 ) ) ;
#347 = PERSON_AND_ORGANIZATION_ROLE ( 'classification_officer' ) ;
#348 = PERSON_AND_ORGANIZATION ( #174, #312 ) ;
#349 = SECURITY_CLASSIFICATION ( '', '', #350 ) ;
#350 = SECURITY_CLASSIFICATION_LEVEL ( 'unclassified' ) ;
#351 = CC_DESIGN_PERSON_AND_ORGANIZATION_ASSIGNMENT ( #353, #352, ( #368 ) ) ;
#352 = PERSON_AND_ORGANIZATION_ROLE ( 'design_supplier' ) ;
#353 = PERSON_AND_ORGANIZATION ( #174, #312 ) ;
#354 = CC_DESIGN_PERSON_AND_ORGANIZATION_ASSIGNMENT ( #373, #372, ( #368 ) ) ;
#355 = APPROVAL_ROLE ( '' ) ;
#356 = APPROVAL_STATUS ( 'not_yet_approved' ) ;
#357 = PERSON_AND_ORGANIZATION ( #174, #312 ) ;
#358 = APPROVAL_DATE_TIME ( #359, #365 ) ;
#359 = DATE_AND_TIME ( #360, #361 ) ;
#360 = CALENDAR_DATE ( 2009, 29, 6 ) ;
#361 = LOCAL_TIME ( 11, 9, 4.000000000000000000, #362 ) ;
#362 = COORDINATED_UNIVERSAL_TIME_OFFSET ( 9, 0, .AHEAD. ) ;
#363 = APPROVAL_PERSON_ORGANIZATION ( #367, #365, #364 ) ;
#364 = APPROVAL_ROLE ( '' ) ;
#365 = APPROVAL ( #366, 'UNSPECIFIED' ) ;
#366 = APPROVAL_STATUS ( 'not_yet_approved' ) ;
#367 = PERSON_AND_ORGANIZATION ( #174, #312 ) ;
#368 = PRODUCT_DEFINITION_FORMATION_WITH_SPECIFIED_SOURCE ( 'ANY', '', #175, .NOT_KNOWN. ) ;
#369 = CC_DESIGN_APPROVAL ( #381, ( #368 ) ) ;
#370 = APPROVAL_DATE_TIME ( #371, #381 ) ;
#371 = DATE_AND_TIME ( #343, #344 ) ;
#372 = PERSON_AND_ORGANIZATION_ROLE ( 'creator' ) ;
#373 = PERSON_AND_ORGANIZATION ( #174, #312 ) ;
#374 = CC_DESIGN_DATE_AND_TIME_ASSIGNMENT ( #376, #375, ( #349 ) ) ;
#375 = DATE_TIME_ROLE ( 'classification_date' ) ;
#376 = DATE_AND_TIME ( #377, #378 ) ;
#377 = CALENDAR_DATE ( 2009, 29, 6 ) ;
#378 = LOCAL_TIME ( 11, 9, 4.000000000000000000, #379 ) ;
#379 = COORDINATED_UNIVERSAL_TIME_OFFSET ( 9, 0, .AHEAD. ) ;
#380 = APPROVAL_PERSON_ORGANIZATION ( #357, #381, #355 ) ;
#381 = APPROVAL ( #356, 'UNSPECIFIED' ) ;
ENDSEC;
END-ISO-10303-21;
