ISO-10303-21;
HEADER;
FILE_DESCRIPTION (( 'STEP AP203' ),
    '1' );
FILE_NAME ('C-30-RK-30.STEP',
    '2009-06-26T06:25:07',
    ( '11sw' ),
    ( '^LQ»¢®ïÐ' ),
    'SwSTEP 2.0',
    'SolidWorks 2007',
    '' );
FILE_SCHEMA (( 'CONFIG_CONTROL_DESIGN' ));
ENDSEC;

DATA;
#1 = APPROVAL_PERSON_ORGANIZATION ( #36, #34, #33 ) ;
#2 = COORDINATED_UNIVERSAL_TIME_OFFSET ( 9, 0, .AHEAD. ) ;
#3 = APPROVAL_DATE_TIME ( #6, #34 ) ;
#4 = LOCAL_TIME ( 15, 25, 7.000000000000000000, #2 ) ;
#5 = CALENDAR_DATE ( 2009, 26, 6 ) ;
#6 = DATE_AND_TIME ( #5, #4 ) ;
#7 = CC_DESIGN_APPROVAL ( #34, ( #266 ) ) ;
#8 = COORDINATED_UNIVERSAL_TIME_OFFSET ( 9, 0, .AHEAD. ) ;
#9 = FACE_OUTER_BOUND ( 'NONE', #53, .T. ) ;
#10 = DIRECTION ( 'NONE',  ( 0.0000000000000000000, 0.0000000000000000000, 1.000000000000000000 ) ) ;
#11 = DIRECTION ( 'NONE',  ( 0.0000000000000000000, 1.000000000000000000, 0.0000000000000000000 ) ) ;
#12 = CARTESIAN_POINT ( 'NONE',  ( -5.009326287108706300E-010, -18.99999999650043500, 0.0000000000000000000 ) ) ;
#13 = AXIS2_PLACEMENT_3D ( 'NONE', #12, #11, #10 ) ;
#14 = DIRECTION ( 'NONE',  ( 0.0000000000000000000, 0.0000000000000000000, 1.000000000000000000 ) ) ;
#15 = DIRECTION ( 'NONE',  ( 0.0000000000000000000, 1.000000000000000000, 0.0000000000000000000 ) ) ;
#16 = CARTESIAN_POINT ( 'NONE',  ( 1.999999999499068300, -18.99999999650043500, 0.0000000000000000000 ) ) ;
#17 = AXIS2_PLACEMENT_3D ( 'NONE', #16, #15, #14 ) ;
#18 = CIRCLE ( 'NONE', #13, 15.00000000000000000 ) ;
#19 = PLANE ( 'NONE',  #17 ) ;
#20 = FACE_BOUND ( 'NONE', #49, .T. ) ;
#21 = DIRECTION ( 'NONE',  ( 0.0000000000000000000, 0.0000000000000000000, 1.000000000000000000 ) ) ;
#22 = DIRECTION ( 'NONE',  ( 0.0000000000000000000, 1.000000000000000000, 0.0000000000000000000 ) ) ;
#23 = CARTESIAN_POINT ( 'NONE',  ( -5.009326287108706300E-010, -18.99999999650043500, 0.0000000000000000000 ) ) ;
#24 = AXIS2_PLACEMENT_3D ( 'NONE', #23, #22, #21 ) ;
#25 = CIRCLE ( 'NONE', #24, 2.000000000000000900 ) ;
#26 = FACE_OUTER_BOUND ( 'NONE', #45, .T. ) ;
#27 = DIRECTION ( 'NONE',  ( 0.0000000000000000000, 0.0000000000000000000, 1.000000000000000000 ) ) ;
#28 = DIRECTION ( 'NONE',  ( 0.0000000000000000000, 1.000000000000000000, 0.0000000000000000000 ) ) ;
#29 = AXIS2_PLACEMENT_3D ( 'NONE', #31, #28, #27 ) ;
#30 = CYLINDRICAL_SURFACE ( 'NONE', #29, 2.000000000000000400 ) ;
#31 = CARTESIAN_POINT ( 'NONE',  ( -5.009326287108706300E-010, 2.412507003500041800, 0.0000000000000000000 ) ) ;
#32 = FACE_OUTER_BOUND ( 'NONE', #60, .T. ) ;
#33 = APPROVAL_ROLE ( '' ) ;
#34 = APPROVAL ( #35, 'UNSPECIFIED' ) ;
#35 = APPROVAL_STATUS ( 'not_yet_approved' ) ;
#36 = PERSON_AND_ORGANIZATION ( #153, #152 ) ;
#37 = ORIENTED_EDGE ( 'NONE', *, *, #108, .T. ) ;
#38 = ADVANCED_FACE ( 'NONE', ( #32 ), #30, .F. ) ;
#39 = ORIENTED_EDGE ( 'NONE', *, *, #118, .F. ) ;
#40 = ORIENTED_EDGE ( 'NONE', *, *, #41, .F. ) ;
#41 = EDGE_CURVE ( 'NONE', #129, #130, #25, .T. ) ;
#42 = ORIENTED_EDGE ( 'NONE', *, *, #112, .T. ) ;
#43 = ORIENTED_EDGE ( 'NONE', *, *, #81, .T. ) ;
#44 = ADVANCED_FACE ( 'NONE', ( #26, #20 ), #19, .F. ) ;
#45 = EDGE_LOOP ( 'NONE', ( #46, #48 ) ) ;
#46 = ORIENTED_EDGE ( 'NONE', *, *, #47, .F. ) ;
#47 = EDGE_CURVE ( 'NONE', #133, #137, #18, .T. ) ;
#48 = ORIENTED_EDGE ( 'NONE', *, *, #132, .F. ) ;
#49 = EDGE_LOOP ( 'NONE', ( #50, #51 ) ) ;
#50 = ORIENTED_EDGE ( 'NONE', *, *, #41, .T. ) ;
#51 = ORIENTED_EDGE ( 'NONE', *, *, #122, .T. ) ;
#52 = ADVANCED_FACE ( 'NONE', ( #9 ), #376, .T. ) ;
#53 = EDGE_LOOP ( 'NONE', ( #54, #55, #56, #57 ) ) ;
#54 = ORIENTED_EDGE ( 'NONE', *, *, #136, .F. ) ;
#55 = ORIENTED_EDGE ( 'NONE', *, *, #87, .F. ) ;
#56 = ORIENTED_EDGE ( 'NONE', *, *, #125, .T. ) ;
#57 = ORIENTED_EDGE ( 'NONE', *, *, #47, .T. ) ;
#58 = CLOSED_SHELL ( 'NONE', ( #143, #124, #104, #102, #82, #91, #71, #78, #38, #44, #52 ) ) ;
#59 = ORIENTED_EDGE ( 'NONE', *, *, #75, .T. ) ;
#60 = EDGE_LOOP ( 'NONE', ( #39, #40, #42, #43 ) ) ;
#61 = EDGE_CURVE ( 'NONE', #62, #116, #371, .T. ) ;
#62 = VERTEX_POINT ( 'NONE', #367 ) ;
#63 = ORIENTED_EDGE ( 'NONE', *, *, #64, .F. ) ;
#64 = EDGE_CURVE ( 'NONE', #140, #62, #365, .T. ) ;
#65 = EDGE_LOOP ( 'NONE', ( #83, #84, #88, #89 ) ) ;
#66 = ORIENTED_EDGE ( 'NONE', *, *, #113, .F. ) ;
#67 = EDGE_LOOP ( 'NONE', ( #59, #37 ) ) ;
#68 = EDGE_LOOP ( 'NONE', ( #69, #70 ) ) ;
#69 = ORIENTED_EDGE ( 'NONE', *, *, #61, .T. ) ;
#70 = ORIENTED_EDGE ( 'NONE', *, *, #90, .T. ) ;
#71 = ADVANCED_FACE ( 'NONE', ( #366 ), #358, .F. ) ;
#72 = EDGE_LOOP ( 'NONE', ( #73, #74, #76, #77 ) ) ;
#73 = ORIENTED_EDGE ( 'NONE', *, *, #127, .F. ) ;
#74 = ORIENTED_EDGE ( 'NONE', *, *, #75, .F. ) ;
#75 = EDGE_CURVE ( 'NONE', #109, #106, #354, .T. ) ;
#76 = ORIENTED_EDGE ( 'NONE', *, *, #100, .T. ) ;
#77 = ORIENTED_EDGE ( 'NONE', *, *, #85, .T. ) ;
#78 = ADVANCED_FACE ( 'NONE', ( #350, #349 ), #347, .F. ) ;
#79 = EDGE_LOOP ( 'NONE', ( #80, #66 ) ) ;
#80 = ORIENTED_EDGE ( 'NONE', *, *, #81, .F. ) ;
#81 = EDGE_CURVE ( 'NONE', #114, #120, #342, .T. ) ;
#82 = ADVANCED_FACE ( 'NONE', ( #338 ), #337, .T. ) ;
#83 = ORIENTED_EDGE ( 'NONE', *, *, #115, .F. ) ;
#84 = ORIENTED_EDGE ( 'NONE', *, *, #87, .T. ) ;
#85 = EDGE_CURVE ( 'NONE', #103, #121, #332, .T. ) ;
#86 = ORIENTED_EDGE ( 'NONE', *, *, #96, .F. ) ;
#87 = EDGE_CURVE ( 'NONE', #139, #140, #327, .T. ) ;
#88 = ORIENTED_EDGE ( 'NONE', *, *, #64, .T. ) ;
#89 = ORIENTED_EDGE ( 'NONE', *, *, #90, .F. ) ;
#90 = EDGE_CURVE ( 'NONE', #116, #62, #322, .T. ) ;
#91 = ADVANCED_FACE ( 'NONE', ( #317, #316 ), #314, .F. ) ;
#92 = EDGE_LOOP ( 'NONE', ( #93, #86 ) ) ;
#93 = ORIENTED_EDGE ( 'NONE', *, *, #85, .F. ) ;
#94 = ORIENTED_EDGE ( 'NONE', *, *, #61, .F. ) ;
#95 = ORIENTED_EDGE ( 'NONE', *, *, #115, .T. ) ;
#96 = EDGE_CURVE ( 'NONE', #121, #103, #262, .T. ) ;
#97 = EDGE_LOOP ( 'NONE', ( #101, #95, #94, #63 ) ) ;
#98 = ORIENTED_EDGE ( 'NONE', *, *, #96, .T. ) ;
#99 = ORIENTED_EDGE ( 'NONE', *, *, #100, .F. ) ;
#100 = EDGE_CURVE ( 'NONE', #109, #103, #258, .T. ) ;
#101 = ORIENTED_EDGE ( 'NONE', *, *, #138, .T. ) ;
#102 = ADVANCED_FACE ( 'NONE', ( #254 ), #253, .T. ) ;
#103 = VERTEX_POINT ( 'NONE', #248 ) ;
#104 = ADVANCED_FACE ( 'NONE', ( #247 ), #246, .F. ) ;
#105 = ORIENTED_EDGE ( 'NONE', *, *, #108, .F. ) ;
#106 = VERTEX_POINT ( 'NONE', #241 ) ;
#107 = ORIENTED_EDGE ( 'NONE', *, *, #127, .T. ) ;
#108 = EDGE_CURVE ( 'NONE', #106, #109, #240, .T. ) ;
#109 = VERTEX_POINT ( 'NONE', #235 ) ;
#110 = EDGE_LOOP ( 'NONE', ( #105, #107, #98, #99 ) ) ;
#111 = ORIENTED_EDGE ( 'NONE', *, *, #112, .F. ) ;
#112 = EDGE_CURVE ( 'NONE', #129, #114, #234, .T. ) ;
#113 = EDGE_CURVE ( 'NONE', #120, #114, #230, .T. ) ;
#114 = VERTEX_POINT ( 'NONE', #225 ) ;
#115 = EDGE_CURVE ( 'NONE', #139, #116, #224, .T. ) ;
#116 = VERTEX_POINT ( 'NONE', #219 ) ;
#117 = ORIENTED_EDGE ( 'NONE', *, *, #118, .T. ) ;
#118 = EDGE_CURVE ( 'NONE', #130, #120, #218, .T. ) ;
#119 = ORIENTED_EDGE ( 'NONE', *, *, #113, .T. ) ;
#120 = VERTEX_POINT ( 'NONE', #214 ) ;
#121 = VERTEX_POINT ( 'NONE', #213 ) ;
#122 = EDGE_CURVE ( 'NONE', #130, #129, #212, .T. ) ;
#123 = ORIENTED_EDGE ( 'NONE', *, *, #122, .F. ) ;
#124 = ADVANCED_FACE ( 'NONE', ( #207 ), #206, .F. ) ;
#125 = EDGE_CURVE ( 'NONE', #139, #133, #205, .T. ) ;
#126 = EDGE_LOOP ( 'NONE', ( #123, #117, #119, #111 ) ) ;
#127 = EDGE_CURVE ( 'NONE', #106, #121, #197, .T. ) ;
#128 = ORIENTED_EDGE ( 'NONE', *, *, #125, .F. ) ;
#129 = VERTEX_POINT ( 'NONE', #193 ) ;
#130 = VERTEX_POINT ( 'NONE', #192 ) ;
#131 = MANIFOLD_SOLID_BREP ( 'NONE', #58 ) ;
#132 = EDGE_CURVE ( 'NONE', #137, #133, #191, .T. ) ;
#133 = VERTEX_POINT ( 'NONE', #186 ) ;
#134 = ORIENTED_EDGE ( 'NONE', *, *, #132, .T. ) ;
#135 = ORIENTED_EDGE ( 'NONE', *, *, #136, .T. ) ;
#136 = EDGE_CURVE ( 'NONE', #140, #137, #185, .T. ) ;
#137 = VERTEX_POINT ( 'NONE', #181 ) ;
#138 = EDGE_CURVE ( 'NONE', #140, #139, #180, .T. ) ;
#139 = VERTEX_POINT ( 'NONE', #175 ) ;
#140 = VERTEX_POINT ( 'NONE', #174 ) ;
#141 = ORIENTED_EDGE ( 'NONE', *, *, #138, .F. ) ;
#142 = EDGE_LOOP ( 'NONE', ( #141, #135, #134, #128 ) ) ;
#143 = ADVANCED_FACE ( 'NONE', ( #173 ), #171, .T. ) ;
#144 = CC_DESIGN_DATE_AND_TIME_ASSIGNMENT ( #146, #145, ( #266 ) ) ;
#145 = DATE_TIME_ROLE ( 'classification_date' ) ;
#146 = DATE_AND_TIME ( #147, #148 ) ;
#147 = CALENDAR_DATE ( 2009, 26, 6 ) ;
#148 = LOCAL_TIME ( 15, 25, 7.000000000000000000, #8 ) ;
#149 = CC_DESIGN_PERSON_AND_ORGANIZATION_ASSIGNMENT ( #151, #150, ( #154 ) ) ;
#150 = PERSON_AND_ORGANIZATION_ROLE ( 'design_owner' ) ;
#151 = PERSON_AND_ORGANIZATION ( #153, #152 ) ;
#152 = ORGANIZATION ( 'UNSPECIFIED', 'UNSPECIFIED', '' ) ;
#153 = PERSON ( 'UNSPECIFIED', 'UNSPECIFIED', 'UNSPECIFIED', ('UNSPECIFIED'), ('UNSPECIFIED'), ('UNSPECIFIED') ) ;
#154 = PRODUCT ( 'C-30-RK-30', 'C-30-RK-30', '', ( #155 ) ) ;
#155 = MECHANICAL_CONTEXT ( 'NONE', #157, 'mechanical' ) ;
#156 = APPLICATION_PROTOCOL_DEFINITION ( 'international standard', 'config_control_design', 1994, #157 ) ;
#157 = APPLICATION_CONTEXT ( 'configuration controlled 3d designs of mechanical parts and assemblies' ) ;
#158 = DIRECTION ( 'NONE',  ( 1.000000000000000000, 0.0000000000000000000, 0.0000000000000000000 ) ) ;
#159 = DIRECTION ( 'NONE',  ( 0.0000000000000000000, 0.0000000000000000000, 1.000000000000000000 ) ) ;
#160 = CARTESIAN_POINT ( 'NONE',  ( 0.0000000000000000000, 0.0000000000000000000, 0.0000000000000000000 ) ) ;
#161 = AXIS2_PLACEMENT_3D ( 'NONE', #160, #159, #158 ) ;
#162 = ADVANCED_BREP_SHAPE_REPRESENTATION ( 'C-30-RK-30', ( #131, #161 ), #163 ) ;
#163 =( GEOMETRIC_REPRESENTATION_CONTEXT ( 3 ) GLOBAL_UNCERTAINTY_ASSIGNED_CONTEXT ( ( #164 ) ) GLOBAL_UNIT_ASSIGNED_CONTEXT ( ( #167, #166, #165 ) ) REPRESENTATION_CONTEXT ( 'NONE', 'WORKASPACE' ) );
#164 = UNCERTAINTY_MEASURE_WITH_UNIT (LENGTH_MEASURE( 1.000000000000000100E-005 ), #167, 'distance_accuracy_value', 'NONE');
#165 =( NAMED_UNIT ( * ) SI_UNIT ( $, .STERADIAN. ) SOLID_ANGLE_UNIT ( ) );
#166 =( NAMED_UNIT ( * ) PLANE_ANGLE_UNIT ( ) SI_UNIT ( $, .RADIAN. ) );
#167 =( LENGTH_UNIT ( ) NAMED_UNIT ( * ) SI_UNIT ( .MILLI., .METRE. ) );
#168 = DIRECTION ( 'NONE',  ( 0.0000000000000000000, 0.0000000000000000000, -1.000000000000000000 ) ) ;
#169 = DIRECTION ( 'NONE',  ( 0.0000000000000000000, -1.000000000000000000, 0.0000000000000000000 ) ) ;
#170 = AXIS2_PLACEMENT_3D ( 'NONE', #172, #169, #168 ) ;
#171 = CONICAL_SURFACE ( 'NONE', #170, 15.00000000000000000, 0.1566018769820152800 ) ;
#172 = CARTESIAN_POINT ( 'NONE',  ( -5.009326287108706300E-010, -18.99999999650043500, 0.0000000000000000000 ) ) ;
#173 = FACE_OUTER_BOUND ( 'NONE', #142, .T. ) ;
#174 = CARTESIAN_POINT ( 'NONE',  ( -5.009326287108706300E-010, -0.8440374230274287900, 12.13326906734636900 ) ) ;
#175 = CARTESIAN_POINT ( 'NONE',  ( -5.009311428630313900E-010, -0.8440374230274287900, -12.13326906734636900 ) ) ;
#176 = DIRECTION ( 'NONE',  ( 0.0000000000000000000, 0.0000000000000000000, 1.000000000000000000 ) ) ;
#177 = DIRECTION ( 'NONE',  ( 0.0000000000000000000, 1.000000000000000000, 0.0000000000000000000 ) ) ;
#178 = CARTESIAN_POINT ( 'NONE',  ( -5.009326287108706300E-010, -0.8440374230274287900, 0.0000000000000000000 ) ) ;
#179 = AXIS2_PLACEMENT_3D ( 'NONE', #178, #177, #176 ) ;
#180 = CIRCLE ( 'NONE', #179, 12.13326906734636900 ) ;
#181 = CARTESIAN_POINT ( 'NONE',  ( -5.009307918013399000E-010, -18.99999999650043500, 15.00000000000000000 ) ) ;
#182 = DIRECTION ( 'NONE',  ( 1.909927584335383800E-017, -0.9877629653290690400, 0.1559625734730108200 ) ) ;
#183 = VECTOR ( 'NONE', #182, 1000.000000000000000 ) ;
#184 = CARTESIAN_POINT ( 'NONE',  ( -5.009307918013399000E-010, -18.99999999650043500, 15.00000000000000000 ) ) ;
#185 = LINE ( 'NONE', #184, #183 ) ;
#186 = CARTESIAN_POINT ( 'NONE',  ( -5.009326287108706300E-010, -18.99999999650043500, -15.00000000000000000 ) ) ;
#187 = DIRECTION ( 'NONE',  ( 0.0000000000000000000, 0.0000000000000000000, 1.000000000000000000 ) ) ;
#188 = DIRECTION ( 'NONE',  ( 0.0000000000000000000, 1.000000000000000000, 0.0000000000000000000 ) ) ;
#189 = CARTESIAN_POINT ( 'NONE',  ( -5.009326287108706300E-010, -18.99999999650043500, 0.0000000000000000000 ) ) ;
#190 = AXIS2_PLACEMENT_3D ( 'NONE', #189, #188, #187 ) ;
#191 = CIRCLE ( 'NONE', #190, 15.00000000000000000 ) ;
#192 = CARTESIAN_POINT ( 'NONE',  ( -5.009323837895998700E-010, -18.99999999650043500, -2.000000000000000900 ) ) ;
#193 = CARTESIAN_POINT ( 'NONE',  ( -5.009326287108706300E-010, -18.99999999650043500, 2.000000000000000900 ) ) ;
#194 = DIRECTION ( 'NONE',  ( 0.0000000000000000000, 1.000000000000000000, 0.0000000000000000000 ) ) ;
#195 = VECTOR ( 'NONE', #194, 1000.000000000000000 ) ;
#196 = CARTESIAN_POINT ( 'NONE',  ( -5.009317714864229600E-010, 2.412507003500041800, -7.000000000000000900 ) ) ;
#197 = LINE ( 'NONE', #196, #195 ) ;
#198 = DIRECTION ( 'NONE',  ( 0.0000000000000000000, -0.9877629653290690400, -0.1559625734730108200 ) ) ;
#199 = VECTOR ( 'NONE', #198, 1000.000000000000000 ) ;
#200 = CARTESIAN_POINT ( 'NONE',  ( -5.009326287108706300E-010, -18.99999999650043500, -15.00000000000000000 ) ) ;
#201 = DIRECTION ( 'NONE',  ( 0.0000000000000000000, 0.0000000000000000000, 1.000000000000000000 ) ) ;
#202 = DIRECTION ( 'NONE',  ( 0.0000000000000000000, 1.000000000000000000, 0.0000000000000000000 ) ) ;
#203 = CARTESIAN_POINT ( 'NONE',  ( -5.009326287108706300E-010, 2.412507003500041800, 0.0000000000000000000 ) ) ;
#204 = AXIS2_PLACEMENT_3D ( 'NONE', #203, #202, #201 ) ;
#205 = LINE ( 'NONE', #200, #199 ) ;
#206 = CYLINDRICAL_SURFACE ( 'NONE', #204, 2.000000000000000400 ) ;
#207 = FACE_OUTER_BOUND ( 'NONE', #126, .T. ) ;
#208 = DIRECTION ( 'NONE',  ( 0.0000000000000000000, 0.0000000000000000000, 1.000000000000000000 ) ) ;
#209 = DIRECTION ( 'NONE',  ( 0.0000000000000000000, 1.000000000000000000, 0.0000000000000000000 ) ) ;
#210 = CARTESIAN_POINT ( 'NONE',  ( -5.009326287108706300E-010, -18.99999999650043500, 0.0000000000000000000 ) ) ;
#211 = AXIS2_PLACEMENT_3D ( 'NONE', #210, #209, #208 ) ;
#212 = CIRCLE ( 'NONE', #211, 2.000000000000000900 ) ;
#213 = CARTESIAN_POINT ( 'NONE',  ( -5.009317714864229600E-010, 3.499566521986130500E-009, -7.000000000000000000 ) ) ;
#214 = CARTESIAN_POINT ( 'NONE',  ( -5.009323837895998700E-010, -9.999999996500433100, -2.000000000000000000 ) ) ;
#215 = DIRECTION ( 'NONE',  ( 0.0000000000000000000, 1.000000000000000000, 0.0000000000000000000 ) ) ;
#216 = VECTOR ( 'NONE', #215, 1000.000000000000000 ) ;
#217 = CARTESIAN_POINT ( 'NONE',  ( -5.009323837895998700E-010, 2.412507003500041800, -2.000000000000000400 ) ) ;
#218 = LINE ( 'NONE', #217, #216 ) ;
#219 = CARTESIAN_POINT ( 'NONE',  ( -5.009312033440715100E-010, 3.499566521986130500E-009, -11.14550610201729200 ) ) ;
#220 = DIRECTION ( 'NONE',  ( 1.224606353612351900E-016, 0.0000000000000000000, -1.000000000000000000 ) ) ;
#221 = DIRECTION ( 'NONE',  ( 1.000000000000000000, 0.0000000000000000000, 1.224606353822377300E-016 ) ) ;
#222 = CARTESIAN_POINT ( 'NONE',  ( -5.009312638251117400E-010, -0.9999999965004337000, -11.14550610201729900 ) ) ;
#223 = AXIS2_PLACEMENT_3D ( 'NONE', #222, #221, #220 ) ;
#224 = CIRCLE ( 'NONE', #223, 0.9999999999999991100 ) ;
#225 = CARTESIAN_POINT ( 'NONE',  ( -5.009326287108706300E-010, -9.999999996500433100, 2.000000000000000000 ) ) ;
#226 = DIRECTION ( 'NONE',  ( 0.0000000000000000000, 0.0000000000000000000, 1.000000000000000000 ) ) ;
#227 = DIRECTION ( 'NONE',  ( 0.0000000000000000000, 1.000000000000000000, 0.0000000000000000000 ) ) ;
#228 = CARTESIAN_POINT ( 'NONE',  ( -5.009326287108706300E-010, -9.999999996500433100, 0.0000000000000000000 ) ) ;
#229 = AXIS2_PLACEMENT_3D ( 'NONE', #228, #227, #226 ) ;
#230 = CIRCLE ( 'NONE', #229, 2.000000000000000000 ) ;
#231 = DIRECTION ( 'NONE',  ( 0.0000000000000000000, 1.000000000000000000, 0.0000000000000000000 ) ) ;
#232 = VECTOR ( 'NONE', #231, 1000.000000000000000 ) ;
#233 = CARTESIAN_POINT ( 'NONE',  ( -5.009326287108706300E-010, 2.412507003500041800, 2.000000000000000400 ) ) ;
#234 = LINE ( 'NONE', #233, #232 ) ;
#235 = CARTESIAN_POINT ( 'NONE',  ( -5.009326287108706300E-010, -9.999999996500433100, 7.000000000000000900 ) ) ;
#236 = DIRECTION ( 'NONE',  ( 0.0000000000000000000, 0.0000000000000000000, 1.000000000000000000 ) ) ;
#237 = DIRECTION ( 'NONE',  ( 0.0000000000000000000, 1.000000000000000000, 0.0000000000000000000 ) ) ;
#238 = CARTESIAN_POINT ( 'NONE',  ( -5.009326287108706300E-010, -9.999999996500433100, 0.0000000000000000000 ) ) ;
#239 = AXIS2_PLACEMENT_3D ( 'NONE', #238, #237, #236 ) ;
#240 = CIRCLE ( 'NONE', #239, 7.000000000000000900 ) ;
#241 = CARTESIAN_POINT ( 'NONE',  ( -5.009317714864229600E-010, -9.999999996500433100, -7.000000000000000900 ) ) ;
#242 = DIRECTION ( 'NONE',  ( 0.0000000000000000000, 0.0000000000000000000, 1.000000000000000000 ) ) ;
#243 = DIRECTION ( 'NONE',  ( 0.0000000000000000000, 1.000000000000000000, 0.0000000000000000000 ) ) ;
#244 = CARTESIAN_POINT ( 'NONE',  ( -5.009326287108706300E-010, 2.412507003500041800, 0.0000000000000000000 ) ) ;
#245 = AXIS2_PLACEMENT_3D ( 'NONE', #244, #243, #242 ) ;
#246 = CYLINDRICAL_SURFACE ( 'NONE', #245, 7.000000000000000900 ) ;
#247 = FACE_OUTER_BOUND ( 'NONE', #110, .T. ) ;
#248 = CARTESIAN_POINT ( 'NONE',  ( -5.009326287108706300E-010, 3.499566521986130500E-009, 7.000000000000000000 ) ) ;
#249 = DIRECTION ( 'NONE',  ( 0.0000000000000000000, 0.0000000000000000000, 1.000000000000000000 ) ) ;
#250 = DIRECTION ( 'NONE',  ( 0.0000000000000000000, 1.000000000000000000, 0.0000000000000000000 ) ) ;
#251 = CARTESIAN_POINT ( 'NONE',  ( -5.009326287108706300E-010, -0.9999999965004337000, 0.0000000000000000000 ) ) ;
#252 = AXIS2_PLACEMENT_3D ( 'NONE', #251, #250, #249 ) ;
#253 = TOROIDAL_SURFACE ( 'NONE', #252, 11.14550610201729900, 1.000000000000000000 ) ;
#254 = FACE_OUTER_BOUND ( 'NONE', #97, .T. ) ;
#255 = DIRECTION ( 'NONE',  ( 0.0000000000000000000, 1.000000000000000000, 0.0000000000000000000 ) ) ;
#256 = VECTOR ( 'NONE', #255, 1000.000000000000000 ) ;
#257 = CARTESIAN_POINT ( 'NONE',  ( -5.009326287108706300E-010, 2.412507003500041800, 7.000000000000000900 ) ) ;
#258 = LINE ( 'NONE', #257, #256 ) ;
#259 = DIRECTION ( 'NONE',  ( 0.0000000000000000000, 0.0000000000000000000, 1.000000000000000000 ) ) ;
#260 = DIRECTION ( 'NONE',  ( 0.0000000000000000000, 1.000000000000000000, 0.0000000000000000000 ) ) ;
#261 = AXIS2_PLACEMENT_3D ( 'NONE', #315, #260, #259 ) ;
#262 = CIRCLE ( 'NONE', #261, 7.000000000000000000 ) ;
#263 = CC_DESIGN_PERSON_AND_ORGANIZATION_ASSIGNMENT ( #265, #264, ( #266 ) ) ;
#264 = PERSON_AND_ORGANIZATION_ROLE ( 'classification_officer' ) ;
#265 = PERSON_AND_ORGANIZATION ( #153, #152 ) ;
#266 = SECURITY_CLASSIFICATION ( '', '', #267 ) ;
#267 = SECURITY_CLASSIFICATION_LEVEL ( 'unclassified' ) ;
#268 = CC_DESIGN_PERSON_AND_ORGANIZATION_ASSIGNMENT ( #270, #269, ( #285 ) ) ;
#269 = PERSON_AND_ORGANIZATION_ROLE ( 'design_supplier' ) ;
#270 = PERSON_AND_ORGANIZATION ( #153, #152 ) ;
#271 = CC_DESIGN_PERSON_AND_ORGANIZATION_ASSIGNMENT ( #273, #272, ( #285 ) ) ;
#272 = PERSON_AND_ORGANIZATION_ROLE ( 'creator' ) ;
#273 = PERSON_AND_ORGANIZATION ( #153, #152 ) ;
#274 = CC_DESIGN_APPROVAL ( #282, ( #285 ) ) ;
#275 = APPROVAL_DATE_TIME ( #276, #282 ) ;
#276 = DATE_AND_TIME ( #277, #278 ) ;
#277 = CALENDAR_DATE ( 2009, 26, 6 ) ;
#278 = LOCAL_TIME ( 15, 25, 7.000000000000000000, #279 ) ;
#279 = COORDINATED_UNIVERSAL_TIME_OFFSET ( 9, 0, .AHEAD. ) ;
#280 = APPROVAL_PERSON_ORGANIZATION ( #284, #282, #281 ) ;
#281 = APPROVAL_ROLE ( '' ) ;
#282 = APPROVAL ( #283, 'UNSPECIFIED' ) ;
#283 = APPROVAL_STATUS ( 'not_yet_approved' ) ;
#284 = PERSON_AND_ORGANIZATION ( #153, #152 ) ;
#285 = PRODUCT_DEFINITION_FORMATION_WITH_SPECIFIED_SOURCE ( 'ANY', '', #154, .NOT_KNOWN. ) ;
#286 = CC_DESIGN_DATE_AND_TIME_ASSIGNMENT ( #288, #287, ( #306 ) ) ;
#287 = DATE_TIME_ROLE ( 'creation_date' ) ;
#288 = DATE_AND_TIME ( #289, #290 ) ;
#289 = CALENDAR_DATE ( 2009, 26, 6 ) ;
#290 = LOCAL_TIME ( 15, 25, 7.000000000000000000, #291 ) ;
#291 = COORDINATED_UNIVERSAL_TIME_OFFSET ( 9, 0, .AHEAD. ) ;
#292 = CC_DESIGN_PERSON_AND_ORGANIZATION_ASSIGNMENT ( #294, #293, ( #306 ) ) ;
#293 = PERSON_AND_ORGANIZATION_ROLE ( 'creator' ) ;
#294 = PERSON_AND_ORGANIZATION ( #153, #152 ) ;
#295 = CC_DESIGN_APPROVAL ( #303, ( #306 ) ) ;
#296 = APPROVAL_DATE_TIME ( #297, #303 ) ;
#297 = DATE_AND_TIME ( #298, #299 ) ;
#298 = CALENDAR_DATE ( 2009, 26, 6 ) ;
#299 = LOCAL_TIME ( 15, 25, 7.000000000000000000, #300 ) ;
#300 = COORDINATED_UNIVERSAL_TIME_OFFSET ( 9, 0, .AHEAD. ) ;
#301 = APPROVAL_PERSON_ORGANIZATION ( #305, #303, #302 ) ;
#302 = APPROVAL_ROLE ( '' ) ;
#303 = APPROVAL ( #304, 'UNSPECIFIED' ) ;
#304 = APPROVAL_STATUS ( 'not_yet_approved' ) ;
#305 = PERSON_AND_ORGANIZATION ( #153, #152 ) ;
#306 = PRODUCT_DEFINITION ( 'UNKNOWN', '', #285, #307 ) ;
#307 = DESIGN_CONTEXT ( 'detailed design', #309, 'design' ) ;
#308 = APPLICATION_PROTOCOL_DEFINITION ( 'international standard', 'config_control_design', 1994, #309 ) ;
#309 = APPLICATION_CONTEXT ( 'configuration controlled 3d designs of mechanical parts and assemblies' ) ;
#310 = DIRECTION ( 'NONE',  ( 0.0000000000000000000, 0.0000000000000000000, -1.000000000000000000 ) ) ;
#311 = DIRECTION ( 'NONE',  ( 0.0000000000000000000, -1.000000000000000000, 0.0000000000000000000 ) ) ;
#312 = CARTESIAN_POINT ( 'NONE',  ( 11.14550610151635900, 3.499566432094796200E-009, 0.0000000000000000000 ) ) ;
#313 = AXIS2_PLACEMENT_3D ( 'NONE', #312, #311, #310 ) ;
#314 = PLANE ( 'NONE',  #313 ) ;
#315 = CARTESIAN_POINT ( 'NONE',  ( -5.009326287108706300E-010, 3.499566521986130500E-009, 0.0000000000000000000 ) ) ;
#316 = FACE_OUTER_BOUND ( 'NONE', #68, .T. ) ;
#317 = FACE_BOUND ( 'NONE', #92, .T. ) ;
#318 = DIRECTION ( 'NONE',  ( 0.0000000000000000000, 0.0000000000000000000, 1.000000000000000000 ) ) ;
#319 = DIRECTION ( 'NONE',  ( 0.0000000000000000000, 1.000000000000000000, 0.0000000000000000000 ) ) ;
#320 = CARTESIAN_POINT ( 'NONE',  ( -5.009326287108706300E-010, 3.499566521986130500E-009, 0.0000000000000000000 ) ) ;
#321 = AXIS2_PLACEMENT_3D ( 'NONE', #320, #319, #318 ) ;
#322 = CIRCLE ( 'NONE', #321, 11.14550610201729200 ) ;
#323 = DIRECTION ( 'NONE',  ( 0.0000000000000000000, 0.0000000000000000000, 1.000000000000000000 ) ) ;
#324 = DIRECTION ( 'NONE',  ( 0.0000000000000000000, 1.000000000000000000, 0.0000000000000000000 ) ) ;
#325 = CARTESIAN_POINT ( 'NONE',  ( -5.009326287108706300E-010, -0.8440374230274287900, 0.0000000000000000000 ) ) ;
#326 = AXIS2_PLACEMENT_3D ( 'NONE', #325, #324, #323 ) ;
#327 = CIRCLE ( 'NONE', #326, 12.13326906734636900 ) ;
#328 = DIRECTION ( 'NONE',  ( 0.0000000000000000000, 0.0000000000000000000, 1.000000000000000000 ) ) ;
#329 = DIRECTION ( 'NONE',  ( 0.0000000000000000000, 1.000000000000000000, 0.0000000000000000000 ) ) ;
#330 = CARTESIAN_POINT ( 'NONE',  ( -5.009326287108706300E-010, 3.499566521986130500E-009, 0.0000000000000000000 ) ) ;
#331 = AXIS2_PLACEMENT_3D ( 'NONE', #330, #329, #328 ) ;
#332 = CIRCLE ( 'NONE', #331, 7.000000000000000000 ) ;
#333 = DIRECTION ( 'NONE',  ( 0.0000000000000000000, 0.0000000000000000000, 1.000000000000000000 ) ) ;
#334 = DIRECTION ( 'NONE',  ( 0.0000000000000000000, 1.000000000000000000, 0.0000000000000000000 ) ) ;
#335 = CARTESIAN_POINT ( 'NONE',  ( -5.009326287108706300E-010, -0.9999999965004337000, 0.0000000000000000000 ) ) ;
#336 = AXIS2_PLACEMENT_3D ( 'NONE', #335, #334, #333 ) ;
#337 = TOROIDAL_SURFACE ( 'NONE', #336, 11.14550610201729900, 1.000000000000000000 ) ;
#338 = FACE_OUTER_BOUND ( 'NONE', #65, .T. ) ;
#339 = DIRECTION ( 'NONE',  ( 0.0000000000000000000, 0.0000000000000000000, 1.000000000000000000 ) ) ;
#340 = DIRECTION ( 'NONE',  ( 0.0000000000000000000, 1.000000000000000000, 0.0000000000000000000 ) ) ;
#341 = AXIS2_PLACEMENT_3D ( 'NONE', #348, #340, #339 ) ;
#342 = CIRCLE ( 'NONE', #341, 2.000000000000000000 ) ;
#343 = DIRECTION ( 'NONE',  ( 0.0000000000000000000, 0.0000000000000000000, -1.000000000000000000 ) ) ;
#344 = DIRECTION ( 'NONE',  ( 0.0000000000000000000, -1.000000000000000000, 0.0000000000000000000 ) ) ;
#345 = CARTESIAN_POINT ( 'NONE',  ( 6.999999999499068300, -9.999999996500433100, 0.0000000000000000000 ) ) ;
#346 = AXIS2_PLACEMENT_3D ( 'NONE', #345, #344, #343 ) ;
#347 = PLANE ( 'NONE',  #346 ) ;
#348 = CARTESIAN_POINT ( 'NONE',  ( -5.009326287108706300E-010, -9.999999996500433100, 0.0000000000000000000 ) ) ;
#349 = FACE_OUTER_BOUND ( 'NONE', #67, .T. ) ;
#350 = FACE_BOUND ( 'NONE', #79, .T. ) ;
#351 = DIRECTION ( 'NONE',  ( 0.0000000000000000000, 0.0000000000000000000, 1.000000000000000000 ) ) ;
#352 = DIRECTION ( 'NONE',  ( 0.0000000000000000000, 1.000000000000000000, 0.0000000000000000000 ) ) ;
#353 = AXIS2_PLACEMENT_3D ( 'NONE', #359, #352, #351 ) ;
#354 = CIRCLE ( 'NONE', #353, 7.000000000000000900 ) ;
#355 = DIRECTION ( 'NONE',  ( 0.0000000000000000000, 0.0000000000000000000, 1.000000000000000000 ) ) ;
#356 = DIRECTION ( 'NONE',  ( 0.0000000000000000000, 1.000000000000000000, 0.0000000000000000000 ) ) ;
#357 = AXIS2_PLACEMENT_3D ( 'NONE', #360, #356, #355 ) ;
#358 = CYLINDRICAL_SURFACE ( 'NONE', #357, 7.000000000000000900 ) ;
#359 = CARTESIAN_POINT ( 'NONE',  ( -5.009326287108706300E-010, -9.999999996500433100, 0.0000000000000000000 ) ) ;
#360 = CARTESIAN_POINT ( 'NONE',  ( -5.009326287108706300E-010, 2.412507003500041800, 0.0000000000000000000 ) ) ;
#361 = DIRECTION ( 'NONE',  ( 0.0000000000000000000, 0.0000000000000000000, 1.000000000000000000 ) ) ;
#362 = DIRECTION ( 'NONE',  ( -1.000000000000000000, 0.0000000000000000000, 0.0000000000000000000 ) ) ;
#363 = CARTESIAN_POINT ( 'NONE',  ( -5.009326287108706300E-010, -0.9999999965004337000, 11.14550610201729900 ) ) ;
#364 = AXIS2_PLACEMENT_3D ( 'NONE', #363, #362, #361 ) ;
#365 = CIRCLE ( 'NONE', #364, 0.9999999999999991100 ) ;
#366 = FACE_OUTER_BOUND ( 'NONE', #72, .T. ) ;
#367 = CARTESIAN_POINT ( 'NONE',  ( -5.009326287108706300E-010, 3.499566521986130500E-009, 11.14550610201729200 ) ) ;
#368 = DIRECTION ( 'NONE',  ( 0.0000000000000000000, 0.0000000000000000000, 1.000000000000000000 ) ) ;
#369 = DIRECTION ( 'NONE',  ( 0.0000000000000000000, 1.000000000000000000, 0.0000000000000000000 ) ) ;
#370 = AXIS2_PLACEMENT_3D ( 'NONE', #377, #369, #368 ) ;
#371 = CIRCLE ( 'NONE', #370, 11.14550610201729200 ) ;
#372 = DIRECTION ( 'NONE',  ( 0.0000000000000000000, 0.0000000000000000000, -1.000000000000000000 ) ) ;
#373 = DIRECTION ( 'NONE',  ( 0.0000000000000000000, -1.000000000000000000, 0.0000000000000000000 ) ) ;
#374 = CARTESIAN_POINT ( 'NONE',  ( -5.009326287108706300E-010, -18.99999999650043500, 0.0000000000000000000 ) ) ;
#375 = AXIS2_PLACEMENT_3D ( 'NONE', #374, #373, #372 ) ;
#376 = CONICAL_SURFACE ( 'NONE', #375, 15.00000000000000000, 0.1566018769820152800 ) ;
#377 = CARTESIAN_POINT ( 'NONE',  ( -5.009326287108706300E-010, 3.499566521986130500E-009, 0.0000000000000000000 ) ) ;
#378 = PRODUCT_DEFINITION_SHAPE ( 'NONE', 'NONE',  #306 ) ;
#379 = SHAPE_DEFINITION_REPRESENTATION ( #378, #162 ) ;
#380 = PRODUCT_RELATED_PRODUCT_CATEGORY ( 'detail', '', ( #154 ) ) ;
#381 = CC_DESIGN_SECURITY_CLASSIFICATION ( #266, ( #285 ) ) ;
ENDSEC;
END-ISO-10303-21;
