ISO-10303-21;
HEADER;
FILE_DESCRIPTION (( 'STEP AP203' ),
    '1' );
FILE_NAME ('C-30-RK-29-ÃÞÌ«ÙÄ.STEP',
    '2009-06-29T02:00:42',
    ( '11sw' ),
    ( '^LQ»¢®ïÐ' ),
    'SwSTEP 2.0',
    'SolidWorks 2007',
    '' );
FILE_SCHEMA (( 'CONFIG_CONTROL_DESIGN' ));
ENDSEC;

DATA;
#1 = VERTEX_POINT ( 'NONE', #43 ) ;
#2 = VERTEX_POINT ( 'NONE', #42 ) ;
#3 = EDGE_CURVE ( 'NONE', #2, #1, #41, .T. ) ;
#4 = ORIENTED_EDGE ( 'NONE', *, *, #3, .F. ) ;
#5 = ADVANCED_FACE ( 'NONE', ( #36 ), #35, .F. ) ;
#6 = ORIENTED_EDGE ( 'NONE', *, *, #7, .T. ) ;
#7 = EDGE_CURVE ( 'NONE', #2, #8, #30, .T. ) ;
#8 = VERTEX_POINT ( 'NONE', #26 ) ;
#9 = ORIENTED_EDGE ( 'NONE', *, *, #10, .T. ) ;
#10 = EDGE_CURVE ( 'NONE', #8, #11, #288, .T. ) ;
#11 = VERTEX_POINT ( 'NONE', #283 ) ;
#12 = EDGE_LOOP ( 'NONE', ( #4, #6, #9, #86 ) ) ;
#13 = ORIENTED_EDGE ( 'NONE', *, *, #14, .F. ) ;
#14 = EDGE_CURVE ( 'NONE', #21, #15, #282, .T. ) ;
#15 = VERTEX_POINT ( 'NONE', #278 ) ;
#16 = EDGE_CURVE ( 'NONE', #22, #17, #277, .T. ) ;
#17 = VERTEX_POINT ( 'NONE', #273 ) ;
#18 = ORIENTED_EDGE ( 'NONE', *, *, #19, .T. ) ;
#19 = EDGE_CURVE ( 'NONE', #17, #15, #272, .T. ) ;
#20 = EDGE_CURVE ( 'NONE', #22, #21, #267, .T. ) ;
#21 = VERTEX_POINT ( 'NONE', #262 ) ;
#22 = VERTEX_POINT ( 'NONE', #261 ) ;
#23 = ORIENTED_EDGE ( 'NONE', *, *, #16, .T. ) ;
#24 = EDGE_CURVE ( 'NONE', #220, #243, #259, .T. ) ;
#25 = ORIENTED_EDGE ( 'NONE', *, *, #228, .T. ) ;
#26 = CARTESIAN_POINT ( 'NONE',  ( -5.009323837895998700E-010, -9.999999996500433100, -2.000000000000000000 ) ) ;
#27 = DIRECTION ( 'NONE',  ( 0.0000000000000000000, 1.000000000000000000, 0.0000000000000000000 ) ) ;
#28 = VECTOR ( 'NONE', #27, 1000.000000000000000 ) ;
#29 = CARTESIAN_POINT ( 'NONE',  ( -5.009323837895998700E-010, 2.412507003500041800, -2.000000000000000000 ) ) ;
#30 = LINE ( 'NONE', #29, #28 ) ;
#31 = DIRECTION ( 'NONE',  ( 0.0000000000000000000, 0.0000000000000000000, 1.000000000000000000 ) ) ;
#32 = DIRECTION ( 'NONE',  ( 0.0000000000000000000, 1.000000000000000000, 0.0000000000000000000 ) ) ;
#33 = CARTESIAN_POINT ( 'NONE',  ( -5.009326287108706300E-010, 2.412507003500041800, 0.0000000000000000000 ) ) ;
#34 = AXIS2_PLACEMENT_3D ( 'NONE', #33, #32, #31 ) ;
#35 = CYLINDRICAL_SURFACE ( 'NONE', #34, 2.000000000000000000 ) ;
#36 = FACE_OUTER_BOUND ( 'NONE', #12, .T. ) ;
#37 = DIRECTION ( 'NONE',  ( 0.0000000000000000000, 0.0000000000000000000, 1.000000000000000000 ) ) ;
#38 = DIRECTION ( 'NONE',  ( 0.0000000000000000000, 1.000000000000000000, 0.0000000000000000000 ) ) ;
#39 = CARTESIAN_POINT ( 'NONE',  ( -5.009326287108706300E-010, -14.99999999650043100, 0.0000000000000000000 ) ) ;
#40 = AXIS2_PLACEMENT_3D ( 'NONE', #39, #38, #37 ) ;
#41 = CIRCLE ( 'NONE', #40, 2.000000000000000400 ) ;
#42 = CARTESIAN_POINT ( 'NONE',  ( -5.009323837895998700E-010, -14.99999999650043100, -2.000000000000000400 ) ) ;
#43 = CARTESIAN_POINT ( 'NONE',  ( -5.009326287108706300E-010, -14.99999999650043100, 2.000000000000000400 ) ) ;
#44 = MANIFOLD_SOLID_BREP ( 'NONE', #54 ) ;
#45 = ADVANCED_FACE ( 'NONE', ( #260 ), #119, .T. ) ;
#46 = EDGE_LOOP ( 'NONE', ( #47, #23, #18, #13 ) ) ;
#47 = ORIENTED_EDGE ( 'NONE', *, *, #20, .F. ) ;
#48 = EDGE_LOOP ( 'NONE', ( #51, #49 ) ) ;
#49 = ORIENTED_EDGE ( 'NONE', *, *, #3, .T. ) ;
#50 = EDGE_LOOP ( 'NONE', ( #56, #57, #52, #53 ) ) ;
#51 = ORIENTED_EDGE ( 'NONE', *, *, #71, .T. ) ;
#52 = ORIENTED_EDGE ( 'NONE', *, *, #14, .T. ) ;
#53 = ORIENTED_EDGE ( 'NONE', *, *, #61, .T. ) ;
#54 = CLOSED_SHELL ( 'NONE', ( #45, #5, #216, #221, #240, #249, #80, #72, #67, #64, #55 ) ) ;
#55 = ADVANCED_FACE ( 'NONE', ( #118 ), #113, .T. ) ;
#56 = ORIENTED_EDGE ( 'NONE', *, *, #16, .F. ) ;
#57 = ORIENTED_EDGE ( 'NONE', *, *, #245, .F. ) ;
#58 = ORIENTED_EDGE ( 'NONE', *, *, #19, .F. ) ;
#59 = EDGE_LOOP ( 'NONE', ( #60, #58 ) ) ;
#60 = ORIENTED_EDGE ( 'NONE', *, *, #61, .F. ) ;
#61 = EDGE_CURVE ( 'NONE', #15, #17, #107, .T. ) ;
#62 = ORIENTED_EDGE ( 'NONE', *, *, #85, .T. ) ;
#63 = ORIENTED_EDGE ( 'NONE', *, *, #75, .T. ) ;
#64 = ADVANCED_FACE ( 'NONE', ( #103, #102 ), #101, .F. ) ;
#65 = ORIENTED_EDGE ( 'NONE', *, *, #24, .T. ) ;
#66 = ORIENTED_EDGE ( 'NONE', *, *, #219, .T. ) ;
#67 = ADVANCED_FACE ( 'NONE', ( #96 ), #95, .F. ) ;
#68 = EDGE_LOOP ( 'NONE', ( #69, #70, #62, #63 ) ) ;
#69 = ORIENTED_EDGE ( 'NONE', *, *, #7, .F. ) ;
#70 = ORIENTED_EDGE ( 'NONE', *, *, #71, .F. ) ;
#71 = EDGE_CURVE ( 'NONE', #1, #2, #89, .T. ) ;
#72 = ADVANCED_FACE ( 'NONE', ( #149, #148 ), #147, .F. ) ;
#73 = ORIENTED_EDGE ( 'NONE', *, *, #239, .T. ) ;
#74 = ORIENTED_EDGE ( 'NONE', *, *, #75, .F. ) ;
#75 = EDGE_CURVE ( 'NONE', #11, #8, #142, .T. ) ;
#76 = ORIENTED_EDGE ( 'NONE', *, *, #10, .F. ) ;
#77 = EDGE_LOOP ( 'NONE', ( #65, #66 ) ) ;
#78 = EDGE_LOOP ( 'NONE', ( #74, #76 ) ) ;
#79 = ORIENTED_EDGE ( 'NONE', *, *, #252, .T. ) ;
#80 = ADVANCED_FACE ( 'NONE', ( #137 ), #136, .F. ) ;
#81 = EDGE_LOOP ( 'NONE', ( #83, #84, #73, #79 ) ) ;
#82 = ORIENTED_EDGE ( 'NONE', *, *, #248, .T. ) ;
#83 = ORIENTED_EDGE ( 'NONE', *, *, #233, .F. ) ;
#84 = ORIENTED_EDGE ( 'NONE', *, *, #24, .F. ) ;
#85 = EDGE_CURVE ( 'NONE', #1, #11, #135, .T. ) ;
#86 = ORIENTED_EDGE ( 'NONE', *, *, #85, .F. ) ;
#87 = DIRECTION ( 'NONE',  ( 0.0000000000000000000, 1.000000000000000000, 0.0000000000000000000 ) ) ;
#88 = AXIS2_PLACEMENT_3D ( 'NONE', #94, #87, #150 ) ;
#89 = CIRCLE ( 'NONE', #88, 2.000000000000000400 ) ;
#90 = DIRECTION ( 'NONE',  ( 0.0000000000000000000, 0.0000000000000000000, 1.000000000000000000 ) ) ;
#91 = DIRECTION ( 'NONE',  ( 0.0000000000000000000, 1.000000000000000000, 0.0000000000000000000 ) ) ;
#92 = CARTESIAN_POINT ( 'NONE',  ( -5.009326287108706300E-010, 2.412507003500041800, 0.0000000000000000000 ) ) ;
#93 = AXIS2_PLACEMENT_3D ( 'NONE', #92, #91, #90 ) ;
#94 = CARTESIAN_POINT ( 'NONE',  ( -5.009326287108706300E-010, -14.99999999650043100, 0.0000000000000000000 ) ) ;
#95 = CYLINDRICAL_SURFACE ( 'NONE', #93, 2.000000000000000000 ) ;
#96 = FACE_OUTER_BOUND ( 'NONE', #68, .T. ) ;
#97 = DIRECTION ( 'NONE',  ( 0.0000000000000000000, 0.0000000000000000000, 1.000000000000000000 ) ) ;
#98 = DIRECTION ( 'NONE',  ( 0.0000000000000000000, 1.000000000000000000, 0.0000000000000000000 ) ) ;
#99 = CARTESIAN_POINT ( 'NONE',  ( 1.999999999499067800, -14.99999999650043100, 0.0000000000000000000 ) ) ;
#100 = AXIS2_PLACEMENT_3D ( 'NONE', #99, #98, #97 ) ;
#101 = PLANE ( 'NONE',  #100 ) ;
#102 = FACE_BOUND ( 'NONE', #48, .T. ) ;
#103 = FACE_OUTER_BOUND ( 'NONE', #59, .T. ) ;
#104 = DIRECTION ( 'NONE',  ( 0.0000000000000000000, 0.0000000000000000000, 1.000000000000000000 ) ) ;
#105 = DIRECTION ( 'NONE',  ( 0.0000000000000000000, 1.000000000000000000, 0.0000000000000000000 ) ) ;
#106 = AXIS2_PLACEMENT_3D ( 'NONE', #112, #105, #104 ) ;
#107 = CIRCLE ( 'NONE', #106, 14.50000000000000000 ) ;
#108 = DIRECTION ( 'NONE',  ( 0.0000000000000000000, 0.0000000000000000000, -1.000000000000000000 ) ) ;
#109 = DIRECTION ( 'NONE',  ( 0.0000000000000000000, -1.000000000000000000, 0.0000000000000000000 ) ) ;
#110 = CARTESIAN_POINT ( 'NONE',  ( -5.009326287108706300E-010, -14.99999999650043100, 0.0000000000000000000 ) ) ;
#111 = AXIS2_PLACEMENT_3D ( 'NONE', #110, #109, #108 ) ;
#112 = CARTESIAN_POINT ( 'NONE',  ( -5.009326287108706300E-010, -14.99999999650043100, 0.0000000000000000000 ) ) ;
#113 = CONICAL_SURFACE ( 'NONE', #111, 14.50000000000000000, 0.1651486774146268300 ) ;
#114 = DIRECTION ( 'NONE',  ( 0.0000000000000000000, 0.0000000000000000000, -1.000000000000000000 ) ) ;
#115 = DIRECTION ( 'NONE',  ( 0.0000000000000000000, -1.000000000000000000, 0.0000000000000000000 ) ) ;
#116 = CARTESIAN_POINT ( 'NONE',  ( -5.009326287108706300E-010, -14.99999999650043100, 0.0000000000000000000 ) ) ;
#117 = AXIS2_PLACEMENT_3D ( 'NONE', #116, #115, #114 ) ;
#118 = FACE_OUTER_BOUND ( 'NONE', #50, .T. ) ;
#119 = CONICAL_SURFACE ( 'NONE', #117, 14.50000000000000000, 0.1651486774146268300 ) ;
#120 = CIRCLE ( 'NONE', #183, 7.000000000000000900 ) ;
#121 = DIRECTION ( 'NONE',  ( 0.0000000000000000000, 0.0000000000000000000, 1.000000000000000000 ) ) ;
#122 = DIRECTION ( 'NONE',  ( 0.0000000000000000000, 1.000000000000000000, 0.0000000000000000000 ) ) ;
#123 = CARTESIAN_POINT ( 'NONE',  ( -5.009326287108706300E-010, 2.412507003500041800, 0.0000000000000000000 ) ) ;
#124 = AXIS2_PLACEMENT_3D ( 'NONE', #123, #122, #121 ) ;
#125 = CYLINDRICAL_SURFACE ( 'NONE', #124, 7.000000000000000900 ) ;
#126 = CARTESIAN_POINT ( 'NONE',  ( -5.009326287108706300E-010, -9.999999996500433100, 0.0000000000000000000 ) ) ;
#127 = FACE_OUTER_BOUND ( 'NONE', #217, .T. ) ;
#128 = DIRECTION ( 'NONE',  ( 0.0000000000000000000, 1.000000000000000000, 0.0000000000000000000 ) ) ;
#129 = VECTOR ( 'NONE', #128, 1000.000000000000000 ) ;
#130 = CARTESIAN_POINT ( 'NONE',  ( -5.009326287108706300E-010, 2.412507003500041800, 2.000000000000000000 ) ) ;
#131 = DIRECTION ( 'NONE',  ( 0.0000000000000000000, 0.0000000000000000000, 1.000000000000000000 ) ) ;
#132 = DIRECTION ( 'NONE',  ( 0.0000000000000000000, 1.000000000000000000, 0.0000000000000000000 ) ) ;
#133 = CARTESIAN_POINT ( 'NONE',  ( -5.009326287108706300E-010, 2.412507003500041800, 0.0000000000000000000 ) ) ;
#134 = AXIS2_PLACEMENT_3D ( 'NONE', #133, #132, #131 ) ;
#135 = LINE ( 'NONE', #130, #129 ) ;
#136 = CYLINDRICAL_SURFACE ( 'NONE', #134, 7.000000000000000900 ) ;
#137 = FACE_OUTER_BOUND ( 'NONE', #81, .T. ) ;
#138 = DIRECTION ( 'NONE',  ( 0.0000000000000000000, 0.0000000000000000000, 1.000000000000000000 ) ) ;
#139 = DIRECTION ( 'NONE',  ( 0.0000000000000000000, 1.000000000000000000, 0.0000000000000000000 ) ) ;
#140 = CARTESIAN_POINT ( 'NONE',  ( -5.009326287108706300E-010, -9.999999996500433100, 0.0000000000000000000 ) ) ;
#141 = AXIS2_PLACEMENT_3D ( 'NONE', #140, #139, #138 ) ;
#142 = CIRCLE ( 'NONE', #141, 2.000000000000000000 ) ;
#143 = DIRECTION ( 'NONE',  ( 0.0000000000000000000, 0.0000000000000000000, -1.000000000000000000 ) ) ;
#144 = DIRECTION ( 'NONE',  ( 0.0000000000000000000, -1.000000000000000000, 0.0000000000000000000 ) ) ;
#145 = CARTESIAN_POINT ( 'NONE',  ( 6.999999999499068300, -9.999999996500433100, 0.0000000000000000000 ) ) ;
#146 = AXIS2_PLACEMENT_3D ( 'NONE', #145, #144, #143 ) ;
#147 = PLANE ( 'NONE',  #146 ) ;
#148 = FACE_OUTER_BOUND ( 'NONE', #77, .T. ) ;
#149 = FACE_BOUND ( 'NONE', #78, .T. ) ;
#150 = DIRECTION ( 'NONE',  ( 0.0000000000000000000, 0.0000000000000000000, 1.000000000000000000 ) ) ;
#151 = CARTESIAN_POINT ( 'NONE',  ( -5.009326287108706300E-010, 3.499566521986130500E-009, 0.0000000000000000000 ) ) ;
#152 = CARTESIAN_POINT ( 'NONE',  ( -5.009317714864229600E-010, 3.499566521986130500E-009, -7.000000000000000000 ) ) ;
#153 = DIRECTION ( 'NONE',  ( 0.0000000000000000000, 1.000000000000000000, 0.0000000000000000000 ) ) ;
#154 = VECTOR ( 'NONE', #153, 1000.000000000000000 ) ;
#155 = CARTESIAN_POINT ( 'NONE',  ( -5.009317714864229600E-010, 2.412507003500041800, -7.000000000000000900 ) ) ;
#156 = LINE ( 'NONE', #155, #154 ) ;
#157 = DIRECTION ( 'NONE',  ( 0.0000000000000000000, 0.0000000000000000000, 1.000000000000000000 ) ) ;
#158 = DIRECTION ( 'NONE',  ( -1.000000000000000000, 0.0000000000000000000, 0.0000000000000000000 ) ) ;
#159 = CARTESIAN_POINT ( 'NONE',  ( -5.009326287108706300E-010, -1.999999996500434000, 10.30574582323392700 ) ) ;
#160 = AXIS2_PLACEMENT_3D ( 'NONE', #159, #158, #157 ) ;
#161 = CIRCLE ( 'NONE', #160, 2.000000000000000000 ) ;
#162 = CARTESIAN_POINT ( 'NONE',  ( -5.009326287108706300E-010, 3.499566521986130500E-009, 10.30574582323391500 ) ) ;
#163 = DIRECTION ( 'NONE',  ( 0.0000000000000000000, 0.0000000000000000000, 1.000000000000000000 ) ) ;
#164 = DIRECTION ( 'NONE',  ( 0.0000000000000000000, 1.000000000000000000, 0.0000000000000000000 ) ) ;
#165 = CARTESIAN_POINT ( 'NONE',  ( -5.009326287108706300E-010, 3.499566521986130500E-009, 0.0000000000000000000 ) ) ;
#166 = AXIS2_PLACEMENT_3D ( 'NONE', #165, #164, #163 ) ;
#167 = CIRCLE ( 'NONE', #166, 10.30574582323391500 ) ;
#168 = CARTESIAN_POINT ( 'NONE',  ( -5.009312458682624400E-010, 3.499566521986130500E-009, -10.30574582323391500 ) ) ;
#169 = DIRECTION ( 'NONE',  ( 1.224606353612350900E-016, 0.0000000000000000000, -1.000000000000000000 ) ) ;
#170 = DIRECTION ( 'NONE',  ( 1.000000000000000000, 0.0000000000000000000, 1.224606353822377300E-016 ) ) ;
#171 = CARTESIAN_POINT ( 'NONE',  ( -5.009313666626890000E-010, -1.999999996500434000, -10.30574582323392700 ) ) ;
#172 = AXIS2_PLACEMENT_3D ( 'NONE', #171, #170, #169 ) ;
#173 = CIRCLE ( 'NONE', #172, 2.000000000000000000 ) ;
#174 = DIRECTION ( 'NONE',  ( 0.0000000000000000000, 0.0000000000000000000, 1.000000000000000000 ) ) ;
#175 = DIRECTION ( 'NONE',  ( 0.0000000000000000000, 1.000000000000000000, 0.0000000000000000000 ) ) ;
#176 = AXIS2_PLACEMENT_3D ( 'NONE', #178, #175, #174 ) ;
#177 = TOROIDAL_SURFACE ( 'NONE', #176, 10.30574582323392700, 2.000000000000000400 ) ;
#178 = CARTESIAN_POINT ( 'NONE',  ( -5.009326287108706300E-010, -1.999999996500434000, 0.0000000000000000000 ) ) ;
#179 = FACE_OUTER_BOUND ( 'NONE', #222, .T. ) ;
#180 = CARTESIAN_POINT ( 'NONE',  ( -5.009326287108706300E-010, -9.999999996500433100, 7.000000000000000900 ) ) ;
#181 = DIRECTION ( 'NONE',  ( 0.0000000000000000000, 0.0000000000000000000, 1.000000000000000000 ) ) ;
#182 = DIRECTION ( 'NONE',  ( 0.0000000000000000000, 1.000000000000000000, 0.0000000000000000000 ) ) ;
#183 = AXIS2_PLACEMENT_3D ( 'NONE', #126, #182, #181 ) ;
#184 = DIRECTION ( 'NONE',  ( 0.0000000000000000000, -1.000000000000000000, 0.0000000000000000000 ) ) ;
#185 = CARTESIAN_POINT ( 'NONE',  ( 10.30574582273298200, 3.499566521986130500E-009, 0.0000000000000000000 ) ) ;
#186 = AXIS2_PLACEMENT_3D ( 'NONE', #185, #184, #289 ) ;
#187 = PLANE ( 'NONE',  #186 ) ;
#188 = FACE_OUTER_BOUND ( 'NONE', #254, .T. ) ;
#189 = FACE_BOUND ( 'NONE', #250, .T. ) ;
#190 = DIRECTION ( 'NONE',  ( 0.0000000000000000000, 0.0000000000000000000, 1.000000000000000000 ) ) ;
#191 = DIRECTION ( 'NONE',  ( 0.0000000000000000000, 1.000000000000000000, 0.0000000000000000000 ) ) ;
#192 = CARTESIAN_POINT ( 'NONE',  ( -5.009326287108706300E-010, 3.499566521986130500E-009, 0.0000000000000000000 ) ) ;
#193 = AXIS2_PLACEMENT_3D ( 'NONE', #192, #191, #190 ) ;
#194 = CIRCLE ( 'NONE', #193, 10.30574582323391500 ) ;
#195 = DIRECTION ( 'NONE',  ( 0.0000000000000000000, 0.0000000000000000000, 1.000000000000000000 ) ) ;
#196 = DIRECTION ( 'NONE',  ( 0.0000000000000000000, 1.000000000000000000, 0.0000000000000000000 ) ) ;
#197 = CARTESIAN_POINT ( 'NONE',  ( -5.009326287108706300E-010, -1.671202021889730500, 0.0000000000000000000 ) ) ;
#198 = AXIS2_PLACEMENT_3D ( 'NONE', #197, #196, #195 ) ;
#199 = CIRCLE ( 'NONE', #198, 12.27853367089821600 ) ;
#200 = CARTESIAN_POINT ( 'NONE',  ( -5.009317714864229600E-010, -9.999999996500433100, -7.000000000000000900 ) ) ;
#201 = DIRECTION ( 'NONE',  ( 0.0000000000000000000, 0.0000000000000000000, 1.000000000000000000 ) ) ;
#202 = DIRECTION ( 'NONE',  ( 0.0000000000000000000, 1.000000000000000000, 0.0000000000000000000 ) ) ;
#203 = AXIS2_PLACEMENT_3D ( 'NONE', #205, #202, #201 ) ;
#204 = TOROIDAL_SURFACE ( 'NONE', #203, 10.30574582323392700, 2.000000000000000400 ) ;
#205 = CARTESIAN_POINT ( 'NONE',  ( -5.009326287108706300E-010, -1.999999996500434000, 0.0000000000000000000 ) ) ;
#206 = FACE_OUTER_BOUND ( 'NONE', #241, .T. ) ;
#207 = DIRECTION ( 'NONE',  ( 0.0000000000000000000, 1.000000000000000000, 0.0000000000000000000 ) ) ;
#208 = VECTOR ( 'NONE', #207, 1000.000000000000000 ) ;
#209 = CARTESIAN_POINT ( 'NONE',  ( -5.009326287108706300E-010, 2.412507003500041800, 7.000000000000000900 ) ) ;
#210 = LINE ( 'NONE', #209, #208 ) ;
#211 = CARTESIAN_POINT ( 'NONE',  ( -5.009326287108706300E-010, 3.499566521986130500E-009, 7.000000000000000000 ) ) ;
#212 = DIRECTION ( 'NONE',  ( 0.0000000000000000000, 0.0000000000000000000, 1.000000000000000000 ) ) ;
#213 = DIRECTION ( 'NONE',  ( 0.0000000000000000000, 1.000000000000000000, 0.0000000000000000000 ) ) ;
#214 = AXIS2_PLACEMENT_3D ( 'NONE', #151, #213, #212 ) ;
#215 = CIRCLE ( 'NONE', #214, 7.000000000000000000 ) ;
#216 = ADVANCED_FACE ( 'NONE', ( #127 ), #125, .F. ) ;
#217 = EDGE_LOOP ( 'NONE', ( #218, #232, #235, #238 ) ) ;
#218 = ORIENTED_EDGE ( 'NONE', *, *, #219, .F. ) ;
#219 = EDGE_CURVE ( 'NONE', #243, #220, #120, .T. ) ;
#220 = VERTEX_POINT ( 'NONE', #180 ) ;
#221 = ADVANCED_FACE ( 'NONE', ( #179 ), #177, .T. ) ;
#222 = EDGE_LOOP ( 'NONE', ( #223, #224, #227, #230 ) ) ;
#223 = ORIENTED_EDGE ( 'NONE', *, *, #20, .T. ) ;
#224 = ORIENTED_EDGE ( 'NONE', *, *, #225, .T. ) ;
#225 = EDGE_CURVE ( 'NONE', #21, #226, #173, .T. ) ;
#226 = VERTEX_POINT ( 'NONE', #168 ) ;
#227 = ORIENTED_EDGE ( 'NONE', *, *, #228, .F. ) ;
#228 = EDGE_CURVE ( 'NONE', #229, #226, #167, .T. ) ;
#229 = VERTEX_POINT ( 'NONE', #162 ) ;
#230 = ORIENTED_EDGE ( 'NONE', *, *, #231, .F. ) ;
#231 = EDGE_CURVE ( 'NONE', #22, #229, #161, .T. ) ;
#232 = ORIENTED_EDGE ( 'NONE', *, *, #233, .T. ) ;
#233 = EDGE_CURVE ( 'NONE', #243, #234, #156, .T. ) ;
#234 = VERTEX_POINT ( 'NONE', #152 ) ;
#235 = ORIENTED_EDGE ( 'NONE', *, *, #236, .T. ) ;
#236 = EDGE_CURVE ( 'NONE', #234, #237, #215, .T. ) ;
#237 = VERTEX_POINT ( 'NONE', #211 ) ;
#238 = ORIENTED_EDGE ( 'NONE', *, *, #239, .F. ) ;
#239 = EDGE_CURVE ( 'NONE', #220, #237, #210, .T. ) ;
#240 = ADVANCED_FACE ( 'NONE', ( #206 ), #204, .T. ) ;
#241 = EDGE_LOOP ( 'NONE', ( #242, #244, #246, #247 ) ) ;
#242 = ORIENTED_EDGE ( 'NONE', *, *, #225, .F. ) ;
#243 = VERTEX_POINT ( 'NONE', #200 ) ;
#244 = ORIENTED_EDGE ( 'NONE', *, *, #245, .T. ) ;
#245 = EDGE_CURVE ( 'NONE', #21, #22, #199, .T. ) ;
#246 = ORIENTED_EDGE ( 'NONE', *, *, #231, .T. ) ;
#247 = ORIENTED_EDGE ( 'NONE', *, *, #248, .F. ) ;
#248 = EDGE_CURVE ( 'NONE', #226, #229, #194, .T. ) ;
#249 = ADVANCED_FACE ( 'NONE', ( #189, #188 ), #187, .F. ) ;
#250 = EDGE_LOOP ( 'NONE', ( #251, #253 ) ) ;
#251 = ORIENTED_EDGE ( 'NONE', *, *, #252, .F. ) ;
#252 = EDGE_CURVE ( 'NONE', #237, #234, #300, .T. ) ;
#253 = ORIENTED_EDGE ( 'NONE', *, *, #236, .F. ) ;
#254 = EDGE_LOOP ( 'NONE', ( #25, #82 ) ) ;
#255 = DIRECTION ( 'NONE',  ( 0.0000000000000000000, 0.0000000000000000000, 1.000000000000000000 ) ) ;
#256 = DIRECTION ( 'NONE',  ( 0.0000000000000000000, 1.000000000000000000, 0.0000000000000000000 ) ) ;
#257 = CARTESIAN_POINT ( 'NONE',  ( -5.009326287108706300E-010, -9.999999996500433100, 0.0000000000000000000 ) ) ;
#258 = AXIS2_PLACEMENT_3D ( 'NONE', #257, #256, #255 ) ;
#259 = CIRCLE ( 'NONE', #258, 7.000000000000000900 ) ;
#260 = FACE_OUTER_BOUND ( 'NONE', #46, .T. ) ;
#261 = CARTESIAN_POINT ( 'NONE',  ( -5.009326287108706300E-010, -1.671202021889730500, 12.27853367089821600 ) ) ;
#262 = CARTESIAN_POINT ( 'NONE',  ( -5.009311250738357900E-010, -1.671202021889730500, -12.27853367089821600 ) ) ;
#263 = DIRECTION ( 'NONE',  ( 0.0000000000000000000, 0.0000000000000000000, 1.000000000000000000 ) ) ;
#264 = DIRECTION ( 'NONE',  ( 0.0000000000000000000, 1.000000000000000000, 0.0000000000000000000 ) ) ;
#265 = CARTESIAN_POINT ( 'NONE',  ( -5.009326287108706300E-010, -1.671202021889730500, 0.0000000000000000000 ) ) ;
#266 = AXIS2_PLACEMENT_3D ( 'NONE', #265, #264, #263 ) ;
#267 = CIRCLE ( 'NONE', #266, 12.27853367089821600 ) ;
#268 = DIRECTION ( 'NONE',  ( 0.0000000000000000000, 0.0000000000000000000, 1.000000000000000000 ) ) ;
#269 = DIRECTION ( 'NONE',  ( 0.0000000000000000000, 1.000000000000000000, 0.0000000000000000000 ) ) ;
#270 = CARTESIAN_POINT ( 'NONE',  ( -5.009326287108706300E-010, -14.99999999650043100, 0.0000000000000000000 ) ) ;
#271 = AXIS2_PLACEMENT_3D ( 'NONE', #270, #269, #268 ) ;
#272 = CIRCLE ( 'NONE', #271, 14.50000000000000000 ) ;
#273 = CARTESIAN_POINT ( 'NONE',  ( -5.009308530316575900E-010, -14.99999999650043100, 14.50000000000000000 ) ) ;
#274 = DIRECTION ( 'NONE',  ( 2.013240444161049200E-017, -0.9863939238321437500, 0.1643989873053573200 ) ) ;
#275 = VECTOR ( 'NONE', #274, 1000.000000000000000 ) ;
#276 = CARTESIAN_POINT ( 'NONE',  ( -5.009308530316575900E-010, -14.99999999650043100, 14.50000000000000000 ) ) ;
#277 = LINE ( 'NONE', #276, #275 ) ;
#278 = CARTESIAN_POINT ( 'NONE',  ( -5.009326287108706300E-010, -14.99999999650043100, -14.50000000000000000 ) ) ;
#279 = DIRECTION ( 'NONE',  ( 0.0000000000000000000, -0.9863939238321437500, -0.1643989873053573200 ) ) ;
#280 = VECTOR ( 'NONE', #279, 1000.000000000000000 ) ;
#281 = CARTESIAN_POINT ( 'NONE',  ( -5.009326287108706300E-010, -14.99999999650043100, -14.50000000000000000 ) ) ;
#282 = LINE ( 'NONE', #281, #280 ) ;
#283 = CARTESIAN_POINT ( 'NONE',  ( -5.009326287108706300E-010, -9.999999996500433100, 2.000000000000000000 ) ) ;
#284 = DIRECTION ( 'NONE',  ( 0.0000000000000000000, 0.0000000000000000000, 1.000000000000000000 ) ) ;
#285 = DIRECTION ( 'NONE',  ( 0.0000000000000000000, 1.000000000000000000, 0.0000000000000000000 ) ) ;
#286 = CARTESIAN_POINT ( 'NONE',  ( -5.009326287108706300E-010, -9.999999996500433100, 0.0000000000000000000 ) ) ;
#287 = AXIS2_PLACEMENT_3D ( 'NONE', #286, #285, #284 ) ;
#288 = CIRCLE ( 'NONE', #287, 2.000000000000000000 ) ;
#289 = DIRECTION ( 'NONE',  ( 0.0000000000000000000, 0.0000000000000000000, -1.000000000000000000 ) ) ;
#290 = ADVANCED_BREP_SHAPE_REPRESENTATION ( 'C-30-RK-29-ÃÞÌ«ÙÄ', ( #44, #303 ), #291 ) ;
#291 =( GEOMETRIC_REPRESENTATION_CONTEXT ( 3 ) GLOBAL_UNCERTAINTY_ASSIGNED_CONTEXT ( ( #292 ) ) GLOBAL_UNIT_ASSIGNED_CONTEXT ( ( #295, #294, #293 ) ) REPRESENTATION_CONTEXT ( 'NONE', 'WORKASPACE' ) );
#292 = UNCERTAINTY_MEASURE_WITH_UNIT (LENGTH_MEASURE( 1.000000000000000100E-005 ), #295, 'distance_accuracy_value', 'NONE');
#293 =( NAMED_UNIT ( * ) SI_UNIT ( $, .STERADIAN. ) SOLID_ANGLE_UNIT ( ) );
#294 =( NAMED_UNIT ( * ) PLANE_ANGLE_UNIT ( ) SI_UNIT ( $, .RADIAN. ) );
#295 =( LENGTH_UNIT ( ) NAMED_UNIT ( * ) SI_UNIT ( .MILLI., .METRE. ) );
#296 = DIRECTION ( 'NONE',  ( 0.0000000000000000000, 0.0000000000000000000, 1.000000000000000000 ) ) ;
#297 = DIRECTION ( 'NONE',  ( 0.0000000000000000000, 1.000000000000000000, 0.0000000000000000000 ) ) ;
#298 = CARTESIAN_POINT ( 'NONE',  ( -5.009326287108706300E-010, 3.499566521986130500E-009, 0.0000000000000000000 ) ) ;
#299 = AXIS2_PLACEMENT_3D ( 'NONE', #298, #297, #296 ) ;
#300 = CIRCLE ( 'NONE', #299, 7.000000000000000000 ) ;
#301 = DIRECTION ( 'NONE',  ( 0.0000000000000000000, 0.0000000000000000000, 1.000000000000000000 ) ) ;
#302 = CARTESIAN_POINT ( 'NONE',  ( 0.0000000000000000000, 0.0000000000000000000, 0.0000000000000000000 ) ) ;
#303 = AXIS2_PLACEMENT_3D ( 'NONE', #302, #301, #304 ) ;
#304 = DIRECTION ( 'NONE',  ( 1.000000000000000000, 0.0000000000000000000, 0.0000000000000000000 ) ) ;
#305 = PRODUCT_DEFINITION_SHAPE ( 'NONE', 'NONE',  #368 ) ;
#306 = PRODUCT_RELATED_PRODUCT_CATEGORY ( 'detail', '', ( #378 ) ) ;
#307 = CC_DESIGN_SECURITY_CLASSIFICATION ( #328, ( #347 ) ) ;
#308 = CC_DESIGN_APPROVAL ( #316, ( #328 ) ) ;
#309 = APPROVAL_DATE_TIME ( #310, #316 ) ;
#310 = DATE_AND_TIME ( #311, #312 ) ;
#311 = CALENDAR_DATE ( 2009, 29, 6 ) ;
#312 = LOCAL_TIME ( 11, 0, 42.00000000000000000, #313 ) ;
#313 = COORDINATED_UNIVERSAL_TIME_OFFSET ( 9, 0, .AHEAD. ) ;
#314 = APPROVAL_PERSON_ORGANIZATION ( #318, #316, #315 ) ;
#315 = APPROVAL_ROLE ( '' ) ;
#316 = APPROVAL ( #317, 'UNSPECIFIED' ) ;
#317 = APPROVAL_STATUS ( 'not_yet_approved' ) ;
#318 = PERSON_AND_ORGANIZATION ( #377, #376 ) ;
#319 = CC_DESIGN_DATE_AND_TIME_ASSIGNMENT ( #321, #320, ( #328 ) ) ;
#320 = DATE_TIME_ROLE ( 'classification_date' ) ;
#321 = DATE_AND_TIME ( #322, #323 ) ;
#322 = CALENDAR_DATE ( 2009, 29, 6 ) ;
#323 = LOCAL_TIME ( 11, 0, 42.00000000000000000, #324 ) ;
#324 = COORDINATED_UNIVERSAL_TIME_OFFSET ( 9, 0, .AHEAD. ) ;
#325 = CC_DESIGN_PERSON_AND_ORGANIZATION_ASSIGNMENT ( #327, #326, ( #328 ) ) ;
#326 = PERSON_AND_ORGANIZATION_ROLE ( 'classification_officer' ) ;
#327 = PERSON_AND_ORGANIZATION ( #377, #376 ) ;
#328 = SECURITY_CLASSIFICATION ( '', '', #329 ) ;
#329 = SECURITY_CLASSIFICATION_LEVEL ( 'unclassified' ) ;
#330 = CC_DESIGN_PERSON_AND_ORGANIZATION_ASSIGNMENT ( #332, #331, ( #347 ) ) ;
#331 = PERSON_AND_ORGANIZATION_ROLE ( 'design_supplier' ) ;
#332 = PERSON_AND_ORGANIZATION ( #377, #376 ) ;
#333 = CC_DESIGN_PERSON_AND_ORGANIZATION_ASSIGNMENT ( #335, #334, ( #347 ) ) ;
#334 = PERSON_AND_ORGANIZATION_ROLE ( 'creator' ) ;
#335 = PERSON_AND_ORGANIZATION ( #377, #376 ) ;
#336 = CC_DESIGN_APPROVAL ( #344, ( #347 ) ) ;
#337 = APPROVAL_DATE_TIME ( #341, #344 ) ;
#338 = CALENDAR_DATE ( 2009, 29, 6 ) ;
#339 = LOCAL_TIME ( 11, 0, 42.00000000000000000, #340 ) ;
#340 = COORDINATED_UNIVERSAL_TIME_OFFSET ( 9, 0, .AHEAD. ) ;
#341 = DATE_AND_TIME ( #338, #339 ) ;
#342 = APPROVAL_PERSON_ORGANIZATION ( #346, #344, #343 ) ;
#343 = APPROVAL_ROLE ( '' ) ;
#344 = APPROVAL ( #345, 'UNSPECIFIED' ) ;
#345 = APPROVAL_STATUS ( 'not_yet_approved' ) ;
#346 = PERSON_AND_ORGANIZATION ( #377, #376 ) ;
#347 = PRODUCT_DEFINITION_FORMATION_WITH_SPECIFIED_SOURCE ( 'ANY', '', #378, .NOT_KNOWN. ) ;
#348 = CC_DESIGN_DATE_AND_TIME_ASSIGNMENT ( #350, #349, ( #368 ) ) ;
#349 = DATE_TIME_ROLE ( 'creation_date' ) ;
#350 = DATE_AND_TIME ( #351, #352 ) ;
#351 = CALENDAR_DATE ( 2009, 29, 6 ) ;
#352 = LOCAL_TIME ( 11, 0, 42.00000000000000000, #353 ) ;
#353 = COORDINATED_UNIVERSAL_TIME_OFFSET ( 9, 0, .AHEAD. ) ;
#354 = CC_DESIGN_PERSON_AND_ORGANIZATION_ASSIGNMENT ( #356, #355, ( #368 ) ) ;
#355 = PERSON_AND_ORGANIZATION_ROLE ( 'creator' ) ;
#356 = PERSON_AND_ORGANIZATION ( #377, #376 ) ;
#357 = CC_DESIGN_APPROVAL ( #365, ( #368 ) ) ;
#358 = APPROVAL_DATE_TIME ( #359, #365 ) ;
#359 = DATE_AND_TIME ( #360, #361 ) ;
#360 = CALENDAR_DATE ( 2009, 29, 6 ) ;
#361 = LOCAL_TIME ( 11, 0, 42.00000000000000000, #362 ) ;
#362 = COORDINATED_UNIVERSAL_TIME_OFFSET ( 9, 0, .AHEAD. ) ;
#363 = APPROVAL_PERSON_ORGANIZATION ( #367, #365, #364 ) ;
#364 = APPROVAL_ROLE ( '' ) ;
#365 = APPROVAL ( #366, 'UNSPECIFIED' ) ;
#366 = APPROVAL_STATUS ( 'not_yet_approved' ) ;
#367 = PERSON_AND_ORGANIZATION ( #377, #376 ) ;
#368 = PRODUCT_DEFINITION ( 'UNKNOWN', '', #347, #369 ) ;
#369 = DESIGN_CONTEXT ( 'detailed design', #371, 'design' ) ;
#370 = APPLICATION_PROTOCOL_DEFINITION ( 'international standard', 'config_control_design', 1994, #371 ) ;
#371 = APPLICATION_CONTEXT ( 'configuration controlled 3d designs of mechanical parts and assemblies' ) ;
#372 = SHAPE_DEFINITION_REPRESENTATION ( #305, #290 ) ;
#373 = CC_DESIGN_PERSON_AND_ORGANIZATION_ASSIGNMENT ( #375, #374, ( #378 ) ) ;
#374 = PERSON_AND_ORGANIZATION_ROLE ( 'design_owner' ) ;
#375 = PERSON_AND_ORGANIZATION ( #377, #376 ) ;
#376 = ORGANIZATION ( 'UNSPECIFIED', 'UNSPECIFIED', '' ) ;
#377 = PERSON ( 'UNSPECIFIED', 'UNSPECIFIED', 'UNSPECIFIED', ('UNSPECIFIED'), ('UNSPECIFIED'), ('UNSPECIFIED') ) ;
#378 = PRODUCT ( 'C-30-RK-29-ÃÞÌ«ÙÄ', 'C-30-RK-29-ÃÞÌ«ÙÄ', '', ( #379 ) ) ;
#379 = MECHANICAL_CONTEXT ( 'NONE', #381, 'mechanical' ) ;
#380 = APPLICATION_PROTOCOL_DEFINITION ( 'international standard', 'config_control_design', 1994, #381 ) ;
#381 = APPLICATION_CONTEXT ( 'configuration controlled 3d designs of mechanical parts and assemblies' ) ;
ENDSEC;
END-ISO-10303-21;
