ISO-10303-21;
HEADER;
FILE_DESCRIPTION (( 'STEP AP203' ),
    '1' );
FILE_NAME ('C-30-RK-29-gray.STEP',
    '2009-06-29T01:59:24',
    ( '11sw' ),
    ( '^LQ»¢®ïÐ' ),
    'SwSTEP 2.0',
    'SolidWorks 2007',
    '' );
FILE_SCHEMA (( 'CONFIG_CONTROL_DESIGN' ));
ENDSEC;

DATA;
#1 = ORIENTED_EDGE ( 'NONE', *, *, #11, .T. ) ;
#2 = EDGE_LOOP ( 'NONE', ( #353, #355 ) ) ;
#3 = ORIENTED_EDGE ( 'NONE', *, *, #334, .T. ) ;
#4 = ORIENTED_EDGE ( 'NONE', *, *, #13, .T. ) ;
#5 = ORIENTED_EDGE ( 'NONE', *, *, #354, .T. ) ;
#6 = ORIENTED_EDGE ( 'NONE', *, *, #364, .F. ) ;
#7 = ADVANCED_FACE ( 'NONE', ( #182 ), #175, .T. ) ;
#8 = VERTEX_POINT ( 'NONE', #145 ) ;
#9 = ORIENTED_EDGE ( 'NONE', *, *, #13, .F. ) ;
#10 = EDGE_CURVE ( 'NONE', #8, #349, #204, .T. ) ;
#11 = EDGE_CURVE ( 'NONE', #335, #8, #112, .T. ) ;
#12 = ORIENTED_EDGE ( 'NONE', *, *, #11, .F. ) ;
#13 = EDGE_CURVE ( 'NONE', #336, #349, #151, .T. ) ;
#14 = ORIENTED_EDGE ( 'NONE', *, *, #10, .F. ) ;
#15 = EDGE_LOOP ( 'NONE', ( #9, #17, #1, #350 ) ) ;
#16 = EDGE_CURVE ( 'NONE', #336, #335, #217, .T. ) ;
#17 = ORIENTED_EDGE ( 'NONE', *, *, #16, .T. ) ;
#18 = ORIENTED_EDGE ( 'NONE', *, *, #361, .T. ) ;
#19 = EDGE_LOOP ( 'NONE', ( #20, #21 ) ) ;
#20 = ORIENTED_EDGE ( 'NONE', *, *, #23, .T. ) ;
#21 = ORIENTED_EDGE ( 'NONE', *, *, #369, .T. ) ;
#22 = ORIENTED_EDGE ( 'NONE', *, *, #23, .F. ) ;
#23 = EDGE_CURVE ( 'NONE', #368, #362, #154, .T. ) ;
#24 = ORIENTED_EDGE ( 'NONE', *, *, #373, .F. ) ;
#25 = EDGE_CURVE ( 'NONE', #372, #330, #184, .T. ) ;
#26 = EDGE_LOOP ( 'NONE', ( #6, #22, #18, #5 ) ) ;
#27 = EDGE_LOOP ( 'NONE', ( #28, #24 ) ) ;
#28 = ORIENTED_EDGE ( 'NONE', *, *, #25, .F. ) ;
#29 = ADVANCED_FACE ( 'NONE', ( #185 ), #179, .F. ) ;
#30 = ORIENTED_EDGE ( 'NONE', *, *, #329, .F. ) ;
#31 = EDGE_CURVE ( 'NONE', #379, #380, #210, .T. ) ;
#32 = ORIENTED_EDGE ( 'NONE', *, *, #351, .T. ) ;
#33 = ADVANCED_FACE ( 'NONE', ( #197 ), #208, .F. ) ;
#34 = ORIENTED_EDGE ( 'NONE', *, *, #25, .T. ) ;
#35 = ADVANCED_FACE ( 'NONE', ( #117, #116 ), #90, .F. ) ;
#36 = EDGE_LOOP ( 'NONE', ( #53, #55 ) ) ;
#37 = ORIENTED_EDGE ( 'NONE', *, *, #338, .F. ) ;
#38 = EDGE_LOOP ( 'NONE', ( #30, #44, #39, #34 ) ) ;
#39 = ORIENTED_EDGE ( 'NONE', *, *, #375, .T. ) ;
#40 = ORIENTED_EDGE ( 'NONE', *, *, #377, .T. ) ;
#41 = ADVANCED_FACE ( 'NONE', ( #206 ), #86, .T. ) ;
#42 = EDGE_LOOP ( 'NONE', ( #37, #47, #51, #52 ) ) ;
#43 = ADVANCED_FACE ( 'NONE', ( #88, #87 ), #125, .F. ) ;
#44 = ORIENTED_EDGE ( 'NONE', *, *, #31, .F. ) ;
#45 = ORIENTED_EDGE ( 'NONE', *, *, #31, .T. ) ;
#46 = DIRECTION ( 'NONE',  ( 0.0000000000000000000, 0.0000000000000000000, 1.000000000000000000 ) ) ;
#47 = ORIENTED_EDGE ( 'NONE', *, *, #16, .F. ) ;
#48 = CARTESIAN_POINT ( 'NONE',  ( -5.009326287108706300E-010, -9.999999996500433100, 0.0000000000000000000 ) ) ;
#49 = FACE_OUTER_BOUND ( 'NONE', #359, .T. ) ;
#50 = EDGE_LOOP ( 'NONE', ( #45, #40 ) ) ;
#51 = ORIENTED_EDGE ( 'NONE', *, *, #344, .T. ) ;
#52 = ORIENTED_EDGE ( 'NONE', *, *, #54, .T. ) ;
#53 = ORIENTED_EDGE ( 'NONE', *, *, #54, .F. ) ;
#54 = EDGE_CURVE ( 'NONE', #342, #339, #129, .T. ) ;
#55 = ORIENTED_EDGE ( 'NONE', *, *, #341, .F. ) ;
#56 = CLOSED_SHELL ( 'NONE', ( #348, #345, #376, #358, #7, #352, #33, #43, #29, #35, #41 ) ) ;
#57 = TOROIDAL_SURFACE ( 'NONE', #76, 10.30574582323392700, 2.000000000000000400 ) ;
#58 = CARTESIAN_POINT ( 'NONE',  ( -5.009326287108706300E-010, -1.999999996500434000, 0.0000000000000000000 ) ) ;
#59 = AXIS2_PLACEMENT_3D ( 'NONE', #48, #102, #241 ) ;
#60 = CARTESIAN_POINT ( 'NONE',  ( -5.009326287108706300E-010, -9.999999996500433100, 7.000000000000000900 ) ) ;
#61 = DIRECTION ( 'NONE',  ( 0.0000000000000000000, 0.0000000000000000000, 1.000000000000000000 ) ) ;
#62 = DIRECTION ( 'NONE',  ( 0.0000000000000000000, 1.000000000000000000, 0.0000000000000000000 ) ) ;
#63 = CARTESIAN_POINT ( 'NONE',  ( -5.009326287108706300E-010, 3.499566521986130500E-009, 0.0000000000000000000 ) ) ;
#64 = DIRECTION ( 'NONE',  ( 0.0000000000000000000, 1.000000000000000000, 0.0000000000000000000 ) ) ;
#65 = CIRCLE ( 'NONE', #75, 7.000000000000000000 ) ;
#66 = DIRECTION ( 'NONE',  ( 0.0000000000000000000, 1.000000000000000000, 0.0000000000000000000 ) ) ;
#67 = VECTOR ( 'NONE', #64, 1000.000000000000000 ) ;
#68 = CARTESIAN_POINT ( 'NONE',  ( -5.009326287108706300E-010, 2.412507003500041800, 7.000000000000000900 ) ) ;
#69 = DIRECTION ( 'NONE',  ( 0.0000000000000000000, 0.0000000000000000000, 1.000000000000000000 ) ) ;
#70 = LINE ( 'NONE', #68, #67 ) ;
#71 = CARTESIAN_POINT ( 'NONE',  ( -5.009317714864229600E-010, -9.999999996500433100, -7.000000000000000900 ) ) ;
#72 = VECTOR ( 'NONE', #66, 1000.000000000000000 ) ;
#73 = CARTESIAN_POINT ( 'NONE',  ( -5.009317714864229600E-010, 2.412507003500041800, -7.000000000000000900 ) ) ;
#74 = LINE ( 'NONE', #73, #72 ) ;
#75 = AXIS2_PLACEMENT_3D ( 'NONE', #63, #62, #61 ) ;
#76 = AXIS2_PLACEMENT_3D ( 'NONE', #58, #77, #69 ) ;
#77 = DIRECTION ( 'NONE',  ( 0.0000000000000000000, 1.000000000000000000, 0.0000000000000000000 ) ) ;
#78 = CIRCLE ( 'NONE', #59, 7.000000000000000900 ) ;
#79 = DIRECTION ( 'NONE',  ( 0.0000000000000000000, 1.000000000000000000, 0.0000000000000000000 ) ) ;
#80 = CARTESIAN_POINT ( 'NONE',  ( -5.009326287108706300E-010, -14.99999999650043100, 0.0000000000000000000 ) ) ;
#81 = CONICAL_SURFACE ( 'NONE', #119, 14.50000000000000000, 0.1651486774146268300 ) ;
#82 = FACE_OUTER_BOUND ( 'NONE', #332, .T. ) ;
#83 = DIRECTION ( 'NONE',  ( 0.0000000000000000000, 0.0000000000000000000, 1.000000000000000000 ) ) ;
#84 = CARTESIAN_POINT ( 'NONE',  ( -5.009326287108706300E-010, -1.999999996500434000, 0.0000000000000000000 ) ) ;
#85 = DIRECTION ( 'NONE',  ( 0.0000000000000000000, 0.0000000000000000000, 1.000000000000000000 ) ) ;
#86 = CONICAL_SURFACE ( 'NONE', #137, 14.50000000000000000, 0.1651486774146268300 ) ;
#87 = FACE_OUTER_BOUND ( 'NONE', #19, .T. ) ;
#88 = FACE_BOUND ( 'NONE', #27, .T. ) ;
#89 = CARTESIAN_POINT ( 'NONE',  ( -5.009326287108706300E-010, -14.99999999650043100, -14.50000000000000000 ) ) ;
#90 = PLANE ( 'NONE',  #196 ) ;
#91 = AXIS2_PLACEMENT_3D ( 'NONE', #94, #93, #83 ) ;
#92 = DIRECTION ( 'NONE',  ( 0.0000000000000000000, -1.000000000000000000, 0.0000000000000000000 ) ) ;
#93 = DIRECTION ( 'NONE',  ( 0.0000000000000000000, 1.000000000000000000, 0.0000000000000000000 ) ) ;
#94 = CARTESIAN_POINT ( 'NONE',  ( -5.009326287108706300E-010, 2.412507003500041800, 0.0000000000000000000 ) ) ;
#95 = CARTESIAN_POINT ( 'NONE',  ( -5.009326287108706300E-010, 3.499566521986130500E-009, 0.0000000000000000000 ) ) ;
#96 = LINE ( 'NONE', #168, #167 ) ;
#97 = CARTESIAN_POINT ( 'NONE',  ( -5.009326287108706300E-010, -1.671202021889730500, 0.0000000000000000000 ) ) ;
#98 = DIRECTION ( 'NONE',  ( 0.0000000000000000000, 1.000000000000000000, 0.0000000000000000000 ) ) ;
#99 = CARTESIAN_POINT ( 'NONE',  ( -5.009326287108706300E-010, 3.499566521986130500E-009, 0.0000000000000000000 ) ) ;
#100 = AXIS2_PLACEMENT_3D ( 'NONE', #99, #98, #46 ) ;
#101 = CIRCLE ( 'NONE', #100, 7.000000000000000000 ) ;
#102 = DIRECTION ( 'NONE',  ( 0.0000000000000000000, 1.000000000000000000, 0.0000000000000000000 ) ) ;
#103 = DIRECTION ( 'NONE',  ( 0.0000000000000000000, 0.0000000000000000000, -1.000000000000000000 ) ) ;
#104 = AXIS2_PLACEMENT_3D ( 'NONE', #84, #205, #157 ) ;
#105 = CARTESIAN_POINT ( 'NONE',  ( -5.009311250738357900E-010, -1.671202021889730500, -12.27853367089821600 ) ) ;
#106 = CARTESIAN_POINT ( 'NONE',  ( -5.009326287108706300E-010, -1.671202021889730500, 12.27853367089821600 ) ) ;
#107 = DIRECTION ( 'NONE',  ( 0.0000000000000000000, 0.0000000000000000000, 1.000000000000000000 ) ) ;
#108 = DIRECTION ( 'NONE',  ( 0.0000000000000000000, -1.000000000000000000, 0.0000000000000000000 ) ) ;
#109 = CARTESIAN_POINT ( 'NONE',  ( 10.30574582273298200, 3.499566521986130500E-009, 0.0000000000000000000 ) ) ;
#110 = AXIS2_PLACEMENT_3D ( 'NONE', #109, #108, #103 ) ;
#111 = PLANE ( 'NONE',  #110 ) ;
#112 = CIRCLE ( 'NONE', #193, 2.000000000000000000 ) ;
#113 = DIRECTION ( 'NONE',  ( 0.0000000000000000000, 0.0000000000000000000, 1.000000000000000000 ) ) ;
#114 = DIRECTION ( 'NONE',  ( 0.0000000000000000000, 1.000000000000000000, 0.0000000000000000000 ) ) ;
#115 = AXIS2_PLACEMENT_3D ( 'NONE', #211, #114, #113 ) ;
#116 = FACE_BOUND ( 'NONE', #50, .T. ) ;
#117 = FACE_OUTER_BOUND ( 'NONE', #36, .T. ) ;
#118 = DIRECTION ( 'NONE',  ( 0.0000000000000000000, 0.0000000000000000000, -1.000000000000000000 ) ) ;
#119 = AXIS2_PLACEMENT_3D ( 'NONE', #80, #92, #118 ) ;
#120 = CARTESIAN_POINT ( 'NONE',  ( -5.009312458682624400E-010, 3.499566521986130500E-009, -10.30574582323391500 ) ) ;
#121 = DIRECTION ( 'NONE',  ( 0.0000000000000000000, 0.0000000000000000000, -1.000000000000000000 ) ) ;
#122 = DIRECTION ( 'NONE',  ( 0.0000000000000000000, -1.000000000000000000, 0.0000000000000000000 ) ) ;
#123 = CARTESIAN_POINT ( 'NONE',  ( 6.999999999499068300, -9.999999996500433100, 0.0000000000000000000 ) ) ;
#124 = AXIS2_PLACEMENT_3D ( 'NONE', #123, #122, #121 ) ;
#125 = PLANE ( 'NONE',  #124 ) ;
#126 = DIRECTION ( 'NONE',  ( 0.0000000000000000000, 0.0000000000000000000, 1.000000000000000000 ) ) ;
#127 = DIRECTION ( 'NONE',  ( 0.0000000000000000000, 1.000000000000000000, 0.0000000000000000000 ) ) ;
#128 = AXIS2_PLACEMENT_3D ( 'NONE', #133, #127, #126 ) ;
#129 = CIRCLE ( 'NONE', #128, 14.50000000000000000 ) ;
#130 = DIRECTION ( 'NONE',  ( 0.0000000000000000000, 1.000000000000000000, 0.0000000000000000000 ) ) ;
#131 = CARTESIAN_POINT ( 'NONE',  ( -5.009326287108706300E-010, -1.671202021889730500, 0.0000000000000000000 ) ) ;
#132 = AXIS2_PLACEMENT_3D ( 'NONE', #131, #130, #107 ) ;
#133 = CARTESIAN_POINT ( 'NONE',  ( -5.009326287108706300E-010, -14.99999999650043100, 0.0000000000000000000 ) ) ;
#134 = DIRECTION ( 'NONE',  ( 0.0000000000000000000, 0.0000000000000000000, -1.000000000000000000 ) ) ;
#135 = DIRECTION ( 'NONE',  ( 0.0000000000000000000, -1.000000000000000000, 0.0000000000000000000 ) ) ;
#136 = CARTESIAN_POINT ( 'NONE',  ( -5.009326287108706300E-010, -14.99999999650043100, 0.0000000000000000000 ) ) ;
#137 = AXIS2_PLACEMENT_3D ( 'NONE', #136, #135, #134 ) ;
#138 = FACE_BOUND ( 'NONE', #2, .T. ) ;
#139 = DIRECTION ( 'NONE',  ( 0.0000000000000000000, 0.0000000000000000000, 1.000000000000000000 ) ) ;
#140 = DIRECTION ( 'NONE',  ( 0.0000000000000000000, 1.000000000000000000, 0.0000000000000000000 ) ) ;
#141 = CARTESIAN_POINT ( 'NONE',  ( -5.009326287108706300E-010, 3.499566521986130500E-009, 0.0000000000000000000 ) ) ;
#142 = AXIS2_PLACEMENT_3D ( 'NONE', #141, #140, #139 ) ;
#143 = CIRCLE ( 'NONE', #142, 10.30574582323391500 ) ;
#144 = FACE_OUTER_BOUND ( 'NONE', #356, .T. ) ;
#145 = CARTESIAN_POINT ( 'NONE',  ( -5.009326287108706300E-010, 3.499566521986130500E-009, 10.30574582323391500 ) ) ;
#146 = CARTESIAN_POINT ( 'NONE',  ( -5.009308530316575900E-010, -14.99999999650043100, 14.50000000000000000 ) ) ;
#147 = DIRECTION ( 'NONE',  ( 2.013240444161049200E-017, -0.9863939238321437500, 0.1643989873053573200 ) ) ;
#148 = VECTOR ( 'NONE', #147, 1000.000000000000000 ) ;
#149 = CARTESIAN_POINT ( 'NONE',  ( -5.009308530316575900E-010, -14.99999999650043100, 14.50000000000000000 ) ) ;
#150 = LINE ( 'NONE', #149, #148 ) ;
#151 = CIRCLE ( 'NONE', #203, 2.000000000000000000 ) ;
#152 = CARTESIAN_POINT ( 'NONE',  ( -5.009326287108706300E-010, -9.999999996500433100, 0.0000000000000000000 ) ) ;
#153 = AXIS2_PLACEMENT_3D ( 'NONE', #152, #159, #158 ) ;
#154 = CIRCLE ( 'NONE', #153, 7.000000000000000900 ) ;
#155 = CARTESIAN_POINT ( 'NONE',  ( -5.009326287108706300E-010, -9.999999996500433100, 0.0000000000000000000 ) ) ;
#156 = AXIS2_PLACEMENT_3D ( 'NONE', #95, #79, #85 ) ;
#157 = DIRECTION ( 'NONE',  ( 0.0000000000000000000, 0.0000000000000000000, 1.000000000000000000 ) ) ;
#158 = DIRECTION ( 'NONE',  ( 0.0000000000000000000, 0.0000000000000000000, 1.000000000000000000 ) ) ;
#159 = DIRECTION ( 'NONE',  ( 0.0000000000000000000, 1.000000000000000000, 0.0000000000000000000 ) ) ;
#160 = CYLINDRICAL_SURFACE ( 'NONE', #91, 2.000000000000000000 ) ;
#161 = FACE_OUTER_BOUND ( 'NONE', #346, .T. ) ;
#162 = DIRECTION ( 'NONE',  ( 0.0000000000000000000, -0.9863939238321437500, -0.1643989873053573200 ) ) ;
#163 = VECTOR ( 'NONE', #162, 1000.000000000000000 ) ;
#164 = CARTESIAN_POINT ( 'NONE',  ( -5.009326287108706300E-010, -14.99999999650043100, -14.50000000000000000 ) ) ;
#165 = LINE ( 'NONE', #164, #163 ) ;
#166 = DIRECTION ( 'NONE',  ( 0.0000000000000000000, 1.000000000000000000, 0.0000000000000000000 ) ) ;
#167 = VECTOR ( 'NONE', #166, 1000.000000000000000 ) ;
#168 = CARTESIAN_POINT ( 'NONE',  ( -5.009323837895998700E-010, 2.412507003500041800, -2.000000000000000000 ) ) ;
#169 = CARTESIAN_POINT ( 'NONE',  ( -5.009326287108706300E-010, 2.412507003500041800, 0.0000000000000000000 ) ) ;
#170 = AXIS2_PLACEMENT_3D ( 'NONE', #169, #214, #213 ) ;
#171 = DIRECTION ( 'NONE',  ( 0.0000000000000000000, 0.0000000000000000000, 1.000000000000000000 ) ) ;
#172 = DIRECTION ( 'NONE',  ( 0.0000000000000000000, 1.000000000000000000, 0.0000000000000000000 ) ) ;
#173 = CARTESIAN_POINT ( 'NONE',  ( -5.009326287108706300E-010, -1.999999996500434000, 10.30574582323392700 ) ) ;
#174 = CARTESIAN_POINT ( 'NONE',  ( -5.009313666626890000E-010, -1.999999996500434000, -10.30574582323392700 ) ) ;
#175 = TOROIDAL_SURFACE ( 'NONE', #104, 10.30574582323392700, 2.000000000000000400 ) ;
#176 = CC_DESIGN_PERSON_AND_ORGANIZATION_ASSIGNMENT ( #178, #177, ( #278 ) ) ;
#177 = PERSON_AND_ORGANIZATION_ROLE ( 'design_supplier' ) ;
#178 = PERSON_AND_ORGANIZATION ( #262, #282 ) ;
#179 = CYLINDRICAL_SURFACE ( 'NONE', #170, 2.000000000000000000 ) ;
#180 = CARTESIAN_POINT ( 'NONE',  ( -5.009323837895998700E-010, -9.999999996500433100, -2.000000000000000000 ) ) ;
#181 = CIRCLE ( 'NONE', #132, 12.27853367089821600 ) ;
#182 = FACE_OUTER_BOUND ( 'NONE', #15, .T. ) ;
#183 = AXIS2_PLACEMENT_3D ( 'NONE', #155, #172, #171 ) ;
#184 = CIRCLE ( 'NONE', #183, 2.000000000000000000 ) ;
#185 = FACE_OUTER_BOUND ( 'NONE', #38, .T. ) ;
#186 = DIRECTION ( 'NONE',  ( 0.0000000000000000000, 0.0000000000000000000, 1.000000000000000000 ) ) ;
#187 = DIRECTION ( 'NONE',  ( 0.0000000000000000000, 1.000000000000000000, 0.0000000000000000000 ) ) ;
#188 = CARTESIAN_POINT ( 'NONE',  ( -5.009326287108706300E-010, -14.99999999650043100, 0.0000000000000000000 ) ) ;
#189 = AXIS2_PLACEMENT_3D ( 'NONE', #188, #187, #186 ) ;
#190 = CIRCLE ( 'NONE', #189, 14.50000000000000000 ) ;
#191 = DIRECTION ( 'NONE',  ( 0.0000000000000000000, 0.0000000000000000000, 1.000000000000000000 ) ) ;
#192 = DIRECTION ( 'NONE',  ( -1.000000000000000000, 0.0000000000000000000, 0.0000000000000000000 ) ) ;
#193 = AXIS2_PLACEMENT_3D ( 'NONE', #173, #192, #191 ) ;
#194 = DIRECTION ( 'NONE',  ( 0.0000000000000000000, 1.000000000000000000, 0.0000000000000000000 ) ) ;
#195 = CARTESIAN_POINT ( 'NONE',  ( 1.999999999499067800, -14.99999999650043100, 0.0000000000000000000 ) ) ;
#196 = AXIS2_PLACEMENT_3D ( 'NONE', #195, #194, #207 ) ;
#197 = FACE_OUTER_BOUND ( 'NONE', #26, .T. ) ;
#198 = DIRECTION ( 'NONE',  ( 0.0000000000000000000, 0.0000000000000000000, 1.000000000000000000 ) ) ;
#199 = DIRECTION ( 'NONE',  ( 0.0000000000000000000, 1.000000000000000000, 0.0000000000000000000 ) ) ;
#200 = CARTESIAN_POINT ( 'NONE',  ( -5.009326287108706300E-010, -14.99999999650043100, 0.0000000000000000000 ) ) ;
#201 = DIRECTION ( 'NONE',  ( 1.224606353612350900E-016, 0.0000000000000000000, -1.000000000000000000 ) ) ;
#202 = DIRECTION ( 'NONE',  ( 1.000000000000000000, 0.0000000000000000000, 1.224606353822377300E-016 ) ) ;
#203 = AXIS2_PLACEMENT_3D ( 'NONE', #174, #202, #201 ) ;
#204 = CIRCLE ( 'NONE', #156, 10.30574582323391500 ) ;
#205 = DIRECTION ( 'NONE',  ( 0.0000000000000000000, 1.000000000000000000, 0.0000000000000000000 ) ) ;
#206 = FACE_OUTER_BOUND ( 'NONE', #42, .T. ) ;
#207 = DIRECTION ( 'NONE',  ( 0.0000000000000000000, 0.0000000000000000000, 1.000000000000000000 ) ) ;
#208 = CYLINDRICAL_SURFACE ( 'NONE', #115, 7.000000000000000900 ) ;
#209 = AXIS2_PLACEMENT_3D ( 'NONE', #200, #199, #198 ) ;
#210 = CIRCLE ( 'NONE', #209, 2.000000000000000400 ) ;
#211 = CARTESIAN_POINT ( 'NONE',  ( -5.009326287108706300E-010, 2.412507003500041800, 0.0000000000000000000 ) ) ;
#212 = DIRECTION ( 'NONE',  ( 0.0000000000000000000, 0.0000000000000000000, 1.000000000000000000 ) ) ;
#213 = DIRECTION ( 'NONE',  ( 0.0000000000000000000, 0.0000000000000000000, 1.000000000000000000 ) ) ;
#214 = DIRECTION ( 'NONE',  ( 0.0000000000000000000, 1.000000000000000000, 0.0000000000000000000 ) ) ;
#215 = DIRECTION ( 'NONE',  ( 0.0000000000000000000, 1.000000000000000000, 0.0000000000000000000 ) ) ;
#216 = AXIS2_PLACEMENT_3D ( 'NONE', #97, #215, #212 ) ;
#217 = CIRCLE ( 'NONE', #216, 12.27853367089821600 ) ;
#218 = ADVANCED_BREP_SHAPE_REPRESENTATION ( 'C-30-RK-29-gray', ( #347, #230 ), #219 ) ;
#219 =( GEOMETRIC_REPRESENTATION_CONTEXT ( 3 ) GLOBAL_UNCERTAINTY_ASSIGNED_CONTEXT ( ( #235 ) ) GLOBAL_UNIT_ASSIGNED_CONTEXT ( ( #222, #221, #220 ) ) REPRESENTATION_CONTEXT ( 'NONE', 'WORKASPACE' ) );
#220 =( NAMED_UNIT ( * ) SI_UNIT ( $, .STERADIAN. ) SOLID_ANGLE_UNIT ( ) );
#221 =( NAMED_UNIT ( * ) PLANE_ANGLE_UNIT ( ) SI_UNIT ( $, .RADIAN. ) );
#222 =( LENGTH_UNIT ( ) NAMED_UNIT ( * ) SI_UNIT ( .MILLI., .METRE. ) );
#223 = CARTESIAN_POINT ( 'NONE',  ( 0.0000000000000000000, 0.0000000000000000000, 0.0000000000000000000 ) ) ;
#224 = DIRECTION ( 'NONE',  ( 0.0000000000000000000, 1.000000000000000000, 0.0000000000000000000 ) ) ;
#225 = CARTESIAN_POINT ( 'NONE',  ( -5.009326287108706300E-010, 2.412507003500041800, 0.0000000000000000000 ) ) ;
#226 = AXIS2_PLACEMENT_3D ( 'NONE', #225, #224, #249 ) ;
#227 = CYLINDRICAL_SURFACE ( 'NONE', #226, 7.000000000000000900 ) ;
#228 = DIRECTION ( 'NONE',  ( 0.0000000000000000000, 0.0000000000000000000, 1.000000000000000000 ) ) ;
#229 = DIRECTION ( 'NONE',  ( 1.000000000000000000, 0.0000000000000000000, 0.0000000000000000000 ) ) ;
#230 = AXIS2_PLACEMENT_3D ( 'NONE', #223, #228, #229 ) ;
#231 = CIRCLE ( 'NONE', #232, 2.000000000000000000 ) ;
#232 = AXIS2_PLACEMENT_3D ( 'NONE', #252, #251, #250 ) ;
#233 = CARTESIAN_POINT ( 'NONE',  ( -5.009326287108706300E-010, 3.499566521986130500E-009, 7.000000000000000000 ) ) ;
#234 = DIRECTION ( 'NONE',  ( 0.0000000000000000000, 0.0000000000000000000, 1.000000000000000000 ) ) ;
#235 = UNCERTAINTY_MEASURE_WITH_UNIT (LENGTH_MEASURE( 1.000000000000000100E-005 ), #222, 'distance_accuracy_value', 'NONE');
#236 = DIRECTION ( 'NONE',  ( 0.0000000000000000000, 1.000000000000000000, 0.0000000000000000000 ) ) ;
#237 = CARTESIAN_POINT ( 'NONE',  ( -5.009326287108706300E-010, -14.99999999650043100, 0.0000000000000000000 ) ) ;
#238 = AXIS2_PLACEMENT_3D ( 'NONE', #237, #236, #234 ) ;
#239 = CARTESIAN_POINT ( 'NONE',  ( -5.009323837895998700E-010, -14.99999999650043100, -2.000000000000000400 ) ) ;
#240 = CARTESIAN_POINT ( 'NONE',  ( -5.009326287108706300E-010, -14.99999999650043100, 2.000000000000000400 ) ) ;
#241 = DIRECTION ( 'NONE',  ( 0.0000000000000000000, 0.0000000000000000000, 1.000000000000000000 ) ) ;
#242 = DIRECTION ( 'NONE',  ( 0.0000000000000000000, 1.000000000000000000, 0.0000000000000000000 ) ) ;
#243 = VECTOR ( 'NONE', #242, 1000.000000000000000 ) ;
#244 = CARTESIAN_POINT ( 'NONE',  ( -5.009326287108706300E-010, 2.412507003500041800, 2.000000000000000000 ) ) ;
#245 = LINE ( 'NONE', #244, #243 ) ;
#246 = CARTESIAN_POINT ( 'NONE',  ( -5.009317714864229600E-010, 3.499566521986130500E-009, -7.000000000000000000 ) ) ;
#247 = CARTESIAN_POINT ( 'NONE',  ( -5.009326287108706300E-010, -9.999999996500433100, 2.000000000000000000 ) ) ;
#248 = CIRCLE ( 'NONE', #238, 2.000000000000000400 ) ;
#249 = DIRECTION ( 'NONE',  ( 0.0000000000000000000, 0.0000000000000000000, 1.000000000000000000 ) ) ;
#250 = DIRECTION ( 'NONE',  ( 0.0000000000000000000, 0.0000000000000000000, 1.000000000000000000 ) ) ;
#251 = DIRECTION ( 'NONE',  ( 0.0000000000000000000, 1.000000000000000000, 0.0000000000000000000 ) ) ;
#252 = CARTESIAN_POINT ( 'NONE',  ( -5.009326287108706300E-010, -9.999999996500433100, 0.0000000000000000000 ) ) ;
#253 = FACE_OUTER_BOUND ( 'NONE', #328, .T. ) ;
#254 = CC_DESIGN_PERSON_AND_ORGANIZATION_ASSIGNMENT ( #256, #255, ( #278 ) ) ;
#255 = PERSON_AND_ORGANIZATION_ROLE ( 'creator' ) ;
#256 = PERSON_AND_ORGANIZATION ( #262, #282 ) ;
#257 = CC_DESIGN_APPROVAL ( #275, ( #278 ) ) ;
#258 = APPROVAL_DATE_TIME ( #259, #275 ) ;
#259 = DATE_AND_TIME ( #260, #261 ) ;
#260 = CALENDAR_DATE ( 2009, 29, 6 ) ;
#261 = LOCAL_TIME ( 10, 59, 24.00000000000000000, #272 ) ;
#262 = PERSON ( 'UNSPECIFIED', 'UNSPECIFIED', 'UNSPECIFIED', ('UNSPECIFIED'), ('UNSPECIFIED'), ('UNSPECIFIED') ) ;
#263 = PRODUCT ( 'C-30-RK-29-gray', 'C-30-RK-29-gray', '', ( #264 ) ) ;
#264 = MECHANICAL_CONTEXT ( 'NONE', #266, 'mechanical' ) ;
#265 = APPLICATION_PROTOCOL_DEFINITION ( 'international standard', 'config_control_design', 1994, #266 ) ;
#266 = APPLICATION_CONTEXT ( 'configuration controlled 3d designs of mechanical parts and assemblies' ) ;
#267 = CC_DESIGN_APPROVAL ( #286, ( #291 ) ) ;
#268 = APPROVAL_DATE_TIME ( #269, #286 ) ;
#269 = DATE_AND_TIME ( #270, #271 ) ;
#270 = CALENDAR_DATE ( 2009, 29, 6 ) ;
#271 = LOCAL_TIME ( 10, 59, 24.00000000000000000, #283 ) ;
#272 = COORDINATED_UNIVERSAL_TIME_OFFSET ( 9, 0, .AHEAD. ) ;
#273 = APPROVAL_PERSON_ORGANIZATION ( #277, #275, #274 ) ;
#274 = APPROVAL_ROLE ( '' ) ;
#275 = APPROVAL ( #276, 'UNSPECIFIED' ) ;
#276 = APPROVAL_STATUS ( 'not_yet_approved' ) ;
#277 = PERSON_AND_ORGANIZATION ( #262, #282 ) ;
#278 = PRODUCT_DEFINITION_FORMATION_WITH_SPECIFIED_SOURCE ( 'ANY', '', #263, .NOT_KNOWN. ) ;
#279 = CC_DESIGN_PERSON_AND_ORGANIZATION_ASSIGNMENT ( #281, #280, ( #291 ) ) ;
#280 = PERSON_AND_ORGANIZATION_ROLE ( 'creator' ) ;
#281 = PERSON_AND_ORGANIZATION ( #262, #282 ) ;
#282 = ORGANIZATION ( 'UNSPECIFIED', 'UNSPECIFIED', '' ) ;
#283 = COORDINATED_UNIVERSAL_TIME_OFFSET ( 9, 0, .AHEAD. ) ;
#284 = APPROVAL_PERSON_ORGANIZATION ( #290, #286, #285 ) ;
#285 = APPROVAL_ROLE ( '' ) ;
#286 = APPROVAL ( #287, 'UNSPECIFIED' ) ;
#287 = APPROVAL_STATUS ( 'not_yet_approved' ) ;
#288 = CC_DESIGN_PERSON_AND_ORGANIZATION_ASSIGNMENT ( #295, #289, ( #263 ) ) ;
#289 = PERSON_AND_ORGANIZATION_ROLE ( 'design_owner' ) ;
#290 = PERSON_AND_ORGANIZATION ( #262, #282 ) ;
#291 = PRODUCT_DEFINITION ( 'UNKNOWN', '', #278, #292 ) ;
#292 = DESIGN_CONTEXT ( 'detailed design', #294, 'design' ) ;
#293 = APPLICATION_PROTOCOL_DEFINITION ( 'international standard', 'config_control_design', 1994, #294 ) ;
#294 = APPLICATION_CONTEXT ( 'configuration controlled 3d designs of mechanical parts and assemblies' ) ;
#295 = PERSON_AND_ORGANIZATION ( #262, #282 ) ;
#296 = CC_DESIGN_DATE_AND_TIME_ASSIGNMENT ( #298, #297, ( #291 ) ) ;
#297 = DATE_TIME_ROLE ( 'creation_date' ) ;
#298 = DATE_AND_TIME ( #299, #300 ) ;
#299 = CALENDAR_DATE ( 2009, 29, 6 ) ;
#300 = LOCAL_TIME ( 10, 59, 24.00000000000000000, #301 ) ;
#301 = COORDINATED_UNIVERSAL_TIME_OFFSET ( 9, 0, .AHEAD. ) ;
#302 = CC_DESIGN_PERSON_AND_ORGANIZATION_ASSIGNMENT ( #314, #321, ( #317 ) ) ;
#303 = COORDINATED_UNIVERSAL_TIME_OFFSET ( 9, 0, .AHEAD. ) ;
#304 = CC_DESIGN_SECURITY_CLASSIFICATION ( #317, ( #278 ) ) ;
#305 = CC_DESIGN_APPROVAL ( #312, ( #317 ) ) ;
#306 = APPROVAL_DATE_TIME ( #307, #312 ) ;
#307 = DATE_AND_TIME ( #308, #309 ) ;
#308 = CALENDAR_DATE ( 2009, 29, 6 ) ;
#309 = LOCAL_TIME ( 10, 59, 24.00000000000000000, #310 ) ;
#310 = COORDINATED_UNIVERSAL_TIME_OFFSET ( 9, 0, .AHEAD. ) ;
#311 = CC_DESIGN_DATE_AND_TIME_ASSIGNMENT ( #326, #325, ( #317 ) ) ;
#312 = APPROVAL ( #313, 'UNSPECIFIED' ) ;
#313 = APPROVAL_STATUS ( 'not_yet_approved' ) ;
#314 = PERSON_AND_ORGANIZATION ( #262, #282 ) ;
#315 = PERSON_AND_ORGANIZATION ( #262, #282 ) ;
#316 = LOCAL_TIME ( 10, 59, 24.00000000000000000, #303 ) ;
#317 = SECURITY_CLASSIFICATION ( '', '', #324 ) ;
#318 = SHAPE_DEFINITION_REPRESENTATION ( #319, #218 ) ;
#319 = PRODUCT_DEFINITION_SHAPE ( 'NONE', 'NONE',  #291 ) ;
#320 = PRODUCT_RELATED_PRODUCT_CATEGORY ( 'detail', '', ( #263 ) ) ;
#321 = PERSON_AND_ORGANIZATION_ROLE ( 'classification_officer' ) ;
#322 = APPROVAL_PERSON_ORGANIZATION ( #315, #312, #323 ) ;
#323 = APPROVAL_ROLE ( '' ) ;
#324 = SECURITY_CLASSIFICATION_LEVEL ( 'unclassified' ) ;
#325 = DATE_TIME_ROLE ( 'classification_date' ) ;
#326 = DATE_AND_TIME ( #327, #316 ) ;
#327 = CALENDAR_DATE ( 2009, 29, 6 ) ;
#328 = EDGE_LOOP ( 'NONE', ( #365, #363, #366, #360 ) ) ;
#329 = EDGE_CURVE ( 'NONE', #380, #330, #96, .T. ) ;
#330 = VERTEX_POINT ( 'NONE', #180 ) ;
#331 = ORIENTED_EDGE ( 'NONE', *, *, #329, .T. ) ;
#332 = EDGE_LOOP ( 'NONE', ( #333, #337, #340, #343 ) ) ;
#333 = ORIENTED_EDGE ( 'NONE', *, *, #334, .F. ) ;
#334 = EDGE_CURVE ( 'NONE', #335, #336, #181, .T. ) ;
#335 = VERTEX_POINT ( 'NONE', #106 ) ;
#336 = VERTEX_POINT ( 'NONE', #105 ) ;
#337 = ORIENTED_EDGE ( 'NONE', *, *, #338, .T. ) ;
#338 = EDGE_CURVE ( 'NONE', #335, #339, #150, .T. ) ;
#339 = VERTEX_POINT ( 'NONE', #146 ) ;
#340 = ORIENTED_EDGE ( 'NONE', *, *, #341, .T. ) ;
#341 = EDGE_CURVE ( 'NONE', #339, #342, #190, .T. ) ;
#342 = VERTEX_POINT ( 'NONE', #89 ) ;
#343 = ORIENTED_EDGE ( 'NONE', *, *, #344, .F. ) ;
#344 = EDGE_CURVE ( 'NONE', #336, #342, #165, .T. ) ;
#345 = ADVANCED_FACE ( 'NONE', ( #161 ), #160, .F. ) ;
#346 = EDGE_LOOP ( 'NONE', ( #378, #331, #371, #374 ) ) ;
#347 = MANIFOLD_SOLID_BREP ( 'NONE', #56 ) ;
#348 = ADVANCED_FACE ( 'NONE', ( #82 ), #81, .T. ) ;
#349 = VERTEX_POINT ( 'NONE', #120 ) ;
#350 = ORIENTED_EDGE ( 'NONE', *, *, #351, .F. ) ;
#351 = EDGE_CURVE ( 'NONE', #349, #8, #143, .T. ) ;
#352 = ADVANCED_FACE ( 'NONE', ( #138, #144 ), #111, .F. ) ;
#353 = ORIENTED_EDGE ( 'NONE', *, *, #354, .F. ) ;
#354 = EDGE_CURVE ( 'NONE', #381, #370, #101, .T. ) ;
#355 = ORIENTED_EDGE ( 'NONE', *, *, #367, .F. ) ;
#356 = EDGE_LOOP ( 'NONE', ( #357, #32 ) ) ;
#357 = ORIENTED_EDGE ( 'NONE', *, *, #10, .T. ) ;
#358 = ADVANCED_FACE ( 'NONE', ( #49 ), #57, .T. ) ;
#359 = EDGE_LOOP ( 'NONE', ( #3, #4, #14, #12 ) ) ;
#360 = ORIENTED_EDGE ( 'NONE', *, *, #361, .F. ) ;
#361 = EDGE_CURVE ( 'NONE', #368, #381, #70, .T. ) ;
#362 = VERTEX_POINT ( 'NONE', #71 ) ;
#363 = ORIENTED_EDGE ( 'NONE', *, *, #364, .T. ) ;
#364 = EDGE_CURVE ( 'NONE', #362, #370, #74, .T. ) ;
#365 = ORIENTED_EDGE ( 'NONE', *, *, #369, .F. ) ;
#366 = ORIENTED_EDGE ( 'NONE', *, *, #367, .T. ) ;
#367 = EDGE_CURVE ( 'NONE', #370, #381, #65, .T. ) ;
#368 = VERTEX_POINT ( 'NONE', #60 ) ;
#369 = EDGE_CURVE ( 'NONE', #362, #368, #78, .T. ) ;
#370 = VERTEX_POINT ( 'NONE', #246 ) ;
#371 = ORIENTED_EDGE ( 'NONE', *, *, #373, .T. ) ;
#372 = VERTEX_POINT ( 'NONE', #247 ) ;
#373 = EDGE_CURVE ( 'NONE', #330, #372, #231, .T. ) ;
#374 = ORIENTED_EDGE ( 'NONE', *, *, #375, .F. ) ;
#375 = EDGE_CURVE ( 'NONE', #379, #372, #245, .T. ) ;
#376 = ADVANCED_FACE ( 'NONE', ( #253 ), #227, .F. ) ;
#377 = EDGE_CURVE ( 'NONE', #380, #379, #248, .T. ) ;
#378 = ORIENTED_EDGE ( 'NONE', *, *, #377, .F. ) ;
#379 = VERTEX_POINT ( 'NONE', #240 ) ;
#380 = VERTEX_POINT ( 'NONE', #239 ) ;
#381 = VERTEX_POINT ( 'NONE', #233 ) ;
ENDSEC;
END-ISO-10303-21;
