ISO-10303-21;
HEADER;
FILE_DESCRIPTION (( 'STEP AP203' ),
    '1' );
FILE_NAME ('C-30-RK-29.STEP',
    '2009-06-26T05:59:23',
    ( '11sw' ),
    ( '^LQ»¢®ïÐ' ),
    'SwSTEP 2.0',
    'SolidWorks 2007',
    '' );
FILE_SCHEMA (( 'CONFIG_CONTROL_DESIGN' ));
ENDSEC;

DATA;
#1 = ORIENTED_EDGE ( 'NONE', *, *, #3, .T. ) ;
#2 = ORIENTED_EDGE ( 'NONE', *, *, #13, .F. ) ;
#3 = EDGE_CURVE ( 'NONE', #40, #10, #203, .T. ) ;
#4 = ADVANCED_FACE ( 'NONE', ( #199 ), #197, .F. ) ;
#5 = ADVANCED_FACE ( 'NONE', ( #198 ), #192, .T. ) ;
#6 = EDGE_CURVE ( 'NONE', #40, #41, #187, .T. ) ;
#7 = EDGE_CURVE ( 'NONE', #10, #9, #182, .T. ) ;
#8 = ORIENTED_EDGE ( 'NONE', *, *, #6, .F. ) ;
#9 = VERTEX_POINT ( 'NONE', #177 ) ;
#10 = VERTEX_POINT ( 'NONE', #176 ) ;
#11 = EDGE_LOOP ( 'NONE', ( #15, #18, #28, #22 ) ) ;
#12 = ORIENTED_EDGE ( 'NONE', *, *, #16, .F. ) ;
#13 = EDGE_CURVE ( 'NONE', #50, #44, #175, .T. ) ;
#14 = ORIENTED_EDGE ( 'NONE', *, *, #7, .T. ) ;
#15 = ORIENTED_EDGE ( 'NONE', *, *, #63, .T. ) ;
#16 = EDGE_CURVE ( 'NONE', #41, #9, #171, .T. ) ;
#17 = VERTEX_POINT ( 'NONE', #167 ) ;
#18 = ORIENTED_EDGE ( 'NONE', *, *, #20, .T. ) ;
#19 = ORIENTED_EDGE ( 'NONE', *, *, #20, .F. ) ;
#20 = EDGE_CURVE ( 'NONE', #64, #31, #165, .T. ) ;
#21 = ADVANCED_FACE ( 'NONE', ( #161 ), #160, .T. ) ;
#22 = ORIENTED_EDGE ( 'NONE', *, *, #23, .F. ) ;
#23 = EDGE_CURVE ( 'NONE', #59, #17, #155, .T. ) ;
#24 = EDGE_LOOP ( 'NONE', ( #19, #25, #33, #36 ) ) ;
#25 = ORIENTED_EDGE ( 'NONE', *, *, #26, .T. ) ;
#26 = EDGE_CURVE ( 'NONE', #64, #59, #150, .T. ) ;
#27 = ORIENTED_EDGE ( 'NONE', *, *, #269, .F. ) ;
#28 = ORIENTED_EDGE ( 'NONE', *, *, #30, .F. ) ;
#29 = ADVANCED_FACE ( 'NONE', ( #145, #144 ), #143, .F. ) ;
#30 = EDGE_CURVE ( 'NONE', #17, #31, #138, .T. ) ;
#31 = VERTEX_POINT ( 'NONE', #133 ) ;
#32 = EDGE_CURVE ( 'NONE', #31, #17, #132, .T. ) ;
#33 = ORIENTED_EDGE ( 'NONE', *, *, #23, .T. ) ;
#34 = ORIENTED_EDGE ( 'NONE', *, *, #30, .T. ) ;
#35 = EDGE_LOOP ( 'NONE', ( #27, #244 ) ) ;
#36 = ORIENTED_EDGE ( 'NONE', *, *, #32, .F. ) ;
#37 = ORIENTED_EDGE ( 'NONE', *, *, #32, .T. ) ;
#38 = EDGE_LOOP ( 'NONE', ( #34, #37 ) ) ;
#39 = EDGE_LOOP ( 'NONE', ( #8, #1, #14, #12 ) ) ;
#40 = VERTEX_POINT ( 'NONE', #127 ) ;
#41 = VERTEX_POINT ( 'NONE', #126 ) ;
#42 = ORIENTED_EDGE ( 'NONE', *, *, #43, .T. ) ;
#43 = EDGE_CURVE ( 'NONE', #45, #44, #125, .T. ) ;
#44 = VERTEX_POINT ( 'NONE', #120 ) ;
#45 = VERTEX_POINT ( 'NONE', #119 ) ;
#46 = ORIENTED_EDGE ( 'NONE', *, *, #48, .F. ) ;
#47 = EDGE_LOOP ( 'NONE', ( #46, #51, #42, #2 ) ) ;
#48 = EDGE_CURVE ( 'NONE', #49, #50, #118, .T. ) ;
#49 = VERTEX_POINT ( 'NONE', #113 ) ;
#50 = VERTEX_POINT ( 'NONE', #112 ) ;
#51 = ORIENTED_EDGE ( 'NONE', *, *, #52, .T. ) ;
#52 = EDGE_CURVE ( 'NONE', #49, #45, #111, .T. ) ;
#53 = ADVANCED_FACE ( 'NONE', ( #107 ), #106, .F. ) ;
#54 = ORIENTED_EDGE ( 'NONE', *, *, #67, .F. ) ;
#55 = EDGE_CURVE ( 'NONE', #66, #57, #101, .T. ) ;
#56 = ORIENTED_EDGE ( 'NONE', *, *, #55, .T. ) ;
#57 = VERTEX_POINT ( 'NONE', #96 ) ;
#58 = ORIENTED_EDGE ( 'NONE', *, *, #63, .F. ) ;
#59 = VERTEX_POINT ( 'NONE', #95 ) ;
#60 = MANIFOLD_SOLID_BREP ( 'NONE', #215 ) ;
#61 = ADVANCED_FACE ( 'NONE', ( #94 ), #92, .T. ) ;
#62 = EDGE_LOOP ( 'NONE', ( #58, #68, #56, #54 ) ) ;
#63 = EDGE_CURVE ( 'NONE', #59, #64, #88, .T. ) ;
#64 = VERTEX_POINT ( 'NONE', #83 ) ;
#65 = EDGE_CURVE ( 'NONE', #59, #66, #82, .T. ) ;
#66 = VERTEX_POINT ( 'NONE', #78 ) ;
#67 = EDGE_CURVE ( 'NONE', #64, #57, #77, .T. ) ;
#68 = ORIENTED_EDGE ( 'NONE', *, *, #65, .T. ) ;
#69 = DIRECTION ( 'NONE',  ( 0.0000000000000000000, 0.0000000000000000000, 1.000000000000000000 ) ) ;
#70 = DIRECTION ( 'NONE',  ( 0.0000000000000000000, 1.000000000000000000, 0.0000000000000000000 ) ) ;
#71 = CARTESIAN_POINT ( 'NONE',  ( -5.009326287108706300E-010, -14.99999999650043100, 0.0000000000000000000 ) ) ;
#72 = AXIS2_PLACEMENT_3D ( 'NONE', #71, #70, #69 ) ;
#73 = CIRCLE ( 'NONE', #72, 14.50000000000000000 ) ;
#74 = DIRECTION ( 'NONE',  ( 0.0000000000000000000, -0.9863939238321437500, -0.1643989873053573200 ) ) ;
#75 = VECTOR ( 'NONE', #74, 1000.000000000000000 ) ;
#76 = CARTESIAN_POINT ( 'NONE',  ( -5.009326287108706300E-010, -14.99999999650043100, -14.50000000000000000 ) ) ;
#77 = LINE ( 'NONE', #76, #75 ) ;
#78 = CARTESIAN_POINT ( 'NONE',  ( -5.009308530316575900E-010, -14.99999999650043100, 14.50000000000000000 ) ) ;
#79 = DIRECTION ( 'NONE',  ( 2.013240444161049200E-017, -0.9863939238321437500, 0.1643989873053573200 ) ) ;
#80 = VECTOR ( 'NONE', #79, 1000.000000000000000 ) ;
#81 = CARTESIAN_POINT ( 'NONE',  ( -5.009308530316575900E-010, -14.99999999650043100, 14.50000000000000000 ) ) ;
#82 = LINE ( 'NONE', #81, #80 ) ;
#83 = CARTESIAN_POINT ( 'NONE',  ( -5.009311250738357900E-010, -1.671202021889730500, -12.27853367089821600 ) ) ;
#84 = DIRECTION ( 'NONE',  ( 0.0000000000000000000, 0.0000000000000000000, 1.000000000000000000 ) ) ;
#85 = DIRECTION ( 'NONE',  ( 0.0000000000000000000, 1.000000000000000000, 0.0000000000000000000 ) ) ;
#86 = CARTESIAN_POINT ( 'NONE',  ( -5.009326287108706300E-010, -1.671202021889730500, 0.0000000000000000000 ) ) ;
#87 = AXIS2_PLACEMENT_3D ( 'NONE', #86, #85, #84 ) ;
#88 = CIRCLE ( 'NONE', #87, 12.27853367089821600 ) ;
#89 = DIRECTION ( 'NONE',  ( 0.0000000000000000000, 0.0000000000000000000, -1.000000000000000000 ) ) ;
#90 = DIRECTION ( 'NONE',  ( 0.0000000000000000000, -1.000000000000000000, 0.0000000000000000000 ) ) ;
#91 = AXIS2_PLACEMENT_3D ( 'NONE', #93, #90, #89 ) ;
#92 = CONICAL_SURFACE ( 'NONE', #91, 14.50000000000000000, 0.1651486774146268300 ) ;
#93 = CARTESIAN_POINT ( 'NONE',  ( -5.009326287108706300E-010, -14.99999999650043100, 0.0000000000000000000 ) ) ;
#94 = FACE_OUTER_BOUND ( 'NONE', #62, .T. ) ;
#95 = CARTESIAN_POINT ( 'NONE',  ( -5.009326287108706300E-010, -1.671202021889730500, 12.27853367089821600 ) ) ;
#96 = CARTESIAN_POINT ( 'NONE',  ( -5.009326287108706300E-010, -14.99999999650043100, -14.50000000000000000 ) ) ;
#97 = DIRECTION ( 'NONE',  ( 0.0000000000000000000, 0.0000000000000000000, 1.000000000000000000 ) ) ;
#98 = DIRECTION ( 'NONE',  ( 0.0000000000000000000, 1.000000000000000000, 0.0000000000000000000 ) ) ;
#99 = CARTESIAN_POINT ( 'NONE',  ( -5.009326287108706300E-010, -14.99999999650043100, 0.0000000000000000000 ) ) ;
#100 = AXIS2_PLACEMENT_3D ( 'NONE', #99, #98, #97 ) ;
#101 = CIRCLE ( 'NONE', #100, 14.50000000000000000 ) ;
#102 = DIRECTION ( 'NONE',  ( 0.0000000000000000000, 0.0000000000000000000, 1.000000000000000000 ) ) ;
#103 = DIRECTION ( 'NONE',  ( 0.0000000000000000000, 1.000000000000000000, 0.0000000000000000000 ) ) ;
#104 = CARTESIAN_POINT ( 'NONE',  ( -5.009326287108706300E-010, 2.412507003500041800, 0.0000000000000000000 ) ) ;
#105 = AXIS2_PLACEMENT_3D ( 'NONE', #104, #103, #102 ) ;
#106 = CYLINDRICAL_SURFACE ( 'NONE', #105, 2.000000000000000000 ) ;
#107 = FACE_OUTER_BOUND ( 'NONE', #47, .T. ) ;
#108 = DIRECTION ( 'NONE',  ( 0.0000000000000000000, 1.000000000000000000, 0.0000000000000000000 ) ) ;
#109 = VECTOR ( 'NONE', #108, 1000.000000000000000 ) ;
#110 = CARTESIAN_POINT ( 'NONE',  ( -5.009323837895998700E-010, 2.412507003500041800, -2.000000000000000000 ) ) ;
#111 = LINE ( 'NONE', #110, #109 ) ;
#112 = CARTESIAN_POINT ( 'NONE',  ( -5.009326287108706300E-010, -14.99999999650043100, 2.000000000000000400 ) ) ;
#113 = CARTESIAN_POINT ( 'NONE',  ( -5.009323837895998700E-010, -14.99999999650043100, -2.000000000000000400 ) ) ;
#114 = DIRECTION ( 'NONE',  ( 0.0000000000000000000, 0.0000000000000000000, 1.000000000000000000 ) ) ;
#115 = DIRECTION ( 'NONE',  ( 0.0000000000000000000, 1.000000000000000000, 0.0000000000000000000 ) ) ;
#116 = CARTESIAN_POINT ( 'NONE',  ( -5.009326287108706300E-010, -14.99999999650043100, 0.0000000000000000000 ) ) ;
#117 = AXIS2_PLACEMENT_3D ( 'NONE', #116, #115, #114 ) ;
#118 = CIRCLE ( 'NONE', #117, 2.000000000000000400 ) ;
#119 = CARTESIAN_POINT ( 'NONE',  ( -5.009323837895998700E-010, -9.999999996500433100, -2.000000000000000000 ) ) ;
#120 = CARTESIAN_POINT ( 'NONE',  ( -5.009326287108706300E-010, -9.999999996500433100, 2.000000000000000000 ) ) ;
#121 = DIRECTION ( 'NONE',  ( 0.0000000000000000000, 0.0000000000000000000, 1.000000000000000000 ) ) ;
#122 = DIRECTION ( 'NONE',  ( 0.0000000000000000000, 1.000000000000000000, 0.0000000000000000000 ) ) ;
#123 = CARTESIAN_POINT ( 'NONE',  ( -5.009326287108706300E-010, -9.999999996500433100, 0.0000000000000000000 ) ) ;
#124 = AXIS2_PLACEMENT_3D ( 'NONE', #123, #122, #121 ) ;
#125 = CIRCLE ( 'NONE', #124, 2.000000000000000000 ) ;
#126 = CARTESIAN_POINT ( 'NONE',  ( -5.009326287108706300E-010, -9.999999996500433100, 7.000000000000000900 ) ) ;
#127 = CARTESIAN_POINT ( 'NONE',  ( -5.009317714864229600E-010, -9.999999996500433100, -7.000000000000000900 ) ) ;
#128 = DIRECTION ( 'NONE',  ( 0.0000000000000000000, 0.0000000000000000000, 1.000000000000000000 ) ) ;
#129 = DIRECTION ( 'NONE',  ( 0.0000000000000000000, 1.000000000000000000, 0.0000000000000000000 ) ) ;
#130 = CARTESIAN_POINT ( 'NONE',  ( -5.009326287108706300E-010, 3.499566521986130500E-009, 0.0000000000000000000 ) ) ;
#131 = AXIS2_PLACEMENT_3D ( 'NONE', #130, #129, #128 ) ;
#132 = CIRCLE ( 'NONE', #131, 10.30574582323391500 ) ;
#133 = CARTESIAN_POINT ( 'NONE',  ( -5.009312458682624400E-010, 3.499566521986130500E-009, -10.30574582323391500 ) ) ;
#134 = DIRECTION ( 'NONE',  ( 0.0000000000000000000, 0.0000000000000000000, 1.000000000000000000 ) ) ;
#135 = DIRECTION ( 'NONE',  ( 0.0000000000000000000, 1.000000000000000000, 0.0000000000000000000 ) ) ;
#136 = CARTESIAN_POINT ( 'NONE',  ( -5.009326287108706300E-010, 3.499566521986130500E-009, 0.0000000000000000000 ) ) ;
#137 = AXIS2_PLACEMENT_3D ( 'NONE', #136, #135, #134 ) ;
#138 = CIRCLE ( 'NONE', #137, 10.30574582323391500 ) ;
#139 = DIRECTION ( 'NONE',  ( 0.0000000000000000000, 0.0000000000000000000, -1.000000000000000000 ) ) ;
#140 = DIRECTION ( 'NONE',  ( 0.0000000000000000000, -1.000000000000000000, 0.0000000000000000000 ) ) ;
#141 = CARTESIAN_POINT ( 'NONE',  ( 10.30574582273298200, 3.499566521986130500E-009, 0.0000000000000000000 ) ) ;
#142 = AXIS2_PLACEMENT_3D ( 'NONE', #141, #140, #139 ) ;
#143 = PLANE ( 'NONE',  #142 ) ;
#144 = FACE_OUTER_BOUND ( 'NONE', #38, .T. ) ;
#145 = FACE_BOUND ( 'NONE', #35, .T. ) ;
#146 = DIRECTION ( 'NONE',  ( 0.0000000000000000000, 0.0000000000000000000, 1.000000000000000000 ) ) ;
#147 = DIRECTION ( 'NONE',  ( 0.0000000000000000000, 1.000000000000000000, 0.0000000000000000000 ) ) ;
#148 = CARTESIAN_POINT ( 'NONE',  ( -5.009326287108706300E-010, -1.671202021889730500, 0.0000000000000000000 ) ) ;
#149 = AXIS2_PLACEMENT_3D ( 'NONE', #148, #147, #146 ) ;
#150 = CIRCLE ( 'NONE', #149, 12.27853367089821600 ) ;
#151 = DIRECTION ( 'NONE',  ( 0.0000000000000000000, 0.0000000000000000000, 1.000000000000000000 ) ) ;
#152 = DIRECTION ( 'NONE',  ( -1.000000000000000000, 0.0000000000000000000, 0.0000000000000000000 ) ) ;
#153 = CARTESIAN_POINT ( 'NONE',  ( -5.009326287108706300E-010, -1.999999996500434000, 10.30574582323392700 ) ) ;
#154 = AXIS2_PLACEMENT_3D ( 'NONE', #153, #152, #151 ) ;
#155 = CIRCLE ( 'NONE', #154, 2.000000000000000000 ) ;
#156 = DIRECTION ( 'NONE',  ( 0.0000000000000000000, 0.0000000000000000000, 1.000000000000000000 ) ) ;
#157 = DIRECTION ( 'NONE',  ( 0.0000000000000000000, 1.000000000000000000, 0.0000000000000000000 ) ) ;
#158 = CARTESIAN_POINT ( 'NONE',  ( -5.009326287108706300E-010, -1.999999996500434000, 0.0000000000000000000 ) ) ;
#159 = AXIS2_PLACEMENT_3D ( 'NONE', #158, #157, #156 ) ;
#160 = TOROIDAL_SURFACE ( 'NONE', #159, 10.30574582323392700, 2.000000000000000400 ) ;
#161 = FACE_OUTER_BOUND ( 'NONE', #24, .T. ) ;
#162 = DIRECTION ( 'NONE',  ( 1.224606353612350900E-016, 0.0000000000000000000, -1.000000000000000000 ) ) ;
#163 = DIRECTION ( 'NONE',  ( 1.000000000000000000, 0.0000000000000000000, 1.224606353822377300E-016 ) ) ;
#164 = AXIS2_PLACEMENT_3D ( 'NONE', #166, #163, #162 ) ;
#165 = CIRCLE ( 'NONE', #164, 2.000000000000000000 ) ;
#166 = CARTESIAN_POINT ( 'NONE',  ( -5.009313666626890000E-010, -1.999999996500434000, -10.30574582323392700 ) ) ;
#167 = CARTESIAN_POINT ( 'NONE',  ( -5.009326287108706300E-010, 3.499566521986130500E-009, 10.30574582323391500 ) ) ;
#168 = DIRECTION ( 'NONE',  ( 0.0000000000000000000, 1.000000000000000000, 0.0000000000000000000 ) ) ;
#169 = VECTOR ( 'NONE', #168, 1000.000000000000000 ) ;
#170 = CARTESIAN_POINT ( 'NONE',  ( -5.009326287108706300E-010, 2.412507003500041800, 7.000000000000000900 ) ) ;
#171 = LINE ( 'NONE', #170, #169 ) ;
#172 = DIRECTION ( 'NONE',  ( 0.0000000000000000000, 1.000000000000000000, 0.0000000000000000000 ) ) ;
#173 = VECTOR ( 'NONE', #172, 1000.000000000000000 ) ;
#174 = CARTESIAN_POINT ( 'NONE',  ( -5.009326287108706300E-010, 2.412507003500041800, 2.000000000000000000 ) ) ;
#175 = LINE ( 'NONE', #174, #173 ) ;
#176 = CARTESIAN_POINT ( 'NONE',  ( -5.009317714864229600E-010, 3.499566521986130500E-009, -7.000000000000000000 ) ) ;
#177 = CARTESIAN_POINT ( 'NONE',  ( -5.009326287108706300E-010, 3.499566521986130500E-009, 7.000000000000000000 ) ) ;
#178 = DIRECTION ( 'NONE',  ( 0.0000000000000000000, 0.0000000000000000000, 1.000000000000000000 ) ) ;
#179 = DIRECTION ( 'NONE',  ( 0.0000000000000000000, 1.000000000000000000, 0.0000000000000000000 ) ) ;
#180 = CARTESIAN_POINT ( 'NONE',  ( -5.009326287108706300E-010, 3.499566521986130500E-009, 0.0000000000000000000 ) ) ;
#181 = AXIS2_PLACEMENT_3D ( 'NONE', #180, #179, #178 ) ;
#182 = CIRCLE ( 'NONE', #181, 7.000000000000000000 ) ;
#183 = DIRECTION ( 'NONE',  ( 0.0000000000000000000, 0.0000000000000000000, 1.000000000000000000 ) ) ;
#184 = DIRECTION ( 'NONE',  ( 0.0000000000000000000, 1.000000000000000000, 0.0000000000000000000 ) ) ;
#185 = CARTESIAN_POINT ( 'NONE',  ( -5.009326287108706300E-010, -9.999999996500433100, 0.0000000000000000000 ) ) ;
#186 = AXIS2_PLACEMENT_3D ( 'NONE', #185, #184, #183 ) ;
#187 = CIRCLE ( 'NONE', #186, 7.000000000000000900 ) ;
#188 = DIRECTION ( 'NONE',  ( 0.0000000000000000000, 0.0000000000000000000, 1.000000000000000000 ) ) ;
#189 = DIRECTION ( 'NONE',  ( 0.0000000000000000000, 1.000000000000000000, 0.0000000000000000000 ) ) ;
#190 = CARTESIAN_POINT ( 'NONE',  ( -5.009326287108706300E-010, -1.999999996500434000, 0.0000000000000000000 ) ) ;
#191 = AXIS2_PLACEMENT_3D ( 'NONE', #190, #189, #188 ) ;
#192 = TOROIDAL_SURFACE ( 'NONE', #191, 10.30574582323392700, 2.000000000000000400 ) ;
#193 = DIRECTION ( 'NONE',  ( 0.0000000000000000000, 0.0000000000000000000, 1.000000000000000000 ) ) ;
#194 = DIRECTION ( 'NONE',  ( 0.0000000000000000000, 1.000000000000000000, 0.0000000000000000000 ) ) ;
#195 = CARTESIAN_POINT ( 'NONE',  ( -5.009326287108706300E-010, 2.412507003500041800, 0.0000000000000000000 ) ) ;
#196 = AXIS2_PLACEMENT_3D ( 'NONE', #195, #194, #193 ) ;
#197 = CYLINDRICAL_SURFACE ( 'NONE', #196, 7.000000000000000900 ) ;
#198 = FACE_OUTER_BOUND ( 'NONE', #11, .T. ) ;
#199 = FACE_OUTER_BOUND ( 'NONE', #39, .T. ) ;
#200 = DIRECTION ( 'NONE',  ( 0.0000000000000000000, 1.000000000000000000, 0.0000000000000000000 ) ) ;
#201 = VECTOR ( 'NONE', #200, 1000.000000000000000 ) ;
#202 = CARTESIAN_POINT ( 'NONE',  ( -5.009317714864229600E-010, 2.412507003500041800, -7.000000000000000900 ) ) ;
#203 = LINE ( 'NONE', #202, #201 ) ;
#204 = EDGE_CURVE ( 'NONE', #57, #66, #73, .T. ) ;
#205 = ORIENTED_EDGE ( 'NONE', *, *, #55, .F. ) ;
#206 = EDGE_LOOP ( 'NONE', ( #207, #208 ) ) ;
#207 = ORIENTED_EDGE ( 'NONE', *, *, #219, .T. ) ;
#208 = ORIENTED_EDGE ( 'NONE', *, *, #48, .T. ) ;
#209 = ADVANCED_FACE ( 'NONE', ( #239 ), #238, .T. ) ;
#210 = EDGE_LOOP ( 'NONE', ( #211, #212, #213, #214 ) ) ;
#211 = ORIENTED_EDGE ( 'NONE', *, *, #65, .F. ) ;
#212 = ORIENTED_EDGE ( 'NONE', *, *, #26, .F. ) ;
#213 = ORIENTED_EDGE ( 'NONE', *, *, #67, .T. ) ;
#214 = ORIENTED_EDGE ( 'NONE', *, *, #204, .T. ) ;
#215 = CLOSED_SHELL ( 'NONE', ( #61, #53, #4, #5, #21, #29, #247, #243, #216, #222, #209 ) ) ;
#216 = ADVANCED_FACE ( 'NONE', ( #237 ), #232, .F. ) ;
#217 = ORIENTED_EDGE ( 'NONE', *, *, #52, .F. ) ;
#218 = ORIENTED_EDGE ( 'NONE', *, *, #219, .F. ) ;
#219 = EDGE_CURVE ( 'NONE', #50, #49, #267, .T. ) ;
#220 = ORIENTED_EDGE ( 'NONE', *, *, #13, .T. ) ;
#221 = ORIENTED_EDGE ( 'NONE', *, *, #270, .T. ) ;
#222 = ADVANCED_FACE ( 'NONE', ( #262, #261 ), #260, .F. ) ;
#223 = EDGE_LOOP ( 'NONE', ( #224, #205 ) ) ;
#224 = ORIENTED_EDGE ( 'NONE', *, *, #204, .F. ) ;
#225 = ORIENTED_EDGE ( 'NONE', *, *, #16, .T. ) ;
#226 = ORIENTED_EDGE ( 'NONE', *, *, #269, .T. ) ;
#227 = ORIENTED_EDGE ( 'NONE', *, *, #270, .F. ) ;
#228 = DIRECTION ( 'NONE',  ( 0.0000000000000000000, 0.0000000000000000000, 1.000000000000000000 ) ) ;
#229 = DIRECTION ( 'NONE',  ( 0.0000000000000000000, 1.000000000000000000, 0.0000000000000000000 ) ) ;
#230 = CARTESIAN_POINT ( 'NONE',  ( -5.009326287108706300E-010, 2.412507003500041800, 0.0000000000000000000 ) ) ;
#231 = AXIS2_PLACEMENT_3D ( 'NONE', #230, #229, #228 ) ;
#232 = CYLINDRICAL_SURFACE ( 'NONE', #231, 2.000000000000000000 ) ;
#233 = DIRECTION ( 'NONE',  ( 0.0000000000000000000, 0.0000000000000000000, -1.000000000000000000 ) ) ;
#234 = DIRECTION ( 'NONE',  ( 0.0000000000000000000, -1.000000000000000000, 0.0000000000000000000 ) ) ;
#235 = CARTESIAN_POINT ( 'NONE',  ( -5.009326287108706300E-010, -14.99999999650043100, 0.0000000000000000000 ) ) ;
#236 = AXIS2_PLACEMENT_3D ( 'NONE', #235, #234, #233 ) ;
#237 = FACE_OUTER_BOUND ( 'NONE', #268, .T. ) ;
#238 = CONICAL_SURFACE ( 'NONE', #236, 14.50000000000000000, 0.1651486774146268300 ) ;
#239 = FACE_OUTER_BOUND ( 'NONE', #210, .T. ) ;
#240 = EDGE_LOOP ( 'NONE', ( #273, #242, #225, #226 ) ) ;
#241 = EDGE_LOOP ( 'NONE', ( #272, #246 ) ) ;
#242 = ORIENTED_EDGE ( 'NONE', *, *, #245, .F. ) ;
#243 = ADVANCED_FACE ( 'NONE', ( #255, #254 ), #253, .F. ) ;
#244 = ORIENTED_EDGE ( 'NONE', *, *, #7, .F. ) ;
#245 = EDGE_CURVE ( 'NONE', #41, #40, #381, .T. ) ;
#246 = ORIENTED_EDGE ( 'NONE', *, *, #6, .T. ) ;
#247 = ADVANCED_FACE ( 'NONE', ( #376 ), #373, .F. ) ;
#248 = EDGE_LOOP ( 'NONE', ( #227, #271 ) ) ;
#249 = DIRECTION ( 'NONE',  ( 0.0000000000000000000, 0.0000000000000000000, -1.000000000000000000 ) ) ;
#250 = DIRECTION ( 'NONE',  ( 0.0000000000000000000, -1.000000000000000000, 0.0000000000000000000 ) ) ;
#251 = CARTESIAN_POINT ( 'NONE',  ( 6.999999999499068300, -9.999999996500433100, 0.0000000000000000000 ) ) ;
#252 = AXIS2_PLACEMENT_3D ( 'NONE', #251, #250, #249 ) ;
#253 = PLANE ( 'NONE',  #252 ) ;
#254 = FACE_OUTER_BOUND ( 'NONE', #241, .T. ) ;
#255 = FACE_BOUND ( 'NONE', #248, .T. ) ;
#256 = DIRECTION ( 'NONE',  ( 0.0000000000000000000, 0.0000000000000000000, 1.000000000000000000 ) ) ;
#257 = DIRECTION ( 'NONE',  ( 0.0000000000000000000, 1.000000000000000000, 0.0000000000000000000 ) ) ;
#258 = CARTESIAN_POINT ( 'NONE',  ( 1.999999999499067800, -14.99999999650043100, 0.0000000000000000000 ) ) ;
#259 = AXIS2_PLACEMENT_3D ( 'NONE', #258, #257, #256 ) ;
#260 = PLANE ( 'NONE',  #259 ) ;
#261 = FACE_BOUND ( 'NONE', #206, .T. ) ;
#262 = FACE_OUTER_BOUND ( 'NONE', #223, .T. ) ;
#263 = DIRECTION ( 'NONE',  ( 0.0000000000000000000, 0.0000000000000000000, 1.000000000000000000 ) ) ;
#264 = DIRECTION ( 'NONE',  ( 0.0000000000000000000, 1.000000000000000000, 0.0000000000000000000 ) ) ;
#265 = CARTESIAN_POINT ( 'NONE',  ( -5.009326287108706300E-010, -14.99999999650043100, 0.0000000000000000000 ) ) ;
#266 = AXIS2_PLACEMENT_3D ( 'NONE', #265, #264, #263 ) ;
#267 = CIRCLE ( 'NONE', #266, 2.000000000000000400 ) ;
#268 = EDGE_LOOP ( 'NONE', ( #217, #218, #220, #221 ) ) ;
#269 = EDGE_CURVE ( 'NONE', #9, #10, #374, .T. ) ;
#270 = EDGE_CURVE ( 'NONE', #44, #45, #365, .T. ) ;
#271 = ORIENTED_EDGE ( 'NONE', *, *, #43, .F. ) ;
#272 = ORIENTED_EDGE ( 'NONE', *, *, #245, .T. ) ;
#273 = ORIENTED_EDGE ( 'NONE', *, *, #3, .F. ) ;
#274 = PRODUCT_DEFINITION_SHAPE ( 'NONE', 'NONE',  #337 ) ;
#275 = PRODUCT_RELATED_PRODUCT_CATEGORY ( 'detail', '', ( #346 ) ) ;
#276 = CC_DESIGN_SECURITY_CLASSIFICATION ( #297, ( #316 ) ) ;
#277 = CC_DESIGN_APPROVAL ( #285, ( #297 ) ) ;
#278 = APPROVAL_DATE_TIME ( #279, #285 ) ;
#279 = DATE_AND_TIME ( #280, #281 ) ;
#280 = CALENDAR_DATE ( 2009, 26, 6 ) ;
#281 = LOCAL_TIME ( 14, 59, 23.00000000000000000, #282 ) ;
#282 = COORDINATED_UNIVERSAL_TIME_OFFSET ( 9, 0, .AHEAD. ) ;
#283 = APPROVAL_PERSON_ORGANIZATION ( #287, #285, #284 ) ;
#284 = APPROVAL_ROLE ( '' ) ;
#285 = APPROVAL ( #286, 'UNSPECIFIED' ) ;
#286 = APPROVAL_STATUS ( 'not_yet_approved' ) ;
#287 = PERSON_AND_ORGANIZATION ( #345, #344 ) ;
#288 = CC_DESIGN_DATE_AND_TIME_ASSIGNMENT ( #290, #289, ( #297 ) ) ;
#289 = DATE_TIME_ROLE ( 'classification_date' ) ;
#290 = DATE_AND_TIME ( #291, #292 ) ;
#291 = CALENDAR_DATE ( 2009, 26, 6 ) ;
#292 = LOCAL_TIME ( 14, 59, 23.00000000000000000, #293 ) ;
#293 = COORDINATED_UNIVERSAL_TIME_OFFSET ( 9, 0, .AHEAD. ) ;
#294 = CC_DESIGN_PERSON_AND_ORGANIZATION_ASSIGNMENT ( #296, #295, ( #297 ) ) ;
#295 = PERSON_AND_ORGANIZATION_ROLE ( 'classification_officer' ) ;
#296 = PERSON_AND_ORGANIZATION ( #345, #344 ) ;
#297 = SECURITY_CLASSIFICATION ( '', '', #298 ) ;
#298 = SECURITY_CLASSIFICATION_LEVEL ( 'unclassified' ) ;
#299 = CC_DESIGN_PERSON_AND_ORGANIZATION_ASSIGNMENT ( #301, #300, ( #316 ) ) ;
#300 = PERSON_AND_ORGANIZATION_ROLE ( 'design_supplier' ) ;
#301 = PERSON_AND_ORGANIZATION ( #345, #344 ) ;
#302 = CC_DESIGN_PERSON_AND_ORGANIZATION_ASSIGNMENT ( #304, #303, ( #316 ) ) ;
#303 = PERSON_AND_ORGANIZATION_ROLE ( 'creator' ) ;
#304 = PERSON_AND_ORGANIZATION ( #345, #344 ) ;
#305 = CC_DESIGN_APPROVAL ( #313, ( #316 ) ) ;
#306 = APPROVAL_DATE_TIME ( #307, #313 ) ;
#307 = DATE_AND_TIME ( #308, #309 ) ;
#308 = CALENDAR_DATE ( 2009, 26, 6 ) ;
#309 = LOCAL_TIME ( 14, 59, 23.00000000000000000, #310 ) ;
#310 = COORDINATED_UNIVERSAL_TIME_OFFSET ( 9, 0, .AHEAD. ) ;
#311 = APPROVAL_PERSON_ORGANIZATION ( #315, #313, #312 ) ;
#312 = APPROVAL_ROLE ( '' ) ;
#313 = APPROVAL ( #314, 'UNSPECIFIED' ) ;
#314 = APPROVAL_STATUS ( 'not_yet_approved' ) ;
#315 = PERSON_AND_ORGANIZATION ( #345, #344 ) ;
#316 = PRODUCT_DEFINITION_FORMATION_WITH_SPECIFIED_SOURCE ( 'ANY', '', #346, .NOT_KNOWN. ) ;
#317 = CC_DESIGN_DATE_AND_TIME_ASSIGNMENT ( #319, #318, ( #337 ) ) ;
#318 = DATE_TIME_ROLE ( 'creation_date' ) ;
#319 = DATE_AND_TIME ( #320, #321 ) ;
#320 = CALENDAR_DATE ( 2009, 26, 6 ) ;
#321 = LOCAL_TIME ( 14, 59, 23.00000000000000000, #322 ) ;
#322 = COORDINATED_UNIVERSAL_TIME_OFFSET ( 9, 0, .AHEAD. ) ;
#323 = CC_DESIGN_PERSON_AND_ORGANIZATION_ASSIGNMENT ( #325, #324, ( #337 ) ) ;
#324 = PERSON_AND_ORGANIZATION_ROLE ( 'creator' ) ;
#325 = PERSON_AND_ORGANIZATION ( #345, #344 ) ;
#326 = CC_DESIGN_APPROVAL ( #334, ( #337 ) ) ;
#327 = APPROVAL_DATE_TIME ( #328, #334 ) ;
#328 = DATE_AND_TIME ( #329, #330 ) ;
#329 = CALENDAR_DATE ( 2009, 26, 6 ) ;
#330 = LOCAL_TIME ( 14, 59, 23.00000000000000000, #331 ) ;
#331 = COORDINATED_UNIVERSAL_TIME_OFFSET ( 9, 0, .AHEAD. ) ;
#332 = APPROVAL_PERSON_ORGANIZATION ( #336, #334, #333 ) ;
#333 = APPROVAL_ROLE ( '' ) ;
#334 = APPROVAL ( #335, 'UNSPECIFIED' ) ;
#335 = APPROVAL_STATUS ( 'not_yet_approved' ) ;
#336 = PERSON_AND_ORGANIZATION ( #345, #344 ) ;
#337 = PRODUCT_DEFINITION ( 'UNKNOWN', '', #316, #338 ) ;
#338 = DESIGN_CONTEXT ( 'detailed design', #340, 'design' ) ;
#339 = APPLICATION_PROTOCOL_DEFINITION ( 'international standard', 'config_control_design', 1994, #340 ) ;
#340 = APPLICATION_CONTEXT ( 'configuration controlled 3d designs of mechanical parts and assemblies' ) ;
#341 = CC_DESIGN_PERSON_AND_ORGANIZATION_ASSIGNMENT ( #343, #342, ( #346 ) ) ;
#342 = PERSON_AND_ORGANIZATION_ROLE ( 'design_owner' ) ;
#343 = PERSON_AND_ORGANIZATION ( #345, #344 ) ;
#344 = ORGANIZATION ( 'UNSPECIFIED', 'UNSPECIFIED', '' ) ;
#345 = PERSON ( 'UNSPECIFIED', 'UNSPECIFIED', 'UNSPECIFIED', ('UNSPECIFIED'), ('UNSPECIFIED'), ('UNSPECIFIED') ) ;
#346 = PRODUCT ( 'C-30-RK-29', 'C-30-RK-29', '', ( #347 ) ) ;
#347 = MECHANICAL_CONTEXT ( 'NONE', #349, 'mechanical' ) ;
#348 = APPLICATION_PROTOCOL_DEFINITION ( 'international standard', 'config_control_design', 1994, #349 ) ;
#349 = APPLICATION_CONTEXT ( 'configuration controlled 3d designs of mechanical parts and assemblies' ) ;
#350 = DIRECTION ( 'NONE',  ( 1.000000000000000000, 0.0000000000000000000, 0.0000000000000000000 ) ) ;
#351 = CARTESIAN_POINT ( 'NONE',  ( 0.0000000000000000000, 0.0000000000000000000, 0.0000000000000000000 ) ) ;
#352 = AXIS2_PLACEMENT_3D ( 'NONE', #351, #360, #350 ) ;
#353 = SHAPE_DEFINITION_REPRESENTATION ( #274, #354 ) ;
#354 = ADVANCED_BREP_SHAPE_REPRESENTATION ( 'C-30-RK-29', ( #60, #352 ), #355 ) ;
#355 =( GEOMETRIC_REPRESENTATION_CONTEXT ( 3 ) GLOBAL_UNCERTAINTY_ASSIGNED_CONTEXT ( ( #356 ) ) GLOBAL_UNIT_ASSIGNED_CONTEXT ( ( #359, #358, #357 ) ) REPRESENTATION_CONTEXT ( 'NONE', 'WORKASPACE' ) );
#356 = UNCERTAINTY_MEASURE_WITH_UNIT (LENGTH_MEASURE( 1.000000000000000100E-005 ), #359, 'distance_accuracy_value', 'NONE');
#357 =( NAMED_UNIT ( * ) SI_UNIT ( $, .STERADIAN. ) SOLID_ANGLE_UNIT ( ) );
#358 =( NAMED_UNIT ( * ) PLANE_ANGLE_UNIT ( ) SI_UNIT ( $, .RADIAN. ) );
#359 =( LENGTH_UNIT ( ) NAMED_UNIT ( * ) SI_UNIT ( .MILLI., .METRE. ) );
#360 = DIRECTION ( 'NONE',  ( 0.0000000000000000000, 0.0000000000000000000, 1.000000000000000000 ) ) ;
#361 = DIRECTION ( 'NONE',  ( 0.0000000000000000000, 0.0000000000000000000, 1.000000000000000000 ) ) ;
#362 = DIRECTION ( 'NONE',  ( 0.0000000000000000000, 1.000000000000000000, 0.0000000000000000000 ) ) ;
#363 = CARTESIAN_POINT ( 'NONE',  ( -5.009326287108706300E-010, -9.999999996500433100, 0.0000000000000000000 ) ) ;
#364 = AXIS2_PLACEMENT_3D ( 'NONE', #363, #362, #361 ) ;
#365 = CIRCLE ( 'NONE', #364, 2.000000000000000000 ) ;
#366 = DIRECTION ( 'NONE',  ( 0.0000000000000000000, 0.0000000000000000000, 1.000000000000000000 ) ) ;
#367 = DIRECTION ( 'NONE',  ( 0.0000000000000000000, 1.000000000000000000, 0.0000000000000000000 ) ) ;
#368 = CARTESIAN_POINT ( 'NONE',  ( -5.009326287108706300E-010, 3.499566521986130500E-009, 0.0000000000000000000 ) ) ;
#369 = AXIS2_PLACEMENT_3D ( 'NONE', #368, #367, #366 ) ;
#370 = DIRECTION ( 'NONE',  ( 0.0000000000000000000, 0.0000000000000000000, 1.000000000000000000 ) ) ;
#371 = DIRECTION ( 'NONE',  ( 0.0000000000000000000, 1.000000000000000000, 0.0000000000000000000 ) ) ;
#372 = AXIS2_PLACEMENT_3D ( 'NONE', #375, #371, #370 ) ;
#373 = CYLINDRICAL_SURFACE ( 'NONE', #372, 7.000000000000000900 ) ;
#374 = CIRCLE ( 'NONE', #369, 7.000000000000000000 ) ;
#375 = CARTESIAN_POINT ( 'NONE',  ( -5.009326287108706300E-010, 2.412507003500041800, 0.0000000000000000000 ) ) ;
#376 = FACE_OUTER_BOUND ( 'NONE', #240, .T. ) ;
#377 = DIRECTION ( 'NONE',  ( 0.0000000000000000000, 0.0000000000000000000, 1.000000000000000000 ) ) ;
#378 = DIRECTION ( 'NONE',  ( 0.0000000000000000000, 1.000000000000000000, 0.0000000000000000000 ) ) ;
#379 = CARTESIAN_POINT ( 'NONE',  ( -5.009326287108706300E-010, -9.999999996500433100, 0.0000000000000000000 ) ) ;
#380 = AXIS2_PLACEMENT_3D ( 'NONE', #379, #378, #377 ) ;
#381 = CIRCLE ( 'NONE', #380, 7.000000000000000900 ) ;
ENDSEC;
END-ISO-10303-21;
